  0
SECTION
  2
HEADER
  9
$ACADVER
  1
AC1009
  9
$INSBASE
 10
0.0
 20
0.0
 30
0.0
  9
$EXTMIN
 10
0.0
 20
-2.960436562073669
 30
0.0
  9
$EXTMAX
 10
136.78200824704851
 20
131.4877682522401
 30
0.0
  9
$LIMMIN
 10
0.0
 20
0.0
  9
$LIMMAX
 10
187.5
 20
135.0
  9
$ORTHOMODE
 70
     1
  9
$REGENMODE
 70
     1
  9
$FILLMODE
 70
     1
  9
$QTEXTMODE
 70
     0
  9
$MIRRTEXT
 70
     0
  9
$DRAGMODE
 70
     2
  9
$LTSCALE
 40
5.0
  9
$OSMODE
 70
    37
  9
$ATTMODE
 70
     1
  9
$TEXTSIZE
 40
0.2
  9
$TRACEWID
 40
0.05
  9
$TEXTSTYLE
  7
STANDARD
  9
$CLAYER
  8
0
  9
$CELTYPE
  6
BYLAYER
  9
$CECOLOR
 62
     4
  9
$DIMSCALE
 40
1.0
  9
$DIMASZ
 40
3.0
  9
$DIMEXO
 40
2.0
  9
$DIMDLI
 40
0.3799999999999999
  9
$DIMRND
 40
0.0
  9
$DIMDLE
 40
0.0
  9
$DIMEXE
 40
2.0
  9
$DIMTP
 40
0.0
  9
$DIMTM
 40
0.0
  9
$DIMTXT
 40
3.2000000000000002
  9
$DIMCEN
 40
0.09
  9
$DIMTSZ
 40
0.0
  9
$DIMTOL
 70
     0
  9
$DIMLIM
 70
     0
  9
$DIMTIH
 70
     0
  9
$DIMTOH
 70
     0
  9
$DIMSE1
 70
     0
  9
$DIMSE2
 70
     0
  9
$DIMTAD
 70
     1
  9
$DIMZIN
 70
     8
  9
$DIMBLK
  1

  9
$DIMASO
 70
     0
  9
$DIMSHO
 70
     0
  9
$DIMPOST
  1

  9
$DIMAPOST
  1

  9
$DIMALT
 70
     0
  9
$DIMALTD
 70
     2
  9
$DIMALTF
 40
25.399999999999999
  9
$DIMLFAC
 40
1.0
  9
$DIMTOFL
 70
     0
  9
$DIMTVP
 40
1.6000000000000001
  9
$DIMTIX
 70
     1
  9
$DIMSOXD
 70
     0
  9
$DIMSAH
 70
     0
  9
$DIMBLK1
  1

  9
$DIMBLK2
  1

  9
$DIMSTYLE
  2
STANDARD
  9
$DIMCLRD
 70
     0
  9
$DIMCLRE
 70
     0
  9
$DIMCLRT
 70
     0
  9
$DIMTFAC
 40
1.0
  9
$DIMGAP
 40
1.0
  9
$LUNITS
 70
     2
  9
$LUPREC
 70
     1
  9
$SKETCHINC
 40
0.1
  9
$FILLETRAD
 40
0.4
  9
$AUNITS
 70
     0
  9
$AUPREC
 70
     1
  9
$MENU
  1
E:\r13\win\SUPPORT\ACAD
  9
$ELEVATION
 40
0.0
  9
$PELEVATION
 40
0.0
  9
$THICKNESS
 40
0.0
  9
$LIMCHECK
 70
     0
  9
$BLIPMODE
 70
     0
  9
$CHAMFERA
 40
0.0
  9
$CHAMFERB
 40
0.0
  9
$SKPOLY
 70
     0
  9
$TDCREATE
 40
2456129.6740617128
  9
$TDUPDATE
 40
2457892.4258424649
  9
$TDINDWG
 40
0.7041296875000001
  9
$TDUSRTIMER
 40
0.7041295139
  9
$USRTIMER
 70
     1
  9
$ANGBASE
 50
0.0
  9
$ANGDIR
 70
     0
  9
$PDMODE
 70
     0
  9
$PDSIZE
 40
0.0
  9
$PLINEWID
 40
0.0
  9
$COORDS
 70
     1
  9
$SPLFRAME
 70
     0
  9
$SPLINETYPE
 70
     6
  9
$SPLINESEGS
 70
     8
  9
$ATTDIA
 70
     0
  9
$ATTREQ
 70
     1
  9
$HANDLING
 70
     1
  9
$HANDSEED
  5
B771
  9
$SURFTAB1
 70
     6
  9
$SURFTAB2
 70
     6
  9
$SURFTYPE
 70
     6
  9
$SURFU
 70
     6
  9
$SURFV
 70
     6
  9
$UCSNAME
  2

  9
$UCSORG
 10
0.0
 20
0.0
 30
0.0
  9
$UCSXDIR
 10
1.0
 20
0.0
 30
0.0
  9
$UCSYDIR
 10
0.0
 20
1.0
 30
0.0
  9
$PUCSNAME
  2

  9
$PUCSORG
 10
0.0
 20
0.0
 30
0.0
  9
$PUCSXDIR
 10
1.0
 20
0.0
 30
0.0
  9
$PUCSYDIR
 10
0.0
 20
1.0
 30
0.0
  9
$USERI1
 70
     0
  9
$USERI2
 70
     1
  9
$USERI3
 70
     0
  9
$USERI4
 70
     0
  9
$USERI5
 70
     0
  9
$USERR1
 40
0.0
  9
$USERR2
 40
0.0
  9
$USERR3
 40
0.0
  9
$USERR4
 40
0.0
  9
$USERR5
 40
0.0
  9
$WORLDVIEW
 70
     1
  9
$SHADEDGE
 70
     3
  9
$SHADEDIF
 70
    70
  9
$TILEMODE
 70
     1
  9
$MAXACTVP
 70
    16
  9
$PLIMCHECK
 70
     0
  9
$PEXTMIN
 10
1.0000000000000000E+020
 20
1.0000000000000000E+020
 30
1.0000000000000000E+020
  9
$PEXTMAX
 10
-1.0000000000000000E+020
 20
-1.0000000000000000E+020
 30
-1.0000000000000000E+020
  9
$PLIMMIN
 10
0.0
 20
0.0
  9
$PLIMMAX
 10
12.0
 20
9.0
  9
$UNITMODE
 70
     0
  9
$VISRETAIN
 70
     0
  9
$PLINEGEN
 70
     0
  9
$PSLTSCALE
 70
     0
  0
ENDSEC
  0
SECTION
  2
TABLES
  0
TABLE
  2
VPORT
 70
     1
  0
VPORT
  2
*ACTIVE
 70
     0
 10
0.0
 20
0.0
 11
1.0
 21
1.0
 12
181.62393162393161
 22
100.0
 13
0.0
 23
0.0
 14
5.0
 24
5.0
 15
5.0
 25
5.0
 16
0.0
 26
0.0
 36
1.0
 17
0.0
 27
0.0
 37
0.0
 40
200.0
 41
1.816239316239316
 42
50.0
 43
0.0
 44
0.0
 50
0.0
 51
0.0
 71
     0
 72
   500
 73
     1
 74
     0
 75
     0
 76
     0
 77
     0
 78
     2
  0
ENDTAB
  0
TABLE
  2
LTYPE
 70
     3
  0
LTYPE
  2
CONTINUOUS
 70
     0
  3
Solid Line
 72
    65
 73
     0
 40
0.0
  0
LTYPE
  2
CENTER
 70
     0
  3
____ _ ____ _ ____ _ ____ _ ____ _ ____ _ ____
 72
    65
 73
     4
 40
2.0
 49
1.25
 49
-0.25
 49
0.25
 49
-0.25
  0
LTYPE
  2
PHANTOM2
 70
     0
  3
___ _ _ ___ _ _ ___ _ _ ___ _ _
 72
    65
 73
     6
 40
1.25
 49
0.625
 49
-0.125
 49
0.125
 49
-0.125
 49
0.125
 49
-0.125
  0
ENDTAB
  0
TABLE
  2
LAYER
 70
     4
  0
LAYER
  2
0
 70
     0
 62
     7
  6
CONTINUOUS
  0
LAYER
  2
1
 70
     0
 62
     1
  6
CENTER
  0
LAYER
  2
DEFPOINTS
 70
     0
 62
     7
  6
CONTINUOUS
  0
LAYER
  2
3
 70
     0
 62
     3
  6
CONTINUOUS
  0
ENDTAB
  0
TABLE
  2
STYLE
 70
     2
  0
STYLE
  2
STANDARD
 70
     0
 40
0.0
 41
1.0
 50
0.0
 71
     0
 42
0.2
  3
TXT
  4
BIGFONT
  0
STYLE
  2
STANDARD1
 70
     0
 40
0.0
 41
1.0
 50
0.0
 71
     0
 42
3.0
  3
txt
  4

  0
ENDTAB
  0
TABLE
  2
VIEW
 70
     0
  0
ENDTAB
  0
TABLE
  2
UCS
 70
     0
  0
ENDTAB
  0
TABLE
  2
APPID
 70
     7
  0
APPID
  2
ACAD
 70
     0
  0
APPID
  2
ACAD_MLEADERVER
 70
     0
  0
APPID
  2
ACAD_PSEXT
 70
     0
  0
APPID
  2
ACAD_EXEMPT_FROM_CAD_STANDARDS
 70
     0
  0
APPID
  2
ACAD_DSTYLE_DIMJAG
 70
     0
  0
APPID
  2
ACAD_DSTYLE_DIMTALN
 70
     0
  0
APPID
  2
ACAD_NAV_VCDISPLAY
 70
     0
  0
ENDTAB
  0
TABLE
  2
DIMSTYLE
 70
     1
  0
DIMSTYLE
  2
STANDARD
 70
     0
  3

  4

  5

  6

  7

 40
1.0
 41
0.18
 42
0.0625
 43
0.38
 44
0.18
 45
0.0
 46
0.0
 47
0.0
 48
0.0
140
0.18
141
0.09
142
0.0
143
25.399999999999999
144
1.0
145
0.0
146
1.0
147
0.09
 71
     0
 72
     0
 73
     1
 74
     1
 75
     0
 76
     0
 77
     0
 78
     0
170
     0
171
     2
172
     0
173
     0
174
     0
175
     0
176
     0
177
     0
178
     0
  0
ENDTAB
  0
ENDSEC
  0
SECTION
  2
BLOCKS
  0
BLOCK
  8
0
  2
$MODEL_SPACE
 70
     0
 10
0.0
 20
0.0
 30
0.0
  3
$MODEL_SPACE
  1

  0
ENDBLK
  5
9
  8
0
  0
BLOCK
 67
     1
  8
0
  2
$PAPER_SPACE
 70
     0
 10
0.0
 20
0.0
 30
0.0
  3
$PAPER_SPACE
  1

  0
ENDBLK
  5
E
 67
     1
  8
0
  0
ENDSEC
  0
SECTION
  2
ENTITIES
  0
TEXT
  5
9FA2
  8
0
 62
     3
 10
0.0
 20
0.0
 30
0.0
 40
10.0
  1
EWN48BX16-LB
  7
STANDARD1
  0
LINE
  5
ABCF
  8
1
 10
108.28200824704859
 20
41.111350227879711
 30
0.0
 11
108.28200824704859
 21
91.111350227879655
 31
0.0
  0
ARC
  5
ABD0
  8
0
 10
91.982008247048583
 20
78.911350227879723
 30
0.0
 40
7.1999999999999877
 50
90.0
 51
249.3229036073574
  0
LINE
  5
ABD1
  8
0
 10
124.58200824704871
 20
86.111350227879711
 30
0.0
 11
124.2846692605499
 21
86.111350227879711
 31
0.0
  0
ARC
  5
ABD2
  8
0
 10
124.58200824704871
 20
78.911350227879723
 30
0.0
 40
7.199999999999986
 50
290.6770963926391
 51
90.0
  0
ARC
  5
ABD3
  8
0
 10
115.5301046150794
 20
123.0030338438236
 30
0.0
 40
57.133049242426239
 50
242.82815740995781
 51
255.81764980476601
  0
ARC
  5
ABD4
  8
0
 10
101.03391187901779
 20
123.0030338438236
 30
0.0
 40
57.133049242426232
 50
284.18235019523399
 51
297.17184259004227
  0
LINE
  5
ABD5
  8
0
 10
101.53200824704859
 20
67.611350227879768
 30
0.0
 11
101.53200824704859
 21
62.111350227879711
 31
0.0
  0
LINE
  5
ABD6
  8
0
 10
115.03200824704859
 20
62.111350227879711
 30
0.0
 11
115.03200824704859
 21
67.611350227879711
 31
0.0
  0
LINE
  5
ABD7
  8
0
 10
102.6973243081414
 20
84.079131107668104
 30
0.0
 11
113.8666921859559
 21
84.079131107668104
 31
0.0
  0
LINE
  5
ABD8
  8
0
 10
115.03200824704859
 20
62.111350227879711
 30
0.0
 11
101.53200824704859
 21
62.111350227879711
 31
0.0
  0
POLYLINE
  5
ABD9
  8
0
 66
     1
 10
0.0
 20
0.0
 30
0.0
  0
VERTEX
  5
B39D
  8
0
 10
100.1939931791661
 20
84.352868073439311
 30
0.0
  0
VERTEX
  5
B39E
  8
0
 10
100.2714760001066
 20
84.339710036435747
 30
0.0
  0
VERTEX
  5
B39F
  8
0
 10
100.4288181069882
 20
84.313736483086018
 30
0.0
  0
VERTEX
  5
B3A0
  8
0
 10
100.58845483336999
 20
84.288404058009974
 30
0.0
  0
VERTEX
  5
B3A1
  8
0
 10
100.6688043889074
 20
84.276043827589476
 30
0.0
  0
VERTEX
  5
B3A2
  8
0
 10
100.7493351071428
 20
84.263920123893172
 30
0.0
  0
VERTEX
  5
B3A3
  8
0
 10
100.9104343297962
 20
84.240472146348225
 30
0.0
  0
VERTEX
  5
B3A4
  8
0
 10
101.070739155583
 20
84.218230663631516
 30
0.0
  0
VERTEX
  5
B3A5
  8
0
 10
101.2292434036442
 20
84.197349887977566
 30
0.0
  0
VERTEX
  5
B3A6
  8
0
 10
101.3850180139254
 20
84.177958800905117
 30
0.0
  0
VERTEX
  5
B3A7
  8
0
 10
101.53724547351359
 20
84.160159030852014
 30
0.0
  0
VERTEX
  5
B3A8
  8
0
 10
101.6117486746824
 20
84.151886940298127
 30
0.0
  0
VERTEX
  5
B3A9
  8
0
 10
101.6850325998832
 20
84.144047482262124
 30
0.0
  0
VERTEX
  5
B3AA
  8
0
 10
101.827532703778
 20
84.129699618512177
 30
0.0
  0
VERTEX
  5
B3AB
  8
0
 10
101.963976956602
 20
84.117166034526306
 30
0.0
  0
VERTEX
  5
B3AC
  8
0
 10
102.09365520928429
 20
84.106474165193447
 30
0.0
  0
VERTEX
  5
B3AD
  8
0
 10
102.21592649031339
 20
84.097626372849788
 30
0.0
  0
VERTEX
  5
B3AE
  8
0
 10
102.3320391035937
 20
84.090497400773643
 30
0.0
  0
VERTEX
  5
B3AF
  8
0
 10
102.3885132821311
 20
84.087539401076242
 30
0.0
  0
VERTEX
  5
B3B0
  8
0
 10
102.44375906060191
 20
84.085006424463643
 30
0.0
  0
VERTEX
  5
B3B1
  8
0
 10
102.55005805493791
 20
84.081268354833185
 30
0.0
  0
VERTEX
  5
B3B2
  8
0
 10
102.6499982500241
 20
84.079370471155698
 30
0.0
  0
VERTEX
  5
B3B3
  8
0
 10
102.6973243081414
 20
84.079131107668104
 30
0.0
  0
SEQEND
  5
B3B4
  8
0
  0
POLYLINE
  5
ABDA
  8
0
 66
     1
 10
0.0
 20
0.0
 30
0.0
  0
VERTEX
  5
B3B5
  8
0
 10
113.8666921859559
 20
84.079131107668104
 30
0.0
  0
VERTEX
  5
B3B6
  8
0
 10
113.9117953900778
 20
84.079348935515895
 30
0.0
  0
VERTEX
  5
B3B7
  8
0
 10
114.00863521644899
 20
84.081124690059596
 30
0.0
  0
VERTEX
  5
B3B8
  8
0
 10
114.1140415715136
 20
84.084745213538795
 30
0.0
  0
VERTEX
  5
B3B9
  8
0
 10
114.169824410685
 20
84.087262042853055
 30
0.0
  0
VERTEX
  5
B3BA
  8
0
 10
114.22757721459109
 20
84.090254265150634
 30
0.0
  0
VERTEX
  5
B3BB
  8
0
 10
114.3487118899927
 20
84.097668060125685
 30
0.0
  0
VERTEX
  5
B3BC
  8
0
 10
114.4768141322207
 20
84.10697577995478
 30
0.0
  0
VERTEX
  5
B3BD
  8
0
 10
114.61114972100739
 20
84.118139396598735
 30
0.0
  0
VERTEX
  5
B3BE
  8
0
 10
114.7509536339455
 20
84.131100098381765
 30
0.0
  0
VERTEX
  5
B3BF
  8
0
 10
114.89545519785079
 20
84.145783132976987
 30
0.0
  0
VERTEX
  5
B3C0
  8
0
 10
114.969177228934
 20
84.153738120955708
 30
0.0
  0
VERTEX
  5
B3C1
  8
0
 10
115.04371572256839
 20
84.162081642185569
 30
0.0
  0
VERTEX
  5
B3C2
  8
0
 10
115.19473355276089
 20
84.179864789440146
 30
0.0
  0
VERTEX
  5
B3C3
  8
0
 10
115.34746965508749
 20
84.198980582453942
 30
0.0
  0
VERTEX
  5
B3C4
  8
0
 10
115.5008234522242
 20
84.219252685648428
 30
0.0
  0
VERTEX
  5
B3C5
  8
0
 10
115.6536509197629
 20
84.240481921783157
 30
0.0
  0
VERTEX
  5
B3C6
  8
0
 10
115.8081533640844
 20
84.262949014860965
 30
0.0
  0
VERTEX
  5
B3C7
  8
0
 10
115.88677403004409
 20
84.274761044256593
 30
0.0
  0
VERTEX
  5
B3C8
  8
0
 10
115.9661465620985
 20
84.286942161739489
 30
0.0
  0
VERTEX
  5
B3C9
  8
0
 10
116.1266574203121
 20
84.312355110153348
 30
0.0
  0
VERTEX
  5
B3CA
  8
0
 10
116.2887146396955
 20
84.339066630210183
 30
0.0
  0
VERTEX
  5
B3CB
  8
0
 10
116.3700233149312
 20
84.352868073439311
 30
0.0
  0
SEQEND
  5
B3CC
  8
0
  0
POLYLINE
  5
ABDB
  8
0
 10
116.37002331493119
 20
84.352868073439254
 30
0.0
 66
     1
 70
     8
  0
VERTEX
  8
0
  5
B569
 10
116.370
 20
84.3529
 30
0.000000
  70
    32
  0
VERTEX
  8
0
  5
B56A
 10
116.409
 20
84.3595
 30
0.000000
  70
    32
  0
VERTEX
  8
0
  5
B56B
 10
116.447
 20
84.3661
 30
0.000000
  70
    32
  0
VERTEX
  8
0
  5
B56C
 10
116.485
 20
84.3728
 30
0.000000
  70
    32
  0
VERTEX
  8
0
  5
B56D
 10
116.524
 20
84.3795
 30
0.000000
  70
    32
  0
VERTEX
  8
0
  5
B56E
 10
116.562
 20
84.3862
 30
0.000000
  70
    32
  0
VERTEX
  8
0
  5
B56F
 10
116.601
 20
84.3930
 30
0.000000
  70
    32
  0
VERTEX
  8
0
  5
B570
 10
116.639
 20
84.3998
 30
0.000000
  70
    32
  0
VERTEX
  8
0
  5
B571
 10
116.678
 20
84.4066
 30
0.000000
  70
    32
  0
VERTEX
  8
0
  5
B572
 10
116.716
 20
84.4135
 30
0.000000
  70
    32
  0
VERTEX
  8
0
  5
B573
 10
116.755
 20
84.4204
 30
0.000000
  70
    32
  0
VERTEX
  8
0
  5
B574
 10
116.793
 20
84.4273
 30
0.000000
  70
    32
  0
VERTEX
  8
0
  5
B575
 10
116.831
 20
84.4342
 30
0.000000
  70
    32
  0
VERTEX
  8
0
  5
B576
 10
116.870
 20
84.4412
 30
0.000000
  70
    32
  0
VERTEX
  8
0
  5
B577
 10
116.908
 20
84.4482
 30
0.000000
  70
    32
  0
VERTEX
  8
0
  5
B578
 10
116.947
 20
84.4553
 30
0.000000
  70
    32
  0
VERTEX
  8
0
  5
B579
 10
116.985
 20
84.4624
 30
0.000000
  70
    32
  0
VERTEX
  8
0
  5
B57A
 10
117.024
 20
84.4695
 30
0.000000
  70
    32
  0
VERTEX
  8
0
  5
B57B
 10
117.062
 20
84.4766
 30
0.000000
  70
    32
  0
VERTEX
  8
0
  5
B57C
 10
117.100
 20
84.4838
 30
0.000000
  70
    32
  0
VERTEX
  8
0
  5
B57D
 10
117.139
 20
84.4910
 30
0.000000
  70
    32
  0
VERTEX
  8
0
  5
B57E
 10
117.177
 20
84.4982
 30
0.000000
  70
    32
  0
VERTEX
  8
0
  5
B57F
 10
117.215
 20
84.5055
 30
0.000000
  70
    32
  0
VERTEX
  8
0
  5
B580
 10
117.254
 20
84.5127
 30
0.000000
  70
    32
  0
VERTEX
  8
0
  5
B581
 10
117.292
 20
84.5201
 30
0.000000
  70
    32
  0
VERTEX
  8
0
  5
B582
 10
117.331
 20
84.5274
 30
0.000000
  70
    32
  0
VERTEX
  8
0
  5
B583
 10
117.369
 20
84.5348
 30
0.000000
  70
    32
  0
VERTEX
  8
0
  5
B584
 10
117.407
 20
84.5422
 30
0.000000
  70
    32
  0
VERTEX
  8
0
  5
B585
 10
117.446
 20
84.5497
 30
0.000000
  70
    32
  0
VERTEX
  8
0
  5
B586
 10
117.484
 20
84.5571
 30
0.000000
  70
    32
  0
VERTEX
  8
0
  5
B587
 10
117.522
 20
84.5646
 30
0.000000
  70
    32
  0
VERTEX
  8
0
  5
B588
 10
117.561
 20
84.5722
 30
0.000000
  70
    32
  0
VERTEX
  8
0
  5
B589
 10
117.599
 20
84.5797
 30
0.000000
  70
    32
  0
VERTEX
  8
0
  5
B58A
 10
117.637
 20
84.5873
 30
0.000000
  70
    32
  0
VERTEX
  8
0
  5
B58B
 10
117.675
 20
84.5950
 30
0.000000
  70
    32
  0
VERTEX
  8
0
  5
B58C
 10
117.714
 20
84.6026
 30
0.000000
  70
    32
  0
VERTEX
  8
0
  5
B58D
 10
117.752
 20
84.6103
 30
0.000000
  70
    32
  0
VERTEX
  8
0
  5
B58E
 10
117.790
 20
84.6180
 30
0.000000
  70
    32
  0
VERTEX
  8
0
  5
B58F
 10
117.829
 20
84.6258
 30
0.000000
  70
    32
  0
VERTEX
  8
0
  5
B590
 10
117.867
 20
84.6336
 30
0.000000
  70
    32
  0
VERTEX
  8
0
  5
B591
 10
117.905
 20
84.6414
 30
0.000000
  70
    32
  0
VERTEX
  8
0
  5
B592
 10
117.943
 20
84.6492
 30
0.000000
  70
    32
  0
VERTEX
  8
0
  5
B593
 10
117.982
 20
84.6571
 30
0.000000
  70
    32
  0
VERTEX
  8
0
  5
B594
 10
118.020
 20
84.6650
 30
0.000000
  70
    32
  0
VERTEX
  8
0
  5
B595
 10
118.058
 20
84.6729
 30
0.000000
  70
    32
  0
VERTEX
  8
0
  5
B596
 10
118.096
 20
84.6809
 30
0.000000
  70
    32
  0
VERTEX
  8
0
  5
B597
 10
118.135
 20
84.6889
 30
0.000000
  70
    32
  0
VERTEX
  8
0
  5
B598
 10
118.173
 20
84.6969
 30
0.000000
  70
    32
  0
VERTEX
  8
0
  5
B599
 10
118.211
 20
84.7050
 30
0.000000
  70
    32
  0
VERTEX
  8
0
  5
B59A
 10
118.249
 20
84.7131
 30
0.000000
  70
    32
  0
VERTEX
  8
0
  5
B59B
 10
118.287
 20
84.7212
 30
0.000000
  70
    32
  0
VERTEX
  8
0
  5
B59C
 10
118.326
 20
84.7293
 30
0.000000
  70
    32
  0
VERTEX
  8
0
  5
B59D
 10
118.364
 20
84.7375
 30
0.000000
  70
    32
  0
VERTEX
  8
0
  5
B59E
 10
118.402
 20
84.7457
 30
0.000000
  70
    32
  0
VERTEX
  8
0
  5
B59F
 10
118.440
 20
84.7540
 30
0.000000
  70
    32
  0
VERTEX
  8
0
  5
B5A0
 10
118.478
 20
84.7622
 30
0.000000
  70
    32
  0
VERTEX
  8
0
  5
B5A1
 10
118.516
 20
84.7706
 30
0.000000
  70
    32
  0
VERTEX
  8
0
  5
B5A2
 10
118.555
 20
84.7789
 30
0.000000
  70
    32
  0
VERTEX
  8
0
  5
B5A3
 10
118.593
 20
84.7872
 30
0.000000
  70
    32
  0
VERTEX
  8
0
  5
B5A4
 10
118.631
 20
84.7956
 30
0.000000
  70
    32
  0
VERTEX
  8
0
  5
B5A5
 10
118.669
 20
84.8041
 30
0.000000
  70
    32
  0
VERTEX
  8
0
  5
B5A6
 10
118.707
 20
84.8125
 30
0.000000
  70
    32
  0
VERTEX
  8
0
  5
B5A7
 10
118.745
 20
84.8210
 30
0.000000
  70
    32
  0
VERTEX
  8
0
  5
B5A8
 10
118.783
 20
84.8295
 30
0.000000
  70
    32
  0
VERTEX
  8
0
  5
B5A9
 10
118.821
 20
84.8381
 30
0.000000
  70
    32
  0
VERTEX
  8
0
  5
B5AA
 10
118.859
 20
84.8467
 30
0.000000
  70
    32
  0
VERTEX
  8
0
  5
B5AB
 10
118.898
 20
84.8553
 30
0.000000
  70
    32
  0
VERTEX
  8
0
  5
B5AC
 10
118.936
 20
84.8639
 30
0.000000
  70
    32
  0
VERTEX
  8
0
  5
B5AD
 10
118.974
 20
84.8726
 30
0.000000
  70
    32
  0
VERTEX
  8
0
  5
B5AE
 10
119.012
 20
84.8813
 30
0.000000
  70
    32
  0
VERTEX
  8
0
  5
B5AF
 10
119.050
 20
84.8900
 30
0.000000
  70
    32
  0
VERTEX
  8
0
  5
B5B0
 10
119.088
 20
84.8988
 30
0.000000
  70
    32
  0
VERTEX
  8
0
  5
B5B1
 10
119.126
 20
84.9076
 30
0.000000
  70
    32
  0
VERTEX
  8
0
  5
B5B2
 10
119.164
 20
84.9164
 30
0.000000
  70
    32
  0
VERTEX
  8
0
  5
B5B3
 10
119.202
 20
84.9252
 30
0.000000
  70
    32
  0
VERTEX
  8
0
  5
B5B4
 10
119.240
 20
84.9341
 30
0.000000
  70
    32
  0
VERTEX
  8
0
  5
B5B5
 10
119.278
 20
84.9430
 30
0.000000
  70
    32
  0
VERTEX
  8
0
  5
B5B6
 10
119.316
 20
84.9520
 30
0.000000
  70
    32
  0
VERTEX
  8
0
  5
B5B7
 10
119.354
 20
84.9609
 30
0.000000
  70
    32
  0
VERTEX
  8
0
  5
B5B8
 10
119.392
 20
84.9700
 30
0.000000
  70
    32
  0
VERTEX
  8
0
  5
B5B9
 10
119.430
 20
84.9790
 30
0.000000
  70
    32
  0
VERTEX
  8
0
  5
B5BA
 10
119.468
 20
84.9881
 30
0.000000
  70
    32
  0
VERTEX
  8
0
  5
B5BB
 10
119.506
 20
84.9972
 30
0.000000
  70
    32
  0
VERTEX
  8
0
  5
B5BC
 10
119.544
 20
85.0063
 30
0.000000
  70
    32
  0
VERTEX
  8
0
  5
B5BD
 10
119.582
 20
85.0154
 30
0.000000
  70
    32
  0
VERTEX
  8
0
  5
B5BE
 10
119.620
 20
85.0246
 30
0.000000
  70
    32
  0
VERTEX
  8
0
  5
B5BF
 10
119.658
 20
85.0338
 30
0.000000
  70
    32
  0
VERTEX
  8
0
  5
B5C0
 10
119.696
 20
85.0431
 30
0.000000
  70
    32
  0
VERTEX
  8
0
  5
B5C1
 10
119.734
 20
85.0524
 30
0.000000
  70
    32
  0
VERTEX
  8
0
  5
B5C2
 10
119.772
 20
85.0617
 30
0.000000
  70
    32
  0
VERTEX
  8
0
  5
B5C3
 10
119.810
 20
85.0710
 30
0.000000
  70
    32
  0
VERTEX
  8
0
  5
B5C4
 10
119.848
 20
85.0804
 30
0.000000
  70
    32
  0
VERTEX
  8
0
  5
B5C5
 10
119.885
 20
85.0898
 30
0.000000
  70
    32
  0
VERTEX
  8
0
  5
B5C6
 10
119.923
 20
85.0992
 30
0.000000
  70
    32
  0
VERTEX
  8
0
  5
B5C7
 10
119.961
 20
85.1087
 30
0.000000
  70
    32
  0
VERTEX
  8
0
  5
B5C8
 10
119.999
 20
85.1182
 30
0.000000
  70
    32
  0
VERTEX
  8
0
  5
B5C9
 10
120.037
 20
85.1277
 30
0.000000
  70
    32
  0
VERTEX
  8
0
  5
B5CA
 10
120.075
 20
85.1373
 30
0.000000
  70
    32
  0
VERTEX
  8
0
  5
B5CB
 10
120.113
 20
85.1468
 30
0.000000
  70
    32
  0
VERTEX
  8
0
  5
B5CC
 10
120.151
 20
85.1565
 30
0.000000
  70
    32
  0
VERTEX
  8
0
  5
B5CD
 10
120.188
 20
85.1661
 30
0.000000
  70
    32
  0
VERTEX
  8
0
  5
B5CE
 10
120.226
 20
85.1758
 30
0.000000
  70
    32
  0
VERTEX
  8
0
  5
B5CF
 10
120.264
 20
85.1855
 30
0.000000
  70
    32
  0
VERTEX
  8
0
  5
B5D0
 10
120.302
 20
85.1952
 30
0.000000
  70
    32
  0
VERTEX
  8
0
  5
B5D1
 10
120.340
 20
85.2050
 30
0.000000
  70
    32
  0
VERTEX
  8
0
  5
B5D2
 10
120.377
 20
85.2148
 30
0.000000
  70
    32
  0
VERTEX
  8
0
  5
B5D3
 10
120.415
 20
85.2246
 30
0.000000
  70
    32
  0
VERTEX
  8
0
  5
B5D4
 10
120.453
 20
85.2345
 30
0.000000
  70
    32
  0
VERTEX
  8
0
  5
B5D5
 10
120.491
 20
85.2444
 30
0.000000
  70
    32
  0
VERTEX
  8
0
  5
B5D6
 10
120.529
 20
85.2543
 30
0.000000
  70
    32
  0
VERTEX
  8
0
  5
B5D7
 10
120.566
 20
85.2642
 30
0.000000
  70
    32
  0
VERTEX
  8
0
  5
B5D8
 10
120.604
 20
85.2742
 30
0.000000
  70
    32
  0
VERTEX
  8
0
  5
B5D9
 10
120.642
 20
85.2842
 30
0.000000
  70
    32
  0
VERTEX
  8
0
  5
B5DA
 10
120.680
 20
85.2942
 30
0.000000
  70
    32
  0
VERTEX
  8
0
  5
B5DB
 10
120.717
 20
85.3043
 30
0.000000
  70
    32
  0
VERTEX
  8
0
  5
B5DC
 10
120.755
 20
85.3144
 30
0.000000
  70
    32
  0
VERTEX
  8
0
  5
B5DD
 10
120.793
 20
85.3245
 30
0.000000
  70
    32
  0
VERTEX
  8
0
  5
B5DE
 10
120.831
 20
85.3347
 30
0.000000
  70
    32
  0
VERTEX
  8
0
  5
B5DF
 10
120.868
 20
85.3449
 30
0.000000
  70
    32
  0
VERTEX
  8
0
  5
B5E0
 10
120.906
 20
85.3551
 30
0.000000
  70
    32
  0
VERTEX
  8
0
  5
B5E1
 10
120.944
 20
85.3654
 30
0.000000
  70
    32
  0
VERTEX
  8
0
  5
B5E2
 10
120.981
 20
85.3756
 30
0.000000
  70
    32
  0
VERTEX
  8
0
  5
B5E3
 10
121.019
 20
85.3859
 30
0.000000
  70
    32
  0
VERTEX
  8
0
  5
B5E4
 10
121.057
 20
85.3963
 30
0.000000
  70
    32
  0
VERTEX
  8
0
  5
B5E5
 10
121.094
 20
85.4067
 30
0.000000
  70
    32
  0
VERTEX
  8
0
  5
B5E6
 10
121.132
 20
85.4171
 30
0.000000
  70
    32
  0
VERTEX
  8
0
  5
B5E7
 10
121.170
 20
85.4275
 30
0.000000
  70
    32
  0
VERTEX
  8
0
  5
B5E8
 10
121.207
 20
85.4380
 30
0.000000
  70
    32
  0
VERTEX
  8
0
  5
B5E9
 10
121.245
 20
85.4484
 30
0.000000
  70
    32
  0
SEQEND
  8
0
  5
B5EA
  0
POLYLINE
  5
ABDC
  8
0
 66
     1
 10
0.0
 20
0.0
 30
0.0
  0
VERTEX
  5
B3CD
  8
0
 10
121.2447736128933
 20
85.448445913739135
 30
0.0
  0
VERTEX
  5
B3CE
  8
0
 10
121.32222058349529
 20
85.48331735437074
 30
0.0
  0
VERTEX
  5
B3CF
  8
0
 10
121.4760527972185
 20
85.54942285430559
 30
0.0
  0
VERTEX
  5
B3D0
  8
0
 10
121.6300666492933
 20
85.611496646267653
 30
0.0
  0
VERTEX
  5
B3D1
  8
0
 10
121.70871572232321
 20
85.641645221070405
 30
0.0
  0
VERTEX
  5
B3D2
  8
0
 10
121.788441153932
 20
85.671155297770213
 30
0.0
  0
VERTEX
  5
B3D3
  8
0
 10
121.9508872765753
 20
85.728064080606885
 30
0.0
  0
VERTEX
  5
B3D4
  8
0
 10
122.1169283446108
 20
85.781856959197626
 30
0.0
  0
VERTEX
  5
B3D5
  8
0
 10
122.2860763409922
 20
85.832210685366988
 30
0.0
  0
VERTEX
  5
B3D6
  8
0
 10
122.457831952004
 20
85.878845370574993
 30
0.0
  0
VERTEX
  5
B3D7
  8
0
 10
122.6316798420536
 20
85.921523841410817
 30
0.0
  0
VERTEX
  5
B3D8
  8
0
 10
122.71922367102739
 20
85.941317462073926
 30
0.0
  0
VERTEX
  5
B3D9
  8
0
 10
122.8070917529671
 20
85.960053284375405
 30
0.0
  0
VERTEX
  5
B3DA
  8
0
 10
122.9835392128749
 20
85.994288111378296
 30
0.0
  0
VERTEX
  5
B3DB
  8
0
 10
123.1605063407339
 20
86.024130890945912
 30
0.0
  0
VERTEX
  5
B3DC
  8
0
 10
123.33744128059369
 20
86.049523353554818
 30
0.0
  0
VERTEX
  5
B3DD
  8
0
 10
123.5137809209098
 20
86.070452483755275
 30
0.0
  0
VERTEX
  5
B3DE
  8
0
 10
123.6889587665263
 20
86.086951485750092
 30
0.0
  0
VERTEX
  5
B3DF
  8
0
 10
123.7759346427702
 20
86.093562579241166
 30
0.0
  0
VERTEX
  5
B3E0
  8
0
 10
123.86240635115399
 20
86.09909919413775
 30
0.0
  0
VERTEX
  5
B3E1
  8
0
 10
124.03354820393869
 20
86.107019027770363
 30
0.0
  0
VERTEX
  5
B3E2
  8
0
 10
124.2018044260011
 20
86.110878667348615
 30
0.0
  0
VERTEX
  5
B3E3
  8
0
 10
124.2846692605499
 20
86.111350227879711
 30
0.0
  0
SEQEND
  5
B3E4
  8
0
  0
POLYLINE
  5
ABDD
  8
0
 10
95.319242881203721
 20
85.448445913738695
 30
0.0
 66
     1
 70
     8
  0
VERTEX
  8
0
  5
B5EB
 10
95.3192
 20
85.4484
 30
0.000000
  70
    32
  0
VERTEX
  8
0
  5
B5EC
 10
95.3569
 20
85.4380
 30
0.000000
  70
    32
  0
VERTEX
  8
0
  5
B5ED
 10
95.3945
 20
85.4275
 30
0.000000
  70
    32
  0
VERTEX
  8
0
  5
B5EE
 10
95.4321
 20
85.4171
 30
0.000000
  70
    32
  0
VERTEX
  8
0
  5
B5EF
 10
95.4698
 20
85.4067
 30
0.000000
  70
    32
  0
VERTEX
  8
0
  5
B5F0
 10
95.5074
 20
85.3963
 30
0.000000
  70
    32
  0
VERTEX
  8
0
  5
B5F1
 10
95.5451
 20
85.3859
 30
0.000000
  70
    32
  0
VERTEX
  8
0
  5
B5F2
 10
95.5827
 20
85.3756
 30
0.000000
  70
    32
  0
VERTEX
  8
0
  5
B5F3
 10
95.6204
 20
85.3654
 30
0.000000
  70
    32
  0
VERTEX
  8
0
  5
B5F4
 10
95.6581
 20
85.3551
 30
0.000000
  70
    32
  0
VERTEX
  8
0
  5
B5F5
 10
95.6958
 20
85.3449
 30
0.000000
  70
    32
  0
VERTEX
  8
0
  5
B5F6
 10
95.7335
 20
85.3347
 30
0.000000
  70
    32
  0
VERTEX
  8
0
  5
B5F7
 10
95.7712
 20
85.3245
 30
0.000000
  70
    32
  0
VERTEX
  8
0
  5
B5F8
 10
95.8089
 20
85.3144
 30
0.000000
  70
    32
  0
VERTEX
  8
0
  5
B5F9
 10
95.8466
 20
85.3043
 30
0.000000
  70
    32
  0
VERTEX
  8
0
  5
B5FA
 10
95.8844
 20
85.2942
 30
0.000000
  70
    32
  0
VERTEX
  8
0
  5
B5FB
 10
95.9221
 20
85.2842
 30
0.000000
  70
    32
  0
VERTEX
  8
0
  5
B5FC
 10
95.9599
 20
85.2742
 30
0.000000
  70
    32
  0
VERTEX
  8
0
  5
B5FD
 10
95.9976
 20
85.2642
 30
0.000000
  70
    32
  0
VERTEX
  8
0
  5
B5FE
 10
96.0354
 20
85.2543
 30
0.000000
  70
    32
  0
VERTEX
  8
0
  5
B5FF
 10
96.0732
 20
85.2444
 30
0.000000
  70
    32
  0
VERTEX
  8
0
  5
B600
 10
96.1109
 20
85.2345
 30
0.000000
  70
    32
  0
VERTEX
  8
0
  5
B601
 10
96.1487
 20
85.2246
 30
0.000000
  70
    32
  0
VERTEX
  8
0
  5
B602
 10
96.1865
 20
85.2148
 30
0.000000
  70
    32
  0
VERTEX
  8
0
  5
B603
 10
96.2243
 20
85.2050
 30
0.000000
  70
    32
  0
VERTEX
  8
0
  5
B604
 10
96.2621
 20
85.1952
 30
0.000000
  70
    32
  0
VERTEX
  8
0
  5
B605
 10
96.3000
 20
85.1855
 30
0.000000
  70
    32
  0
VERTEX
  8
0
  5
B606
 10
96.3378
 20
85.1758
 30
0.000000
  70
    32
  0
VERTEX
  8
0
  5
B607
 10
96.3756
 20
85.1661
 30
0.000000
  70
    32
  0
VERTEX
  8
0
  5
B608
 10
96.4135
 20
85.1565
 30
0.000000
  70
    32
  0
VERTEX
  8
0
  5
B609
 10
96.4513
 20
85.1468
 30
0.000000
  70
    32
  0
VERTEX
  8
0
  5
B60A
 10
96.4892
 20
85.1373
 30
0.000000
  70
    32
  0
VERTEX
  8
0
  5
B60B
 10
96.5270
 20
85.1277
 30
0.000000
  70
    32
  0
VERTEX
  8
0
  5
B60C
 10
96.5649
 20
85.1182
 30
0.000000
  70
    32
  0
VERTEX
  8
0
  5
B60D
 10
96.6028
 20
85.1087
 30
0.000000
  70
    32
  0
VERTEX
  8
0
  5
B60E
 10
96.6407
 20
85.0992
 30
0.000000
  70
    32
  0
VERTEX
  8
0
  5
B60F
 10
96.6786
 20
85.0898
 30
0.000000
  70
    32
  0
VERTEX
  8
0
  5
B610
 10
96.7165
 20
85.0804
 30
0.000000
  70
    32
  0
VERTEX
  8
0
  5
B611
 10
96.7544
 20
85.0710
 30
0.000000
  70
    32
  0
VERTEX
  8
0
  5
B612
 10
96.7923
 20
85.0617
 30
0.000000
  70
    32
  0
VERTEX
  8
0
  5
B613
 10
96.8302
 20
85.0524
 30
0.000000
  70
    32
  0
VERTEX
  8
0
  5
B614
 10
96.8682
 20
85.0431
 30
0.000000
  70
    32
  0
VERTEX
  8
0
  5
B615
 10
96.9061
 20
85.0338
 30
0.000000
  70
    32
  0
VERTEX
  8
0
  5
B616
 10
96.9440
 20
85.0246
 30
0.000000
  70
    32
  0
VERTEX
  8
0
  5
B617
 10
96.9820
 20
85.0154
 30
0.000000
  70
    32
  0
VERTEX
  8
0
  5
B618
 10
97.0200
 20
85.0063
 30
0.000000
  70
    32
  0
VERTEX
  8
0
  5
B619
 10
97.0579
 20
84.9972
 30
0.000000
  70
    32
  0
VERTEX
  8
0
  5
B61A
 10
97.0959
 20
84.9881
 30
0.000000
  70
    32
  0
VERTEX
  8
0
  5
B61B
 10
97.1339
 20
84.9790
 30
0.000000
  70
    32
  0
VERTEX
  8
0
  5
B61C
 10
97.1719
 20
84.9700
 30
0.000000
  70
    32
  0
VERTEX
  8
0
  5
B61D
 10
97.2099
 20
84.9609
 30
0.000000
  70
    32
  0
VERTEX
  8
0
  5
B61E
 10
97.2479
 20
84.9520
 30
0.000000
  70
    32
  0
VERTEX
  8
0
  5
B61F
 10
97.2859
 20
84.9430
 30
0.000000
  70
    32
  0
VERTEX
  8
0
  5
B620
 10
97.3239
 20
84.9341
 30
0.000000
  70
    32
  0
VERTEX
  8
0
  5
B621
 10
97.3620
 20
84.9252
 30
0.000000
  70
    32
  0
VERTEX
  8
0
  5
B622
 10
97.4000
 20
84.9164
 30
0.000000
  70
    32
  0
VERTEX
  8
0
  5
B623
 10
97.4380
 20
84.9076
 30
0.000000
  70
    32
  0
VERTEX
  8
0
  5
B624
 10
97.4761
 20
84.8988
 30
0.000000
  70
    32
  0
VERTEX
  8
0
  5
B625
 10
97.5141
 20
84.8900
 30
0.000000
  70
    32
  0
VERTEX
  8
0
  5
B626
 10
97.5522
 20
84.8813
 30
0.000000
  70
    32
  0
VERTEX
  8
0
  5
B627
 10
97.5903
 20
84.8726
 30
0.000000
  70
    32
  0
VERTEX
  8
0
  5
B628
 10
97.6283
 20
84.8639
 30
0.000000
  70
    32
  0
VERTEX
  8
0
  5
B629
 10
97.6664
 20
84.8553
 30
0.000000
  70
    32
  0
VERTEX
  8
0
  5
B62A
 10
97.7045
 20
84.8467
 30
0.000000
  70
    32
  0
VERTEX
  8
0
  5
B62B
 10
97.7426
 20
84.8381
 30
0.000000
  70
    32
  0
VERTEX
  8
0
  5
B62C
 10
97.7807
 20
84.8295
 30
0.000000
  70
    32
  0
VERTEX
  8
0
  5
B62D
 10
97.8188
 20
84.8210
 30
0.000000
  70
    32
  0
VERTEX
  8
0
  5
B62E
 10
97.8569
 20
84.8125
 30
0.000000
  70
    32
  0
VERTEX
  8
0
  5
B62F
 10
97.8951
 20
84.8041
 30
0.000000
  70
    32
  0
VERTEX
  8
0
  5
B630
 10
97.9332
 20
84.7956
 30
0.000000
  70
    32
  0
VERTEX
  8
0
  5
B631
 10
97.9713
 20
84.7872
 30
0.000000
  70
    32
  0
VERTEX
  8
0
  5
B632
 10
98.0095
 20
84.7789
 30
0.000000
  70
    32
  0
VERTEX
  8
0
  5
B633
 10
98.0476
 20
84.7706
 30
0.000000
  70
    32
  0
VERTEX
  8
0
  5
B634
 10
98.0858
 20
84.7622
 30
0.000000
  70
    32
  0
VERTEX
  8
0
  5
B635
 10
98.1240
 20
84.7540
 30
0.000000
  70
    32
  0
VERTEX
  8
0
  5
B636
 10
98.1621
 20
84.7457
 30
0.000000
  70
    32
  0
VERTEX
  8
0
  5
B637
 10
98.2003
 20
84.7375
 30
0.000000
  70
    32
  0
VERTEX
  8
0
  5
B638
 10
98.2385
 20
84.7293
 30
0.000000
  70
    32
  0
VERTEX
  8
0
  5
B639
 10
98.2767
 20
84.7212
 30
0.000000
  70
    32
  0
VERTEX
  8
0
  5
B63A
 10
98.3149
 20
84.7131
 30
0.000000
  70
    32
  0
VERTEX
  8
0
  5
B63B
 10
98.3531
 20
84.7050
 30
0.000000
  70
    32
  0
VERTEX
  8
0
  5
B63C
 10
98.3913
 20
84.6969
 30
0.000000
  70
    32
  0
VERTEX
  8
0
  5
B63D
 10
98.4295
 20
84.6889
 30
0.000000
  70
    32
  0
VERTEX
  8
0
  5
B63E
 10
98.4677
 20
84.6809
 30
0.000000
  70
    32
  0
VERTEX
  8
0
  5
B63F
 10
98.5060
 20
84.6729
 30
0.000000
  70
    32
  0
VERTEX
  8
0
  5
B640
 10
98.5442
 20
84.6650
 30
0.000000
  70
    32
  0
VERTEX
  8
0
  5
B641
 10
98.5824
 20
84.6571
 30
0.000000
  70
    32
  0
VERTEX
  8
0
  5
B642
 10
98.6207
 20
84.6492
 30
0.000000
  70
    32
  0
VERTEX
  8
0
  5
B643
 10
98.6589
 20
84.6414
 30
0.000000
  70
    32
  0
VERTEX
  8
0
  5
B644
 10
98.6972
 20
84.6336
 30
0.000000
  70
    32
  0
VERTEX
  8
0
  5
B645
 10
98.7355
 20
84.6258
 30
0.000000
  70
    32
  0
VERTEX
  8
0
  5
B646
 10
98.7737
 20
84.6180
 30
0.000000
  70
    32
  0
VERTEX
  8
0
  5
B647
 10
98.8120
 20
84.6103
 30
0.000000
  70
    32
  0
VERTEX
  8
0
  5
B648
 10
98.8503
 20
84.6026
 30
0.000000
  70
    32
  0
VERTEX
  8
0
  5
B649
 10
98.8886
 20
84.5950
 30
0.000000
  70
    32
  0
VERTEX
  8
0
  5
B64A
 10
98.9269
 20
84.5873
 30
0.000000
  70
    32
  0
VERTEX
  8
0
  5
B64B
 10
98.9652
 20
84.5797
 30
0.000000
  70
    32
  0
VERTEX
  8
0
  5
B64C
 10
99.0035
 20
84.5722
 30
0.000000
  70
    32
  0
VERTEX
  8
0
  5
B64D
 10
99.0418
 20
84.5646
 30
0.000000
  70
    32
  0
VERTEX
  8
0
  5
B64E
 10
99.0802
 20
84.5571
 30
0.000000
  70
    32
  0
VERTEX
  8
0
  5
B64F
 10
99.1185
 20
84.5497
 30
0.000000
  70
    32
  0
VERTEX
  8
0
  5
B650
 10
99.1568
 20
84.5422
 30
0.000000
  70
    32
  0
VERTEX
  8
0
  5
B651
 10
99.1952
 20
84.5348
 30
0.000000
  70
    32
  0
VERTEX
  8
0
  5
B652
 10
99.2335
 20
84.5274
 30
0.000000
  70
    32
  0
VERTEX
  8
0
  5
B653
 10
99.2719
 20
84.5201
 30
0.000000
  70
    32
  0
VERTEX
  8
0
  5
B654
 10
99.3102
 20
84.5127
 30
0.000000
  70
    32
  0
VERTEX
  8
0
  5
B655
 10
99.3486
 20
84.5055
 30
0.000000
  70
    32
  0
VERTEX
  8
0
  5
B656
 10
99.3869
 20
84.4982
 30
0.000000
  70
    32
  0
VERTEX
  8
0
  5
B657
 10
99.4253
 20
84.4910
 30
0.000000
  70
    32
  0
VERTEX
  8
0
  5
B658
 10
99.4637
 20
84.4838
 30
0.000000
  70
    32
  0
VERTEX
  8
0
  5
B659
 10
99.5021
 20
84.4766
 30
0.000000
  70
    32
  0
VERTEX
  8
0
  5
B65A
 10
99.5405
 20
84.4695
 30
0.000000
  70
    32
  0
VERTEX
  8
0
  5
B65B
 10
99.5789
 20
84.4624
 30
0.000000
  70
    32
  0
VERTEX
  8
0
  5
B65C
 10
99.6173
 20
84.4553
 30
0.000000
  70
    32
  0
VERTEX
  8
0
  5
B65D
 10
99.6557
 20
84.4482
 30
0.000000
  70
    32
  0
VERTEX
  8
0
  5
B65E
 10
99.6941
 20
84.4412
 30
0.000000
  70
    32
  0
VERTEX
  8
0
  5
B65F
 10
99.7325
 20
84.4342
 30
0.000000
  70
    32
  0
VERTEX
  8
0
  5
B660
 10
99.7709
 20
84.4273
 30
0.000000
  70
    32
  0
VERTEX
  8
0
  5
B661
 10
99.8094
 20
84.4204
 30
0.000000
  70
    32
  0
VERTEX
  8
0
  5
B662
 10
99.8478
 20
84.4135
 30
0.000000
  70
    32
  0
VERTEX
  8
0
  5
B663
 10
99.8863
 20
84.4066
 30
0.000000
  70
    32
  0
VERTEX
  8
0
  5
B664
 10
99.9247
 20
84.3998
 30
0.000000
  70
    32
  0
VERTEX
  8
0
  5
B665
 10
99.9632
 20
84.3930
 30
0.000000
  70
    32
  0
VERTEX
  8
0
  5
B666
 10
100.002
 20
84.3862
 30
0.000000
  70
    32
  0
VERTEX
  8
0
  5
B667
 10
100.040
 20
84.3795
 30
0.000000
  70
    32
  0
VERTEX
  8
0
  5
B668
 10
100.079
 20
84.3728
 30
0.000000
  70
    32
  0
VERTEX
  8
0
  5
B669
 10
100.117
 20
84.3661
 30
0.000000
  70
    32
  0
VERTEX
  8
0
  5
B66A
 10
100.156
 20
84.3595
 30
0.000000
  70
    32
  0
VERTEX
  8
0
  5
B66B
 10
100.194
 20
84.3529
 30
0.000000
  70
    32
  0
SEQEND
  8
0
  5
B66C
  0
POLYLINE
  5
ABDF
  8
0
 10
92.268652214637527
 20
74.227601729080902
 30
0.0
 66
     1
 70
     8
  0
VERTEX
  8
0
  5
B66D
 10
92.2687
 20
74.2276
 30
0.000000
  70
    32
  0
VERTEX
  8
0
  5
B66E
 10
92.4980
 20
74.2332
 30
0.000000
  70
    32
  0
VERTEX
  8
0
  5
B66F
 10
92.7267
 20
74.2502
 30
0.000000
  70
    32
  0
VERTEX
  8
0
  5
B670
 10
92.9544
 20
74.2783
 30
0.000000
  70
    32
  0
VERTEX
  8
0
  5
B671
 10
93.1804
 20
74.3176
 30
0.000000
  70
    32
  0
VERTEX
  8
0
  5
B672
 10
93.4042
 20
74.3680
 30
0.000000
  70
    32
  0
VERTEX
  8
0
  5
B673
 10
93.6252
 20
74.4293
 30
0.000000
  70
    32
  0
VERTEX
  8
0
  5
B674
 10
93.8430
 20
74.5014
 30
0.000000
  70
    32
  0
VERTEX
  8
0
  5
B675
 10
94.0571
 20
74.5841
 30
0.000000
  70
    32
  0
VERTEX
  8
0
  5
B676
 10
94.2668
 20
74.6773
 30
0.000000
  70
    32
  0
VERTEX
  8
0
  5
B677
 10
94.4716
 20
74.7807
 30
0.000000
  70
    32
  0
VERTEX
  8
0
  5
B678
 10
94.6712
 20
74.8940
 30
0.000000
  70
    32
  0
VERTEX
  8
0
  5
B679
 10
94.8650
 20
75.0170
 30
0.000000
  70
    32
  0
VERTEX
  8
0
  5
B67A
 10
95.0525
 20
75.1493
 30
0.000000
  70
    32
  0
VERTEX
  8
0
  5
B67B
 10
95.2334
 20
75.2908
 30
0.000000
  70
    32
  0
VERTEX
  8
0
  5
B67C
 10
95.4071
 20
75.4409
 30
0.000000
  70
    32
  0
VERTEX
  8
0
  5
B67D
 10
95.5732
 20
75.5994
 30
0.000000
  70
    32
  0
VERTEX
  8
0
  5
B67E
 10
95.7314
 20
75.7659
 30
0.000000
  70
    32
  0
VERTEX
  8
0
  5
B67F
 10
95.8812
 20
75.9400
 30
0.000000
  70
    32
  0
VERTEX
  8
0
  5
B680
 10
96.0223
 20
76.1212
 30
0.000000
  70
    32
  0
VERTEX
  8
0
  5
B681
 10
96.1544
 20
76.3092
 30
0.000000
  70
    32
  0
VERTEX
  8
0
  5
B682
 10
96.2771
 20
76.5034
 30
0.000000
  70
    32
  0
VERTEX
  8
0
  5
B683
 10
96.3902
 20
76.7034
 30
0.000000
  70
    32
  0
VERTEX
  8
0
  5
B684
 10
96.4933
 20
76.9088
 30
0.000000
  70
    32
  0
VERTEX
  8
0
  5
B685
 10
96.5862
 20
77.1190
 30
0.000000
  70
    32
  0
VERTEX
  8
0
  5
B686
 10
96.6688
 20
77.3334
 30
0.000000
  70
    32
  0
VERTEX
  8
0
  5
B687
 10
96.7407
 20
77.5517
 30
0.000000
  70
    32
  0
VERTEX
  8
0
  5
B688
 10
96.8019
 20
77.7733
 30
0.000000
  70
    32
  0
VERTEX
  8
0
  5
B689
 10
96.8522
 20
77.9976
 30
0.000000
  70
    32
  0
VERTEX
  8
0
  5
B68A
 10
96.8914
 20
78.2241
 30
0.000000
  70
    32
  0
VERTEX
  8
0
  5
B68B
 10
96.9195
 20
78.4523
 30
0.000000
  70
    32
  0
VERTEX
  8
0
  5
B68C
 10
96.9363
 20
78.6815
 30
0.000000
  70
    32
  0
VERTEX
  8
0
  5
B68D
 10
96.9420
 20
78.9114
 30
0.000000
  70
    32
  0
VERTEX
  8
0
  5
B68E
 10
96.9363
 20
79.1412
 30
0.000000
  70
    32
  0
VERTEX
  8
0
  5
B68F
 10
96.9195
 20
79.3704
 30
0.000000
  70
    32
  0
VERTEX
  8
0
  5
B690
 10
96.8914
 20
79.5986
 30
0.000000
  70
    32
  0
VERTEX
  8
0
  5
B691
 10
96.8522
 20
79.8251
 30
0.000000
  70
    32
  0
VERTEX
  8
0
  5
B692
 10
96.8019
 20
80.0494
 30
0.000000
  70
    32
  0
VERTEX
  8
0
  5
B693
 10
96.7407
 20
80.2710
 30
0.000000
  70
    32
  0
VERTEX
  8
0
  5
B694
 10
96.6688
 20
80.4893
 30
0.000000
  70
    32
  0
VERTEX
  8
0
  5
B695
 10
96.5862
 20
80.7037
 30
0.000000
  70
    32
  0
VERTEX
  8
0
  5
B696
 10
96.4933
 20
80.9139
 30
0.000000
  70
    32
  0
VERTEX
  8
0
  5
B697
 10
96.3902
 20
81.1193
 30
0.000000
  70
    32
  0
VERTEX
  8
0
  5
B698
 10
96.2771
 20
81.3193
 30
0.000000
  70
    32
  0
VERTEX
  8
0
  5
B699
 10
96.1544
 20
81.5135
 30
0.000000
  70
    32
  0
VERTEX
  8
0
  5
B69A
 10
96.0223
 20
81.7015
 30
0.000000
  70
    32
  0
VERTEX
  8
0
  5
B69B
 10
95.8812
 20
81.8827
 30
0.000000
  70
    32
  0
VERTEX
  8
0
  5
B69C
 10
95.7314
 20
82.0568
 30
0.000000
  70
    32
  0
VERTEX
  8
0
  5
B69D
 10
95.5732
 20
82.2233
 30
0.000000
  70
    32
  0
VERTEX
  8
0
  5
B69E
 10
95.4071
 20
82.3818
 30
0.000000
  70
    32
  0
VERTEX
  8
0
  5
B69F
 10
95.2334
 20
82.5319
 30
0.000000
  70
    32
  0
VERTEX
  8
0
  5
B6A0
 10
95.0525
 20
82.6734
 30
0.000000
  70
    32
  0
VERTEX
  8
0
  5
B6A1
 10
94.8650
 20
82.8057
 30
0.000000
  70
    32
  0
VERTEX
  8
0
  5
B6A2
 10
94.6712
 20
82.9287
 30
0.000000
  70
    32
  0
VERTEX
  8
0
  5
B6A3
 10
94.4716
 20
83.0420
 30
0.000000
  70
    32
  0
VERTEX
  8
0
  5
B6A4
 10
94.2668
 20
83.1454
 30
0.000000
  70
    32
  0
VERTEX
  8
0
  5
B6A5
 10
94.0571
 20
83.2386
 30
0.000000
  70
    32
  0
VERTEX
  8
0
  5
B6A6
 10
93.8430
 20
83.3213
 30
0.000000
  70
    32
  0
VERTEX
  8
0
  5
B6A7
 10
93.6252
 20
83.3934
 30
0.000000
  70
    32
  0
VERTEX
  8
0
  5
B6A8
 10
93.4042
 20
83.4547
 30
0.000000
  70
    32
  0
VERTEX
  8
0
  5
B6A9
 10
93.1804
 20
83.5051
 30
0.000000
  70
    32
  0
VERTEX
  8
0
  5
B6AA
 10
92.9544
 20
83.5444
 30
0.000000
  70
    32
  0
VERTEX
  8
0
  5
B6AB
 10
92.7267
 20
83.5725
 30
0.000000
  70
    32
  0
VERTEX
  8
0
  5
B6AC
 10
92.4980
 20
83.5895
 30
0.000000
  70
    32
  0
VERTEX
  8
0
  5
B6AD
 10
92.2687
 20
83.5951
 30
0.000000
  70
    32
  0
VERTEX
  8
0
  5
B6AE
 10
92.0393
 20
83.5895
 30
0.000000
  70
    32
  0
VERTEX
  8
0
  5
B6AF
 10
91.8106
 20
83.5725
 30
0.000000
  70
    32
  0
VERTEX
  8
0
  5
B6B0
 10
91.5829
 20
83.5444
 30
0.000000
  70
    32
  0
VERTEX
  8
0
  5
B6B1
 10
91.3569
 20
83.5051
 30
0.000000
  70
    32
  0
VERTEX
  8
0
  5
B6B2
 10
91.1331
 20
83.4547
 30
0.000000
  70
    32
  0
VERTEX
  8
0
  5
B6B3
 10
90.9121
 20
83.3934
 30
0.000000
  70
    32
  0
VERTEX
  8
0
  5
B6B4
 10
90.6943
 20
83.3213
 30
0.000000
  70
    32
  0
VERTEX
  8
0
  5
B6B5
 10
90.4802
 20
83.2386
 30
0.000000
  70
    32
  0
VERTEX
  8
0
  5
B6B6
 10
90.2705
 20
83.1454
 30
0.000000
  70
    32
  0
VERTEX
  8
0
  5
B6B7
 10
90.0657
 20
83.0420
 30
0.000000
  70
    32
  0
VERTEX
  8
0
  5
B6B8
 10
89.8661
 20
82.9287
 30
0.000000
  70
    32
  0
VERTEX
  8
0
  5
B6B9
 10
89.6723
 20
82.8057
 30
0.000000
  70
    32
  0
VERTEX
  8
0
  5
B6BA
 10
89.4848
 20
82.6734
 30
0.000000
  70
    32
  0
VERTEX
  8
0
  5
B6BB
 10
89.3039
 20
82.5319
 30
0.000000
  70
    32
  0
VERTEX
  8
0
  5
B6BC
 10
89.1302
 20
82.3818
 30
0.000000
  70
    32
  0
VERTEX
  8
0
  5
B6BD
 10
88.9641
 20
82.2233
 30
0.000000
  70
    32
  0
VERTEX
  8
0
  5
B6BE
 10
88.8059
 20
82.0568
 30
0.000000
  70
    32
  0
VERTEX
  8
0
  5
B6BF
 10
88.6561
 20
81.8827
 30
0.000000
  70
    32
  0
VERTEX
  8
0
  5
B6C0
 10
88.5150
 20
81.7015
 30
0.000000
  70
    32
  0
VERTEX
  8
0
  5
B6C1
 10
88.3829
 20
81.5135
 30
0.000000
  70
    32
  0
VERTEX
  8
0
  5
B6C2
 10
88.2602
 20
81.3193
 30
0.000000
  70
    32
  0
VERTEX
  8
0
  5
B6C3
 10
88.1471
 20
81.1193
 30
0.000000
  70
    32
  0
VERTEX
  8
0
  5
B6C4
 10
88.0440
 20
80.9139
 30
0.000000
  70
    32
  0
VERTEX
  8
0
  5
B6C5
 10
87.9511
 20
80.7037
 30
0.000000
  70
    32
  0
VERTEX
  8
0
  5
B6C6
 10
87.8685
 20
80.4893
 30
0.000000
  70
    32
  0
VERTEX
  8
0
  5
B6C7
 10
87.7966
 20
80.2710
 30
0.000000
  70
    32
  0
VERTEX
  8
0
  5
B6C8
 10
87.7354
 20
80.0494
 30
0.000000
  70
    32
  0
VERTEX
  8
0
  5
B6C9
 10
87.6851
 20
79.8251
 30
0.000000
  70
    32
  0
VERTEX
  8
0
  5
B6CA
 10
87.6459
 20
79.5986
 30
0.000000
  70
    32
  0
VERTEX
  8
0
  5
B6CB
 10
87.6178
 20
79.3704
 30
0.000000
  70
    32
  0
VERTEX
  8
0
  5
B6CC
 10
87.6010
 20
79.1412
 30
0.000000
  70
    32
  0
VERTEX
  8
0
  5
B6CD
 10
87.5953
 20
78.9114
 30
0.000000
  70
    32
  0
VERTEX
  8
0
  5
B6CE
 10
87.6010
 20
78.6815
 30
0.000000
  70
    32
  0
VERTEX
  8
0
  5
B6CF
 10
87.6178
 20
78.4523
 30
0.000000
  70
    32
  0
VERTEX
  8
0
  5
B6D0
 10
87.6459
 20
78.2241
 30
0.000000
  70
    32
  0
VERTEX
  8
0
  5
B6D1
 10
87.6851
 20
77.9976
 30
0.000000
  70
    32
  0
VERTEX
  8
0
  5
B6D2
 10
87.7354
 20
77.7733
 30
0.000000
  70
    32
  0
VERTEX
  8
0
  5
B6D3
 10
87.7966
 20
77.5517
 30
0.000000
  70
    32
  0
VERTEX
  8
0
  5
B6D4
 10
87.8685
 20
77.3334
 30
0.000000
  70
    32
  0
VERTEX
  8
0
  5
B6D5
 10
87.9511
 20
77.1190
 30
0.000000
  70
    32
  0
VERTEX
  8
0
  5
B6D6
 10
88.0440
 20
76.9088
 30
0.000000
  70
    32
  0
VERTEX
  8
0
  5
B6D7
 10
88.1471
 20
76.7034
 30
0.000000
  70
    32
  0
VERTEX
  8
0
  5
B6D8
 10
88.2602
 20
76.5034
 30
0.000000
  70
    32
  0
VERTEX
  8
0
  5
B6D9
 10
88.3829
 20
76.3092
 30
0.000000
  70
    32
  0
VERTEX
  8
0
  5
B6DA
 10
88.5150
 20
76.1212
 30
0.000000
  70
    32
  0
VERTEX
  8
0
  5
B6DB
 10
88.6561
 20
75.9400
 30
0.000000
  70
    32
  0
VERTEX
  8
0
  5
B6DC
 10
88.8059
 20
75.7659
 30
0.000000
  70
    32
  0
VERTEX
  8
0
  5
B6DD
 10
88.9641
 20
75.5994
 30
0.000000
  70
    32
  0
VERTEX
  8
0
  5
B6DE
 10
89.1302
 20
75.4409
 30
0.000000
  70
    32
  0
VERTEX
  8
0
  5
B6DF
 10
89.3039
 20
75.2908
 30
0.000000
  70
    32
  0
VERTEX
  8
0
  5
B6E0
 10
89.4848
 20
75.1493
 30
0.000000
  70
    32
  0
VERTEX
  8
0
  5
B6E1
 10
89.6723
 20
75.0170
 30
0.000000
  70
    32
  0
VERTEX
  8
0
  5
B6E2
 10
89.8661
 20
74.8940
 30
0.000000
  70
    32
  0
VERTEX
  8
0
  5
B6E3
 10
90.0657
 20
74.7807
 30
0.000000
  70
    32
  0
VERTEX
  8
0
  5
B6E4
 10
90.2705
 20
74.6773
 30
0.000000
  70
    32
  0
VERTEX
  8
0
  5
B6E5
 10
90.4802
 20
74.5841
 30
0.000000
  70
    32
  0
VERTEX
  8
0
  5
B6E6
 10
90.6943
 20
74.5014
 30
0.000000
  70
    32
  0
VERTEX
  8
0
  5
B6E7
 10
90.9121
 20
74.4293
 30
0.000000
  70
    32
  0
VERTEX
  8
0
  5
B6E8
 10
91.1331
 20
74.3680
 30
0.000000
  70
    32
  0
VERTEX
  8
0
  5
B6E9
 10
91.3569
 20
74.3176
 30
0.000000
  70
    32
  0
VERTEX
  8
0
  5
B6EA
 10
91.5829
 20
74.2783
 30
0.000000
  70
    32
  0
VERTEX
  8
0
  5
B6EB
 10
91.8106
 20
74.2502
 30
0.000000
  70
    32
  0
VERTEX
  8
0
  5
B6EC
 10
92.0393
 20
74.2332
 30
0.000000
  70
    32
  0
VERTEX
  8
0
  5
B6ED
 10
92.2687
 20
74.2276
 30
0.000000
  70
    32
  0
SEQEND
  8
0
  5
B6EE
  0
POLYLINE
  5
ABE0
  8
0
 10
124.2953642794598
 20
83.595098726678515
 30
0.0
 66
     1
 70
     8
  0
VERTEX
  8
0
  5
B6EF
 10
124.295
 20
83.5951
 30
0.000000
  70
    32
  0
VERTEX
  8
0
  5
B6F0
 10
124.066
 20
83.5895
 30
0.000000
  70
    32
  0
VERTEX
  8
0
  5
B6F1
 10
123.837
 20
83.5725
 30
0.000000
  70
    32
  0
VERTEX
  8
0
  5
B6F2
 10
123.610
 20
83.5444
 30
0.000000
  70
    32
  0
VERTEX
  8
0
  5
B6F3
 10
123.384
 20
83.5051
 30
0.000000
  70
    32
  0
VERTEX
  8
0
  5
B6F4
 10
123.160
 20
83.4547
 30
0.000000
  70
    32
  0
VERTEX
  8
0
  5
B6F5
 10
122.939
 20
83.3934
 30
0.000000
  70
    32
  0
VERTEX
  8
0
  5
B6F6
 10
122.721
 20
83.3213
 30
0.000000
  70
    32
  0
VERTEX
  8
0
  5
B6F7
 10
122.507
 20
83.2386
 30
0.000000
  70
    32
  0
VERTEX
  8
0
  5
B6F8
 10
122.297
 20
83.1454
 30
0.000000
  70
    32
  0
VERTEX
  8
0
  5
B6F9
 10
122.092
 20
83.0420
 30
0.000000
  70
    32
  0
VERTEX
  8
0
  5
B6FA
 10
121.893
 20
82.9287
 30
0.000000
  70
    32
  0
VERTEX
  8
0
  5
B6FB
 10
121.699
 20
82.8057
 30
0.000000
  70
    32
  0
VERTEX
  8
0
  5
B6FC
 10
121.511
 20
82.6734
 30
0.000000
  70
    32
  0
VERTEX
  8
0
  5
B6FD
 10
121.331
 20
82.5319
 30
0.000000
  70
    32
  0
VERTEX
  8
0
  5
B6FE
 10
121.157
 20
82.3818
 30
0.000000
  70
    32
  0
VERTEX
  8
0
  5
B6FF
 10
120.991
 20
82.2233
 30
0.000000
  70
    32
  0
VERTEX
  8
0
  5
B700
 10
120.833
 20
82.0568
 30
0.000000
  70
    32
  0
VERTEX
  8
0
  5
B701
 10
120.683
 20
81.8827
 30
0.000000
  70
    32
  0
VERTEX
  8
0
  5
B702
 10
120.542
 20
81.7015
 30
0.000000
  70
    32
  0
VERTEX
  8
0
  5
B703
 10
120.410
 20
81.5135
 30
0.000000
  70
    32
  0
VERTEX
  8
0
  5
B704
 10
120.287
 20
81.3193
 30
0.000000
  70
    32
  0
VERTEX
  8
0
  5
B705
 10
120.174
 20
81.1193
 30
0.000000
  70
    32
  0
VERTEX
  8
0
  5
B706
 10
120.071
 20
80.9139
 30
0.000000
  70
    32
  0
VERTEX
  8
0
  5
B707
 10
119.978
 20
80.7037
 30
0.000000
  70
    32
  0
VERTEX
  8
0
  5
B708
 10
119.895
 20
80.4893
 30
0.000000
  70
    32
  0
VERTEX
  8
0
  5
B709
 10
119.823
 20
80.2710
 30
0.000000
  70
    32
  0
VERTEX
  8
0
  5
B70A
 10
119.762
 20
80.0494
 30
0.000000
  70
    32
  0
VERTEX
  8
0
  5
B70B
 10
119.712
 20
79.8251
 30
0.000000
  70
    32
  0
VERTEX
  8
0
  5
B70C
 10
119.673
 20
79.5986
 30
0.000000
  70
    32
  0
VERTEX
  8
0
  5
B70D
 10
119.645
 20
79.3704
 30
0.000000
  70
    32
  0
VERTEX
  8
0
  5
B70E
 10
119.628
 20
79.1412
 30
0.000000
  70
    32
  0
VERTEX
  8
0
  5
B70F
 10
119.622
 20
78.9114
 30
0.000000
  70
    32
  0
VERTEX
  8
0
  5
B710
 10
119.628
 20
78.6815
 30
0.000000
  70
    32
  0
VERTEX
  8
0
  5
B711
 10
119.645
 20
78.4523
 30
0.000000
  70
    32
  0
VERTEX
  8
0
  5
B712
 10
119.673
 20
78.2241
 30
0.000000
  70
    32
  0
VERTEX
  8
0
  5
B713
 10
119.712
 20
77.9976
 30
0.000000
  70
    32
  0
VERTEX
  8
0
  5
B714
 10
119.762
 20
77.7733
 30
0.000000
  70
    32
  0
VERTEX
  8
0
  5
B715
 10
119.823
 20
77.5517
 30
0.000000
  70
    32
  0
VERTEX
  8
0
  5
B716
 10
119.895
 20
77.3334
 30
0.000000
  70
    32
  0
VERTEX
  8
0
  5
B717
 10
119.978
 20
77.1190
 30
0.000000
  70
    32
  0
VERTEX
  8
0
  5
B718
 10
120.071
 20
76.9088
 30
0.000000
  70
    32
  0
VERTEX
  8
0
  5
B719
 10
120.174
 20
76.7034
 30
0.000000
  70
    32
  0
VERTEX
  8
0
  5
B71A
 10
120.287
 20
76.5034
 30
0.000000
  70
    32
  0
VERTEX
  8
0
  5
B71B
 10
120.410
 20
76.3092
 30
0.000000
  70
    32
  0
VERTEX
  8
0
  5
B71C
 10
120.542
 20
76.1212
 30
0.000000
  70
    32
  0
VERTEX
  8
0
  5
B71D
 10
120.683
 20
75.9400
 30
0.000000
  70
    32
  0
VERTEX
  8
0
  5
B71E
 10
120.833
 20
75.7659
 30
0.000000
  70
    32
  0
VERTEX
  8
0
  5
B71F
 10
120.991
 20
75.5994
 30
0.000000
  70
    32
  0
VERTEX
  8
0
  5
B720
 10
121.157
 20
75.4409
 30
0.000000
  70
    32
  0
VERTEX
  8
0
  5
B721
 10
121.331
 20
75.2908
 30
0.000000
  70
    32
  0
VERTEX
  8
0
  5
B722
 10
121.511
 20
75.1493
 30
0.000000
  70
    32
  0
VERTEX
  8
0
  5
B723
 10
121.699
 20
75.0170
 30
0.000000
  70
    32
  0
VERTEX
  8
0
  5
B724
 10
121.893
 20
74.8940
 30
0.000000
  70
    32
  0
VERTEX
  8
0
  5
B725
 10
122.092
 20
74.7807
 30
0.000000
  70
    32
  0
VERTEX
  8
0
  5
B726
 10
122.297
 20
74.6773
 30
0.000000
  70
    32
  0
VERTEX
  8
0
  5
B727
 10
122.507
 20
74.5841
 30
0.000000
  70
    32
  0
VERTEX
  8
0
  5
B728
 10
122.721
 20
74.5014
 30
0.000000
  70
    32
  0
VERTEX
  8
0
  5
B729
 10
122.939
 20
74.4293
 30
0.000000
  70
    32
  0
VERTEX
  8
0
  5
B72A
 10
123.160
 20
74.3680
 30
0.000000
  70
    32
  0
VERTEX
  8
0
  5
B72B
 10
123.384
 20
74.3176
 30
0.000000
  70
    32
  0
VERTEX
  8
0
  5
B72C
 10
123.610
 20
74.2783
 30
0.000000
  70
    32
  0
VERTEX
  8
0
  5
B72D
 10
123.837
 20
74.2502
 30
0.000000
  70
    32
  0
VERTEX
  8
0
  5
B72E
 10
124.066
 20
74.2332
 30
0.000000
  70
    32
  0
VERTEX
  8
0
  5
B72F
 10
124.295
 20
74.2276
 30
0.000000
  70
    32
  0
VERTEX
  8
0
  5
B730
 10
124.525
 20
74.2332
 30
0.000000
  70
    32
  0
VERTEX
  8
0
  5
B731
 10
124.753
 20
74.2502
 30
0.000000
  70
    32
  0
VERTEX
  8
0
  5
B732
 10
124.981
 20
74.2783
 30
0.000000
  70
    32
  0
VERTEX
  8
0
  5
B733
 10
125.207
 20
74.3176
 30
0.000000
  70
    32
  0
VERTEX
  8
0
  5
B734
 10
125.431
 20
74.3680
 30
0.000000
  70
    32
  0
VERTEX
  8
0
  5
B735
 10
125.652
 20
74.4293
 30
0.000000
  70
    32
  0
VERTEX
  8
0
  5
B736
 10
125.870
 20
74.5014
 30
0.000000
  70
    32
  0
VERTEX
  8
0
  5
B737
 10
126.084
 20
74.5841
 30
0.000000
  70
    32
  0
VERTEX
  8
0
  5
B738
 10
126.293
 20
74.6773
 30
0.000000
  70
    32
  0
VERTEX
  8
0
  5
B739
 10
126.498
 20
74.7807
 30
0.000000
  70
    32
  0
VERTEX
  8
0
  5
B73A
 10
126.698
 20
74.8940
 30
0.000000
  70
    32
  0
VERTEX
  8
0
  5
B73B
 10
126.892
 20
75.0170
 30
0.000000
  70
    32
  0
VERTEX
  8
0
  5
B73C
 10
127.079
 20
75.1493
 30
0.000000
  70
    32
  0
VERTEX
  8
0
  5
B73D
 10
127.260
 20
75.2908
 30
0.000000
  70
    32
  0
VERTEX
  8
0
  5
B73E
 10
127.434
 20
75.4409
 30
0.000000
  70
    32
  0
VERTEX
  8
0
  5
B73F
 10
127.600
 20
75.5994
 30
0.000000
  70
    32
  0
VERTEX
  8
0
  5
B740
 10
127.758
 20
75.7659
 30
0.000000
  70
    32
  0
VERTEX
  8
0
  5
B741
 10
127.908
 20
75.9400
 30
0.000000
  70
    32
  0
VERTEX
  8
0
  5
B742
 10
128.049
 20
76.1212
 30
0.000000
  70
    32
  0
VERTEX
  8
0
  5
B743
 10
128.181
 20
76.3092
 30
0.000000
  70
    32
  0
VERTEX
  8
0
  5
B744
 10
128.304
 20
76.5034
 30
0.000000
  70
    32
  0
VERTEX
  8
0
  5
B745
 10
128.417
 20
76.7034
 30
0.000000
  70
    32
  0
VERTEX
  8
0
  5
B746
 10
128.520
 20
76.9088
 30
0.000000
  70
    32
  0
VERTEX
  8
0
  5
B747
 10
128.613
 20
77.1190
 30
0.000000
  70
    32
  0
VERTEX
  8
0
  5
B748
 10
128.696
 20
77.3334
 30
0.000000
  70
    32
  0
VERTEX
  8
0
  5
B749
 10
128.767
 20
77.5517
 30
0.000000
  70
    32
  0
VERTEX
  8
0
  5
B74A
 10
128.829
 20
77.7733
 30
0.000000
  70
    32
  0
VERTEX
  8
0
  5
B74B
 10
128.879
 20
77.9976
 30
0.000000
  70
    32
  0
VERTEX
  8
0
  5
B74C
 10
128.918
 20
78.2241
 30
0.000000
  70
    32
  0
VERTEX
  8
0
  5
B74D
 10
128.946
 20
78.4523
 30
0.000000
  70
    32
  0
VERTEX
  8
0
  5
B74E
 10
128.963
 20
78.6815
 30
0.000000
  70
    32
  0
VERTEX
  8
0
  5
B74F
 10
128.969
 20
78.9114
 30
0.000000
  70
    32
  0
VERTEX
  8
0
  5
B750
 10
128.963
 20
79.1412
 30
0.000000
  70
    32
  0
VERTEX
  8
0
  5
B751
 10
128.946
 20
79.3704
 30
0.000000
  70
    32
  0
VERTEX
  8
0
  5
B752
 10
128.918
 20
79.5986
 30
0.000000
  70
    32
  0
VERTEX
  8
0
  5
B753
 10
128.879
 20
79.8251
 30
0.000000
  70
    32
  0
VERTEX
  8
0
  5
B754
 10
128.829
 20
80.0494
 30
0.000000
  70
    32
  0
VERTEX
  8
0
  5
B755
 10
128.767
 20
80.2710
 30
0.000000
  70
    32
  0
VERTEX
  8
0
  5
B756
 10
128.696
 20
80.4893
 30
0.000000
  70
    32
  0
VERTEX
  8
0
  5
B757
 10
128.613
 20
80.7037
 30
0.000000
  70
    32
  0
VERTEX
  8
0
  5
B758
 10
128.520
 20
80.9139
 30
0.000000
  70
    32
  0
VERTEX
  8
0
  5
B759
 10
128.417
 20
81.1193
 30
0.000000
  70
    32
  0
VERTEX
  8
0
  5
B75A
 10
128.304
 20
81.3193
 30
0.000000
  70
    32
  0
VERTEX
  8
0
  5
B75B
 10
128.181
 20
81.5135
 30
0.000000
  70
    32
  0
VERTEX
  8
0
  5
B75C
 10
128.049
 20
81.7015
 30
0.000000
  70
    32
  0
VERTEX
  8
0
  5
B75D
 10
127.908
 20
81.8827
 30
0.000000
  70
    32
  0
VERTEX
  8
0
  5
B75E
 10
127.758
 20
82.0568
 30
0.000000
  70
    32
  0
VERTEX
  8
0
  5
B75F
 10
127.600
 20
82.2233
 30
0.000000
  70
    32
  0
VERTEX
  8
0
  5
B760
 10
127.434
 20
82.3818
 30
0.000000
  70
    32
  0
VERTEX
  8
0
  5
B761
 10
127.260
 20
82.5319
 30
0.000000
  70
    32
  0
VERTEX
  8
0
  5
B762
 10
127.079
 20
82.6734
 30
0.000000
  70
    32
  0
VERTEX
  8
0
  5
B763
 10
126.892
 20
82.8057
 30
0.000000
  70
    32
  0
VERTEX
  8
0
  5
B764
 10
126.698
 20
82.9287
 30
0.000000
  70
    32
  0
VERTEX
  8
0
  5
B765
 10
126.498
 20
83.0420
 30
0.000000
  70
    32
  0
VERTEX
  8
0
  5
B766
 10
126.293
 20
83.1454
 30
0.000000
  70
    32
  0
VERTEX
  8
0
  5
B767
 10
126.084
 20
83.2386
 30
0.000000
  70
    32
  0
VERTEX
  8
0
  5
B768
 10
125.870
 20
83.3213
 30
0.000000
  70
    32
  0
VERTEX
  8
0
  5
B769
 10
125.652
 20
83.3934
 30
0.000000
  70
    32
  0
VERTEX
  8
0
  5
B76A
 10
125.431
 20
83.4547
 30
0.000000
  70
    32
  0
VERTEX
  8
0
  5
B76B
 10
125.207
 20
83.5051
 30
0.000000
  70
    32
  0
VERTEX
  8
0
  5
B76C
 10
124.981
 20
83.5444
 30
0.000000
  70
    32
  0
VERTEX
  8
0
  5
B76D
 10
124.753
 20
83.5725
 30
0.000000
  70
    32
  0
VERTEX
  8
0
  5
B76E
 10
124.525
 20
83.5895
 30
0.000000
  70
    32
  0
VERTEX
  8
0
  5
B76F
 10
124.295
 20
83.5951
 30
0.000000
  70
    32
  0
SEQEND
  8
0
  5
B770
  0
LINE
  5
ABE1
  8
1
 10
108.28200824704859
 20
107.8150409882401
 30
0.0
 11
108.28200824704859
 21
131.4877682522401
 31
0.0
  0
LINE
  5
ABE2
  8
1
 10
136.78200824704851
 20
119.6514046202401
 30
0.0
 11
79.782008247048765
 21
119.6514046202401
 31
0.0
  0
ARC
  5
ABE3
  8
0
 10
108.28200824704901
 20
119.6514046202401
 30
0.0
 40
23.50000000000027
 50
174.5473778497101
 51
185.4526219878112
  0
ARC
  5
ABE4
  8
0
 10
108.2820082470483
 20
119.6514046202401
 30
0.0
 40
23.500000000000281
 50
354.54737784971007
 51
5.452621987811276
  0
LINE
  5
ABE5
  8
0
 10
96.941974663976993
 20
116.8638637247121
 30
0.0
 11
96.93121339265312
 21
116.8680847887739
 31
0.0
  0
LINE
  5
ABE6
  8
0
 10
119.6220418301203
 20
122.438945515768
 30
0.0
 11
119.6328031014441
 21
122.4347244517062
 31
0.0
  0
POLYLINE
  5
ABE7
  8
0
 66
     1
 10
0.0
 20
0.0
 30
0.0
  0
VERTEX
  5
B3E5
  8
0
 10
100.1939931791661
 20
117.08121245813579
 30
0.0
  0
VERTEX
  5
B3E6
  8
0
 10
100.2714760001066
 20
117.0853135532336
 30
0.0
  0
VERTEX
  5
B3E7
  8
0
 10
100.4288181069882
 20
117.0870320391527
 30
0.0
  0
VERTEX
  5
B3E8
  8
0
 10
100.58845483336999
 20
117.0797282149196
 30
0.0
  0
VERTEX
  5
B3E9
  8
0
 10
100.6688043889074
 20
117.0725851829053
 30
0.0
  0
VERTEX
  5
B3EA
  8
0
 10
100.7493351071428
 20
117.0630747471705
 30
0.0
  0
VERTEX
  5
B3EB
  8
0
 10
100.9104343297963
 20
117.0368810492886
 30
0.0
  0
VERTEX
  5
B3EC
  8
0
 10
101.070739155583
 20
117.00108972586069
 30
0.0
  0
VERTEX
  5
B3ED
  8
0
 10
101.2292434036442
 20
116.95577789783179
 30
0.0
  0
VERTEX
  5
B3EE
  8
0
 10
101.3850180139254
 20
116.9011351557576
 30
0.0
  0
VERTEX
  5
B3EF
  8
0
 10
101.53724547351359
 20
116.8374328242689
 30
0.0
  0
VERTEX
  5
B3F0
  8
0
 10
101.6117486746824
 20
116.80231212653889
 30
0.0
  0
VERTEX
  5
B3F1
  8
0
 10
101.6850325998832
 20
116.7650963279506
 30
0.0
  0
VERTEX
  5
B3F2
  8
0
 10
101.827532703778
 20
116.6846765072804
 30
0.0
  0
VERTEX
  5
B3F3
  8
0
 10
101.963976956602
 20
116.59683492102511
 30
0.0
  0
VERTEX
  5
B3F4
  8
0
 10
102.09365520928429
 20
116.5023571729419
 30
0.0
  0
VERTEX
  5
B3F5
  8
0
 10
102.21592649031339
 20
116.40215508552519
 30
0.0
  0
VERTEX
  5
B3F6
  8
0
 10
102.3195842625328
 20
116.3069513109825
 30
0.0
  0
SEQEND
  5
B3F7
  8
0
  0
POLYLINE
  5
ABE8
  8
0
 66
     1
 10
0.0
 20
0.0
 30
0.0
  0
VERTEX
  5
B3F8
  8
0
 10
114.24418365160859
 20
116.3065081862391
 30
0.0
  0
VERTEX
  5
B3F9
  8
0
 10
114.3487118899927
 20
116.4026946177076
 30
0.0
  0
VERTEX
  5
B3FA
  8
0
 10
114.4768141322207
 20
116.5073326064135
 30
0.0
  0
VERTEX
  5
B3FB
  8
0
 10
114.61114972100739
 20
116.6044126398919
 30
0.0
  0
VERTEX
  5
B3FC
  8
0
 10
114.7509536339455
 20
116.6933502327866
 30
0.0
  0
VERTEX
  5
B3FD
  8
0
 10
114.89545519785079
 20
116.7736976896793
 30
0.0
  0
VERTEX
  5
B3FE
  8
0
 10
114.969177228934
 20
116.8105190886056
 30
0.0
  0
VERTEX
  5
B3FF
  8
0
 10
115.04371572256839
 20
116.8450503105625
 30
0.0
  0
VERTEX
  5
B400
  8
0
 10
115.19473355276089
 20
116.9071270824239
 30
0.0
  0
VERTEX
  5
B401
  8
0
 10
115.34746965508749
 20
116.95978218920359
 30
0.0
  0
VERTEX
  5
B402
  8
0
 10
115.5008234522242
 20
117.00299738612711
 30
0.0
  0
VERTEX
  5
B403
  8
0
 10
115.6536509197629
 20
117.0368942951584
 30
0.0
  0
VERTEX
  5
B404
  8
0
 10
115.8081533640845
 20
117.0621999716297
 30
0.0
  0
VERTEX
  5
B405
  8
0
 10
115.88677403004429
 20
117.071699440872
 30
0.0
  0
VERTEX
  5
B406
  8
0
 10
115.9661465620985
 20
117.07901178581641
 30
0.0
  0
VERTEX
  5
B407
  8
0
 10
116.1266574203121
 20
117.0868722524834
 30
0.0
  0
VERTEX
  5
B408
  8
0
 10
116.2887146396955
 20
117.0854603084988
 30
0.0
  0
VERTEX
  5
B409
  8
0
 10
116.3700233149312
 20
117.08121245813579
 30
0.0
  0
SEQEND
  5
B40A
  8
0
  0
LINE
  5
ABE9
  8
0
 10
116.3700233149312
 20
117.08121245813579
 30
0.0
 11
130.28200824704859
 21
116.1514046202401
 31
0.0
  0
POLYLINE
  5
ABEA
  8
0
 66
     1
 10
0.0
 20
0.0
 30
0.0
  0
VERTEX
  5
B40B
  8
0
 10
130.28200824704859
 20
116.1514046202401
 30
0.0
  0
VERTEX
  5
B40C
  8
0
 10
130.3490563996582
 20
116.1530110614621
 30
0.0
  0
VERTEX
  5
B40D
  8
0
 10
130.47905552870441
 20
116.16534099659501
 30
0.0
  0
VERTEX
  5
B40E
  8
0
 10
130.60307947289681
 20
116.188718571316
 30
0.0
  0
VERTEX
  5
B40F
  8
0
 10
130.6628110010227
 20
116.2041892467508
 30
0.0
  0
VERTEX
  5
B410
  8
0
 10
130.7210022704536
 20
116.2220121847964
 30
0.0
  0
VERTEX
  5
B411
  8
0
 10
130.83261698557689
 20
116.2642255273955
 30
0.0
  0
VERTEX
  5
B412
  8
0
 10
130.93765145174379
 20
116.3144195806631
 30
0.0
  0
VERTEX
  5
B413
  8
0
 10
131.0358710267233
 20
116.3717051206127
 30
0.0
  0
VERTEX
  5
B414
  8
0
 10
131.12771015938969
 20
116.4357038200868
 30
0.0
  0
VERTEX
  5
B415
  8
0
 10
131.21348483374689
 20
116.50624847476089
 30
0.0
  0
VERTEX
  5
B416
  8
0
 10
131.2540158478233
 20
116.5438326753962
 30
0.0
  0
VERTEX
  5
B417
  8
0
 10
131.29293221667061
 20
116.58288372338571
 30
0.0
  0
VERTEX
  5
B418
  8
0
 10
131.36578986459361
 20
116.6651668386761
 30
0.0
  0
VERTEX
  5
B419
  8
0
 10
131.4317957007415
 20
116.7526626022327
 30
0.0
  0
VERTEX
  5
B41A
  8
0
 10
131.49068796243699
 20
116.8449392314144
 30
0.0
  0
VERTEX
  5
B41B
  8
0
 10
131.54220493696459
 20
116.9415650489387
 30
0.0
  0
VERTEX
  5
B41C
  8
0
 10
131.58608436600861
 20
117.042105615766
 30
0.0
  0
VERTEX
  5
B41D
  8
0
 10
131.60507765813901
 20
117.0937067576307
 30
0.0
  0
VERTEX
  5
B41E
  8
0
 10
131.62206244141001
 20
117.14612106990209
 30
0.0
  0
VERTEX
  5
B41F
  8
0
 10
131.6498723449775
 20
117.2531634265776
 30
0.0
  0
VERTEX
  5
B420
  8
0
 10
131.66924230712681
 20
117.36277359798
 30
0.0
  0
VERTEX
  5
B421
  8
0
 10
131.6756733990874
 20
117.41837287969349
 30
0.0
  0
SEQEND
  5
B422
  8
0
  0
LINE
  5
ABEB
  8
0
 10
100.1939931791661
 20
122.22159678234441
 30
0.0
 11
86.282008247048651
 21
123.1514046202401
 31
0.0
  0
POLYLINE
  5
ABEC
  8
0
 66
     1
 10
0.0
 20
0.0
 30
0.0
  0
VERTEX
  5
B423
  8
0
 10
86.282008247048765
 20
123.1514046202401
 30
0.0
  0
VERTEX
  5
B424
  8
0
 10
86.214960094439064
 20
123.14979817901801
 30
0.0
  0
VERTEX
  5
B425
  8
0
 10
86.084960965393023
 20
123.13746824388519
 30
0.0
  0
VERTEX
  5
B426
  8
0
 10
85.960937021200465
 20
123.1140906691641
 30
0.0
  0
VERTEX
  5
B427
  8
0
 10
85.901205493074571
 20
123.0986199937293
 30
0.0
  0
VERTEX
  5
B428
  8
0
 10
85.843014223643621
 20
123.0807970556837
 30
0.0
  0
VERTEX
  5
B429
  8
0
 10
85.731399508520283
 20
123.03858371308461
 30
0.0
  0
VERTEX
  5
B42A
  8
0
 10
85.626365042353513
 20
122.988389659817
 30
0.0
  0
VERTEX
  5
B42B
  8
0
 10
85.528145467373946
 20
122.9311041198674
 30
0.0
  0
VERTEX
  5
B42C
  8
0
 10
85.436306334707496
 20
122.8671054203933
 30
0.0
  0
VERTEX
  5
B42D
  8
0
 10
85.350531660350356
 20
122.79656076571921
 30
0.0
  0
VERTEX
  5
B42E
  8
0
 10
85.310000646274005
 20
122.7589765650839
 30
0.0
  0
VERTEX
  5
B42F
  8
0
 10
85.271084277426638
 20
122.7199255170944
 30
0.0
  0
VERTEX
  5
B430
  8
0
 10
85.198226629503509
 20
122.637642401804
 30
0.0
  0
VERTEX
  5
B431
  8
0
 10
85.132220793355799
 20
122.5501466382475
 30
0.0
  0
VERTEX
  5
B432
  8
0
 10
85.07332853166028
 20
122.4578700090658
 30
0.0
  0
VERTEX
  5
B433
  8
0
 10
85.021811557132736
 20
122.3612441915414
 30
0.0
  0
VERTEX
  5
B434
  8
0
 10
84.977932128088668
 20
122.2607036247142
 30
0.0
  0
VERTEX
  5
B435
  8
0
 10
84.958938835958264
 20
122.2091024828494
 30
0.0
  0
VERTEX
  5
B436
  8
0
 10
84.941954052687237
 20
122.15668817057799
 30
0.0
  0
VERTEX
  5
B437
  8
0
 10
84.914144149119764
 20
122.0496458139025
 30
0.0
  0
VERTEX
  5
B438
  8
0
 10
84.894774186970466
 20
121.94003564250011
 30
0.0
  0
VERTEX
  5
B439
  8
0
 10
84.888343095009958
 20
121.88443636078669
 30
0.0
  0
SEQEND
  5
B43A
  8
0
  0
POLYLINE
  5
ABED
  8
0
 66
     1
 10
0.0
 20
0.0
 30
0.0
  0
VERTEX
  5
B43B
  8
0
 10
131.6756734054197
 20
121.88443629444819
 30
0.0
  0
VERTEX
  5
B43C
  8
0
 10
131.66924231618489
 20
121.94003557588481
 30
0.0
  0
VERTEX
  5
B43D
  8
0
 10
131.64987235835579
 20
122.0496457525436
 30
0.0
  0
VERTEX
  5
B43E
  8
0
 10
131.622062458356
 20
122.15668811454699
 30
0.0
  0
VERTEX
  5
B43F
  8
0
 10
131.6050776765972
 20
122.20910242949179
 30
0.0
  0
VERTEX
  5
B440
  8
0
 10
131.5860843858039
 20
122.2607035740277
 30
0.0
  0
VERTEX
  5
B441
  8
0
 10
131.54220495892361
 20
122.3612441461643
 30
0.0
  0
VERTEX
  5
B442
  8
0
 10
131.49068798590531
 20
122.4578699689143
 30
0.0
  0
VERTEX
  5
B443
  8
0
 10
131.43179572509479
 20
122.5501466031909
 30
0.0
  0
VERTEX
  5
B444
  8
0
 10
131.3657898892375
 20
122.6376423716669
 30
0.0
  0
VERTEX
  5
B445
  8
0
 10
131.2929322410404
 20
122.7199254916578
 30
0.0
  0
VERTEX
  5
B446
  8
0
 10
131.2540158718534
 20
122.7589765419019
 30
0.0
  0
VERTEX
  5
B447
  8
0
 10
131.21348485730741
 20
122.7965607447214
 30
0.0
  0
VERTEX
  5
B448
  8
0
 10
131.12771018163571
 20
122.8671054035309
 30
0.0
  0
VERTEX
  5
B449
  8
0
 10
131.035871047179
 20
122.9311041067957
 30
0.0
  0
VERTEX
  5
B44A
  8
0
 10
130.9376514703313
 20
122.988389649965
 30
0.0
  0
VERTEX
  5
B44B
  8
0
 10
130.83261700180461
 20
123.038583706143
 30
0.0
  0
VERTEX
  5
B44C
  8
0
 10
130.72100228383439
 20
123.08079705126509
 30
0.0
  0
VERTEX
  5
B44D
  8
0
 10
130.66281101280501
 20
123.0986199903989
 30
0.0
  0
VERTEX
  5
B44E
  8
0
 10
130.60307948296901
 20
123.114090666791
 30
0.0
  0
VERTEX
  5
B44F
  8
0
 10
130.4790555350537
 20
123.13746824298249
 30
0.0
  0
VERTEX
  5
B450
  8
0
 10
130.3490564018696
 20
123.14979817891199
 30
0.0
  0
VERTEX
  5
B451
  8
0
 10
130.28200824704851
 20
123.1514046202401
 30
0.0
  0
SEQEND
  5
B452
  8
0
  0
LINE
  5
ABEE
  8
0
 10
86.282008247048651
 20
116.1514046202401
 30
0.0
 11
100.1939931791661
 21
117.08121245813579
 31
0.0
  0
POLYLINE
  5
ABEF
  8
0
 66
     1
 10
0.0
 20
0.0
 30
0.0
  0
VERTEX
  5
B453
  8
0
 10
84.888343088677601
 20
117.41837294603189
 30
0.0
  0
VERTEX
  5
B454
  8
0
 10
84.894774177912353
 20
117.36277366459539
 30
0.0
  0
VERTEX
  5
B455
  8
0
 10
84.914144135741466
 20
117.2531634879366
 30
0.0
  0
VERTEX
  5
B456
  8
0
 10
84.941954035741418
 20
117.14612112593311
 30
0.0
  0
VERTEX
  5
B457
  8
0
 10
84.958938817500055
 20
117.09370681098839
 30
0.0
  0
VERTEX
  5
B458
  8
0
 10
84.977932108293416
 20
117.0421056664525
 30
0.0
  0
VERTEX
  5
B459
  8
0
 10
85.021811535173669
 20
116.94156509431581
 30
0.0
  0
VERTEX
  5
B45A
  8
0
 10
85.073328508192006
 20
116.84493927156591
 30
0.0
  0
VERTEX
  5
B45B
  8
0
 10
85.132220769002487
 20
116.75266263728911
 30
0.0
  0
VERTEX
  5
B45C
  8
0
 10
85.198226604859741
 20
116.6651668688131
 30
0.0
  0
VERTEX
  5
B45D
  8
0
 10
85.271084253056955
 20
116.5828837488223
 30
0.0
  0
VERTEX
  5
B45E
  8
0
 10
85.310000622243905
 20
116.5438326985781
 30
0.0
  0
VERTEX
  5
B45F
  8
0
 10
85.350531636789896
 20
116.5062484957587
 30
0.0
  0
VERTEX
  5
B460
  8
0
 10
85.436306312461724
 20
116.4357038369491
 30
0.0
  0
VERTEX
  5
B461
  8
0
 10
85.528145446918273
 20
116.3717051336844
 30
0.0
  0
VERTEX
  5
B462
  8
0
 10
85.626365023766056
 20
116.3144195905151
 30
0.0
  0
VERTEX
  5
B463
  8
0
 10
85.731399492292752
 20
116.264225534337
 30
0.0
  0
VERTEX
  5
B464
  8
0
 10
85.843014210263007
 20
116.22201218921511
 30
0.0
  0
VERTEX
  5
B465
  8
0
 10
85.901205481292294
 20
116.2041892500812
 30
0.0
  0
VERTEX
  5
B466
  8
0
 10
85.960937011128266
 20
116.1887185736891
 30
0.0
  0
VERTEX
  5
B467
  8
0
 10
86.084960959043741
 20
116.16534099749759
 30
0.0
  0
VERTEX
  5
B468
  8
0
 10
86.214960092227656
 20
116.15301106156809
 30
0.0
  0
VERTEX
  5
B469
  8
0
 10
86.282008247048765
 20
116.1514046202401
 30
0.0
  0
SEQEND
  5
B46A
  8
0
  0
LINE
  5
ABF0
  8
0
 10
130.28200824704859
 20
123.1514046202401
 30
0.0
 11
116.3700233149312
 21
122.22159678234441
 31
0.0
  0
POLYLINE
  5
ABF1
  8
0
 66
     1
 10
0.0
 20
0.0
 30
0.0
  0
VERTEX
  5
B46B
  8
0
 10
116.3700233149312
 20
122.22159678234441
 30
0.0
  0
VERTEX
  5
B46C
  8
0
 10
116.2925404939907
 20
122.2174956872466
 30
0.0
  0
VERTEX
  5
B46D
  8
0
 10
116.135198387109
 20
122.2157772013274
 30
0.0
  0
VERTEX
  5
B46E
  8
0
 10
115.97556166072719
 20
122.2230810255605
 30
0.0
  0
VERTEX
  5
B46F
  8
0
 10
115.8952121051898
 20
122.2302240575748
 30
0.0
  0
VERTEX
  5
B470
  8
0
 10
115.8146813869545
 20
122.2397344933097
 30
0.0
  0
VERTEX
  5
B471
  8
0
 10
115.6535821643011
 20
122.26592819119151
 30
0.0
  0
VERTEX
  5
B472
  8
0
 10
115.4932773385143
 20
122.30171951461941
 30
0.0
  0
VERTEX
  5
B473
  8
0
 10
115.3347730904531
 20
122.34703134264829
 30
0.0
  0
VERTEX
  5
B474
  8
0
 10
115.1789984801719
 20
122.4016740847225
 30
0.0
  0
VERTEX
  5
B475
  8
0
 10
115.02677102058369
 20
122.4653764162113
 30
0.0
  0
VERTEX
  5
B476
  8
0
 10
114.952267819415
 20
122.50049711394119
 30
0.0
  0
VERTEX
  5
B477
  8
0
 10
114.8789838942141
 20
122.5377129125295
 30
0.0
  0
VERTEX
  5
B478
  8
0
 10
114.7364837903193
 20
122.6181327331997
 30
0.0
  0
VERTEX
  5
B479
  8
0
 10
114.60003953749521
 20
122.70597431945509
 30
0.0
  0
VERTEX
  5
B47A
  8
0
 10
114.4703612848129
 20
122.8004520675383
 30
0.0
  0
VERTEX
  5
B47B
  8
0
 10
114.3480900037838
 20
122.90065415495491
 30
0.0
  0
VERTEX
  5
B47C
  8
0
 10
114.2444322315642
 20
122.9958579294979
 30
0.0
  0
SEQEND
  5
B47D
  8
0
  0
POLYLINE
  5
ABF2
  8
0
 66
     1
 10
0.0
 20
0.0
 30
0.0
  0
VERTEX
  5
B47E
  8
0
 10
102.3198328424884
 20
122.9963010542408
 30
0.0
  0
VERTEX
  5
B47F
  8
0
 10
102.2153046041046
 20
122.90011462277261
 30
0.0
  0
VERTEX
  5
B480
  8
0
 10
102.08720236187661
 20
122.7954766340667
 30
0.0
  0
VERTEX
  5
B481
  8
0
 10
101.95286677308989
 20
122.6983966005882
 30
0.0
  0
VERTEX
  5
B482
  8
0
 10
101.8130628601518
 20
122.6094590076935
 30
0.0
  0
VERTEX
  5
B483
  8
0
 10
101.66856129624639
 20
122.52911155080081
 30
0.0
  0
VERTEX
  5
B484
  8
0
 10
101.5948392651632
 20
122.4922901518746
 30
0.0
  0
VERTEX
  5
B485
  8
0
 10
101.52030077152889
 20
122.4577589299176
 30
0.0
  0
VERTEX
  5
B486
  8
0
 10
101.36928294133639
 20
122.3956821580563
 30
0.0
  0
VERTEX
  5
B487
  8
0
 10
101.21654683900969
 20
122.34302705127649
 30
0.0
  0
VERTEX
  5
B488
  8
0
 10
101.06319304187301
 20
122.29981185435309
 30
0.0
  0
VERTEX
  5
B489
  8
0
 10
100.91036557433431
 20
122.2659149453218
 30
0.0
  0
VERTEX
  5
B48A
  8
0
 10
100.7558631300129
 20
122.24060926885041
 30
0.0
  0
VERTEX
  5
B48B
  8
0
 10
100.67724246405309
 20
122.23110979960821
 30
0.0
  0
VERTEX
  5
B48C
  8
0
 10
100.5978699319988
 20
122.2237974546637
 30
0.0
  0
VERTEX
  5
B48D
  8
0
 10
100.4373590737851
 20
122.2159369879967
 30
0.0
  0
VERTEX
  5
B48E
  8
0
 10
100.2753018544018
 20
122.21734893198131
 30
0.0
  0
VERTEX
  5
B48F
  8
0
 10
100.1939931791661
 20
122.22159678234441
 30
0.0
  0
SEQEND
  5
B490
  8
0
  0
LINE
  5
ABF3
  8
1
 10
60.05108035981128
 20
41.111350227879711
 30
0.0
 11
60.051080359811287
 21
91.111350227879669
 31
0.0
  0
LINE
  5
ABF4
  8
0
 10
63.150248068562171
 20
86.111350227879711
 30
0.0
 11
56.951912651060397
 21
86.111350227879711
 31
0.0
  0
LINE
  5
ABF5
  8
0
 10
53.301080359811287
 20
84.079131107668104
 30
0.0
 11
53.301080359811287
 21
62.111350227879711
 31
0.0
  0
LINE
  5
ABF6
  8
0
 10
66.801080359811294
 20
62.111350227879711
 30
0.0
 11
66.801080359811294
 21
84.079131107668104
 31
0.0
  0
LINE
  5
ABF7
  8
0
 10
53.301080359811287
 20
84.079131107668104
 30
0.0
 11
56.259800193098258
 21
84.079131107668104
 31
0.0
  0
LINE
  5
ABF8
  8
0
 10
63.84236052652431
 20
67.611350227879711
 30
0.0
 11
56.259800193098258
 21
67.611350227879711
 31
0.0
  0
LINE
  5
ABF9
  8
0
 10
63.84236052652431
 20
84.079131107668104
 30
0.0
 11
66.801080359811294
 21
84.079131107668104
 31
0.0
  0
LINE
  5
ABFA
  8
0
 10
66.801080359811294
 20
62.111350227879711
 30
0.0
 11
53.301080359811287
 21
62.111350227879711
 31
0.0
  0
POLYLINE
  5
ABFB
  8
0
 66
     1
 10
0.0
 20
0.0
 30
0.0
  0
VERTEX
  5
B491
  8
0
 10
63.485105498004017
 20
84.086540506760457
 30
0.0
  0
VERTEX
  5
B492
  8
0
 10
63.54058993713965
 20
84.084305332529524
 30
0.0
  0
VERTEX
  5
B493
  8
0
 10
63.656619399850563
 20
84.081011538793462
 30
0.0
  0
VERTEX
  5
B494
  8
0
 10
63.778978265937774
 20
84.079341574406214
 30
0.0
  0
VERTEX
  5
B495
  8
0
 10
63.84236052652431
 20
84.079131107668104
 30
0.0
  0
SEQEND
  5
B496
  8
0
  0
LINE
  5
ABFC
  8
0
 10
63.84236052652431
 20
84.079131107668104
 30
0.0
 11
63.84236052652431
 21
67.611350227879711
 31
0.0
  0
POLYLINE
  5
ABFD
  8
0
 66
     1
 10
0.0
 20
0.0
 30
0.0
  0
VERTEX
  5
B497
  8
0
 10
63.84236052652431
 20
67.611350227879711
 30
0.0
  0
VERTEX
  5
B498
  8
0
 10
63.77928440935397
 20
67.611728389616076
 30
0.0
  0
VERTEX
  5
B499
  8
0
 10
63.65707006177103
 20
67.614743567414735
 30
0.0
  0
VERTEX
  5
B49A
  8
0
 10
63.540305712558379
 20
67.620744670822035
 30
0.0
  0
VERTEX
  5
B49B
  8
0
 10
63.4840424182687
 20
67.624853728184235
 30
0.0
  0
VERTEX
  5
B49C
  8
0
 10
63.429231922696992
 20
67.629695030875268
 30
0.0
  0
VERTEX
  5
B49D
  8
0
 10
63.324094722990807
 20
67.641551374854203
 30
0.0
  0
VERTEX
  5
B49E
  8
0
 10
63.225435350868793
 20
67.656214949407342
 30
0.0
  0
VERTEX
  5
B49F
  8
0
 10
63.133606845178512
 20
67.67357099649621
 30
0.0
  0
VERTEX
  5
B4A0
  8
0
 10
63.04875295947226
 20
67.693522874334164
 30
0.0
  0
VERTEX
  5
B4A1
  8
0
 10
62.97101837810942
 20
67.715972247422314
 30
0.0
  0
VERTEX
  5
B4A2
  8
0
 10
62.934866086141021
 20
67.728102452010134
 30
0.0
  0
VERTEX
  5
B4A3
  8
0
 10
62.900547884536977
 20
67.740819703843783
 30
0.0
  0
VERTEX
  5
B4A4
  8
0
 10
62.837598296298658
 20
67.767911825049495
 30
0.0
  0
VERTEX
  5
B4A5
  8
0
 10
62.782390292951497
 20
67.797066120331579
 30
0.0
  0
VERTEX
  5
B4A6
  8
0
 10
62.734964505234522
 20
67.828161364692392
 30
0.0
  0
VERTEX
  5
B4A7
  8
0
 10
62.695362347576172
 20
67.861079421541035
 30
0.0
  0
VERTEX
  5
B4A8
  8
0
 10
62.663625176549189
 20
67.895704913149928
 30
0.0
  0
VERTEX
  5
B4A9
  8
0
 10
62.650718568228733
 20
67.913622637559556
 30
0.0
  0
VERTEX
  5
B4AA
  8
0
 10
62.639798530490438
 20
67.931915072729964
 30
0.0
  0
VERTEX
  5
B4AB
  8
0
 10
62.623939829585993
 20
67.969515120476899
 30
0.0
  0
VERTEX
  5
B4AC
  8
0
 10
62.616027161738877
 20
68.008373774963275
 30
0.0
  0
VERTEX
  5
B4AD
  8
0
 10
62.615039706790398
 20
68.02824061546653
 30
0.0
  0
SEQEND
  5
B4AE
  8
0
  0
POLYLINE
  5
ABFE
  8
0
 66
     1
 10
0.0
 20
0.0
 30
0.0
  0
VERTEX
  5
B4AF
  8
0
 10
62.615039706790398
 20
68.02824061546653
 30
0.0
  0
VERTEX
  5
B4B0
  8
0
 10
62.61521311279693
 20
68.036652528906473
 30
0.0
  0
VERTEX
  5
B4B1
  8
0
 10
62.616599386415139
 20
68.053616790958472
 30
0.0
  0
VERTEX
  5
B4B2
  8
0
 10
62.619369422930269
 20
68.070761842436184
 30
0.0
  0
VERTEX
  5
B4B3
  8
0
 10
62.62127252191555
 20
68.079399764086304
 30
0.0
  0
SEQEND
  5
B4B4
  8
0
  0
POLYLINE
  5
ABFF
  8
0
 66
     1
 10
0.0
 20
0.0
 30
0.0
  0
VERTEX
  5
B4B5
  8
0
 10
63.387133777164642
 20
72.635866318374951
 30
0.0
  0
VERTEX
  5
B4B6
  8
0
 10
63.376078704921149
 20
72.545927902735343
 30
0.0
  0
VERTEX
  5
B4B7
  8
0
 10
63.353942749785219
 20
72.382084347975933
 30
0.0
  0
VERTEX
  5
B4B8
  8
0
 10
63.332064288544863
 20
72.240150110632555
 30
0.0
  0
VERTEX
  5
B4B9
  8
0
 10
63.32092973215093
 20
72.175136389662327
 30
0.0
  0
SEQEND
  5
B4BA
  8
0
  0
POLYLINE
  5
AC00
  8
0
 66
     1
 10
0.0
 20
0.0
 30
0.0
  0
VERTEX
  5
B4BB
  8
0
 10
56.951912651060397
 20
86.111350227879711
 30
0.0
  0
VERTEX
  5
B4BC
  8
0
 10
56.939396068032458
 20
86.108940709537876
 30
0.0
  0
VERTEX
  5
B4BD
  8
0
 10
56.91363278519087
 20
86.088773490337516
 30
0.0
  0
VERTEX
  5
B4BE
  8
0
 10
56.887261535266809
 20
86.046741167488847
 30
0.0
  0
VERTEX
  5
B4BF
  8
0
 10
56.873983161312701
 20
86.017267131889085
 30
0.0
  0
VERTEX
  5
B4C0
  8
0
 10
56.860714295922882
 20
85.982162883582987
 30
0.0
  0
VERTEX
  5
B4C1
  8
0
 10
56.83440850341912
 20
85.895509364681516
 30
0.0
  0
VERTEX
  5
B4C2
  8
0
 10
56.808743840255481
 20
85.788394100420533
 30
0.0
  0
VERTEX
  5
B4C3
  8
0
 10
56.784108535597731
 20
85.663599350519235
 30
0.0
  0
VERTEX
  5
B4C4
  8
0
 10
56.760789830304461
 20
85.524517760443345
 30
0.0
  0
VERTEX
  5
B4C5
  8
0
 10
56.737553434409612
 20
85.364312673046484
 30
0.0
  0
VERTEX
  5
B4C6
  8
0
 10
56.725867321829227
 20
85.275078785758069
 30
0.0
  0
VERTEX
  5
B4C7
  8
0
 10
56.714209834717622
 20
85.179962866761215
 30
0.0
  0
VERTEX
  5
B4C8
  8
0
 10
56.691188548490111
 20
84.973091028974977
 30
0.0
  0
VERTEX
  5
B4C9
  8
0
 10
56.668878678580988
 20
84.746344551273182
 30
0.0
  0
VERTEX
  5
B4CA
  8
0
 10
56.647620248924902
 20
84.503316828496452
 30
0.0
  0
VERTEX
  5
B4CB
  8
0
 10
56.627714314449683
 20
84.248653568014603
 30
0.0
  0
VERTEX
  5
B4CC
  8
0
 10
56.609409464993171
 20
83.987886778975565
 30
0.0
  0
VERTEX
  5
B4CD
  8
0
 10
56.600656964634247
 20
83.852997113970446
 30
0.0
  0
VERTEX
  5
B4CE
  8
0
 10
56.591964491438937
 20
83.711758724724177
 30
0.0
  0
VERTEX
  5
B4CF
  8
0
 10
56.574962758585791
 20
83.411915355524798
 30
0.0
  0
VERTEX
  5
B4D0
  8
0
 10
56.558772642062422
 20
83.092176770553905
 30
0.0
  0
VERTEX
  5
B4D1
  8
0
 10
56.551080359811287
 20
82.926250321807629
 30
0.0
  0
SEQEND
  5
B4D2
  8
0
  0
POLYLINE
  5
AC01
  8
0
 66
     1
 10
0.0
 20
0.0
 30
0.0
  0
VERTEX
  5
B4D3
  8
0
 10
56.551080359811287
 20
74.896450133951816
 30
0.0
  0
VERTEX
  5
B4D4
  8
0
 10
56.555909292128369
 20
74.791131706105659
 30
0.0
  0
VERTEX
  5
B4D5
  8
0
 10
56.565909181437398
 20
74.585000732322143
 30
0.0
  0
VERTEX
  5
B4D6
  8
0
 10
56.576303971478858
 20
74.385890953407909
 30
0.0
  0
VERTEX
  5
B4D7
  8
0
 10
56.581624127340653
 20
74.289320796233312
 30
0.0
  0
VERTEX
  5
B4D8
  8
0
 10
56.587011445716371
 20
74.194911485781745
 30
0.0
  0
VERTEX
  5
B4D9
  8
0
 10
56.597939740678257
 20
74.013045944455655
 30
0.0
  0
VERTEX
  5
B4DA
  8
0
 10
56.608987140074518
 20
73.841162470755648
 30
0.0
  0
VERTEX
  5
B4DB
  8
0
 10
56.620347596095023
 20
73.675710453572037
 30
0.0
  0
VERTEX
  5
B4DC
  8
0
 10
56.632379004582717
 20
73.511822081917501
 30
0.0
  0
VERTEX
  5
B4DD
  8
0
 10
56.645028118285147
 20
73.350983990950454
 30
0.0
  0
VERTEX
  5
B4DE
  8
0
 10
56.651564568198403
 20
73.272148790745405
 30
0.0
  0
VERTEX
  5
B4DF
  8
0
 10
56.658230792348832
 20
73.194585503936253
 30
0.0
  0
VERTEX
  5
B4E0
  8
0
 10
56.671914812628863
 20
73.043870326109015
 30
0.0
  0
VERTEX
  5
B4E1
  8
0
 10
56.685999870622581
 20
72.899932533469666
 30
0.0
  0
VERTEX
  5
B4E2
  8
0
 10
56.700401579575207
 20
72.763676542439612
 30
0.0
  0
VERTEX
  5
B4E3
  8
0
 10
56.715026942457932
 20
72.635866318375179
 30
0.0
  0
VERTEX
  5
B4E4
  8
0
 10
56.729774669559887
 20
72.517117282594143
 30
0.0
  0
VERTEX
  5
B4E5
  8
0
 10
56.737161251348311
 20
72.461285910974595
 30
0.0
  0
VERTEX
  5
B4E6
  8
0
 10
56.744537866075682
 20
72.407873547621463
 30
0.0
  0
VERTEX
  5
B4E7
  8
0
 10
56.759203524813181
 20
72.308416603044407
 30
0.0
  0
VERTEX
  5
B4E8
  8
0
 10
56.773769815514918
 20
72.218175839807657
 30
0.0
  0
VERTEX
  5
B4E9
  8
0
 10
56.781230987471638
 20
72.175136389662271
 30
0.0
  0
SEQEND
  5
B4EA
  8
0
  0
POLYLINE
  5
AC02
  8
0
 66
     1
 10
0.0
 20
0.0
 30
0.0
  0
VERTEX
  5
B4EB
  8
0
 10
56.781230987471638
 20
72.175136389662271
 30
0.0
  0
VERTEX
  5
B4EC
  8
0
 10
56.88954665721166
 20
71.378540215286307
 30
0.0
  0
VERTEX
  5
B4ED
  8
0
 10
57.118519354054563
 20
69.898118407990523
 30
0.0
  0
VERTEX
  5
B4EE
  8
0
 10
57.358729611726851
 20
68.62350092155998
 30
0.0
  0
VERTEX
  5
B4EF
  8
0
 10
57.480888197707017
 20
68.079399764086304
 30
0.0
  0
SEQEND
  5
B4F0
  8
0
  0
LINE
  5
AC03
  8
0
 10
56.551080359811287
 20
82.926250321807629
 30
0.0
 11
56.551080359811287
 21
74.896450133951816
 31
0.0
  0
POLYLINE
  5
AC04
  8
0
 66
     1
 10
0.0
 20
0.0
 30
0.0
  0
VERTEX
  5
B4F1
  8
0
 10
63.32092973215093
 20
72.175136389662271
 30
0.0
  0
VERTEX
  5
B4F2
  8
0
 10
63.32839090410765
 20
72.218175839807657
 30
0.0
  0
VERTEX
  5
B4F3
  8
0
 10
63.342957194809387
 20
72.308416603044407
 30
0.0
  0
VERTEX
  5
B4F4
  8
0
 10
63.357622853546893
 20
72.407873547621463
 30
0.0
  0
VERTEX
  5
B4F5
  8
0
 10
63.36499946827427
 20
72.461285910974595
 30
0.0
  0
VERTEX
  5
B4F6
  8
0
 10
63.37238605006268
 20
72.517117282594143
 30
0.0
  0
VERTEX
  5
B4F7
  8
0
 10
63.387133777164642
 20
72.635866318375179
 30
0.0
  0
VERTEX
  5
B4F8
  8
0
 10
63.401759140047368
 20
72.763676542439555
 30
0.0
  0
VERTEX
  5
B4F9
  8
0
 10
63.416160848999994
 20
72.899932533469666
 30
0.0
  0
VERTEX
  5
B4FA
  8
0
 10
63.430245906993711
 20
73.043870326109015
 30
0.0
  0
VERTEX
  5
B4FB
  8
0
 10
63.44392992727375
 20
73.194585503936253
 30
0.0
  0
VERTEX
  5
B4FC
  8
0
 10
63.450596151424172
 20
73.272148790745405
 30
0.0
  0
VERTEX
  5
B4FD
  8
0
 10
63.45713260133742
 20
73.350983990950454
 30
0.0
  0
VERTEX
  5
B4FE
  8
0
 10
63.469781715039851
 20
73.511822081917501
 30
0.0
  0
VERTEX
  5
B4FF
  8
0
 10
63.481813123527552
 20
73.675710453572037
 30
0.0
  0
VERTEX
  5
B500
  8
0
 10
63.493173579548049
 20
73.841162470755648
 30
0.0
  0
VERTEX
  5
B501
  8
0
 10
63.504220978944311
 20
74.013045944455655
 30
0.0
  0
VERTEX
  5
B502
  8
0
 10
63.515149273906211
 20
74.194911485781745
 30
0.0
  0
VERTEX
  5
B503
  8
0
 10
63.520536592281921
 20
74.289320796233312
 30
0.0
  0
VERTEX
  5
B504
  8
0
 10
63.52585674814371
 20
74.385890953407909
 30
0.0
  0
VERTEX
  5
B505
  8
0
 10
63.536251538185176
 20
74.585000732322143
 30
0.0
  0
VERTEX
  5
B506
  8
0
 10
63.546251427494198
 20
74.791131706105659
 30
0.0
  0
VERTEX
  5
B507
  8
0
 10
63.55108035981128
 20
74.896450133951816
 30
0.0
  0
SEQEND
  5
B508
  8
0
  0
POLYLINE
  5
AC05
  8
0
 66
     1
 10
0.0
 20
0.0
 30
0.0
  0
VERTEX
  5
B509
  8
0
 10
63.55108035981128
 20
82.926250321807629
 30
0.0
  0
VERTEX
  5
B50A
  8
0
 10
63.543388077560159
 20
83.092176770553905
 30
0.0
  0
VERTEX
  5
B50B
  8
0
 10
63.527197961036777
 20
83.411915355524798
 30
0.0
  0
VERTEX
  5
B50C
  8
0
 10
63.510196228183631
 20
83.711758724724177
 30
0.0
  0
VERTEX
  5
B50D
  8
0
 10
63.501503754988327
 20
83.852997113970446
 30
0.0
  0
VERTEX
  5
B50E
  8
0
 10
63.492751254629397
 20
83.987886778975607
 30
0.0
  0
VERTEX
  5
B50F
  8
0
 10
63.474446405172891
 20
84.248653568014674
 30
0.0
  0
VERTEX
  5
B510
  8
0
 10
63.454540470697673
 20
84.503316828496452
 30
0.0
  0
VERTEX
  5
B511
  8
0
 10
63.433282041041579
 20
84.746344551273182
 30
0.0
  0
VERTEX
  5
B512
  8
0
 10
63.410972171132457
 20
84.973091028974977
 30
0.0
  0
VERTEX
  5
B513
  8
0
 10
63.387950884904953
 20
85.179962866761215
 30
0.0
  0
VERTEX
  5
B514
  8
0
 10
63.37629339779334
 20
85.275078785758069
 30
0.0
  0
VERTEX
  5
B515
  8
0
 10
63.364607285212962
 20
85.364312673046484
 30
0.0
  0
VERTEX
  5
B516
  8
0
 10
63.341370889318107
 20
85.524517760443345
 30
0.0
  0
VERTEX
  5
B517
  8
0
 10
63.318052184024843
 20
85.663599350519235
 30
0.0
  0
VERTEX
  5
B518
  8
0
 10
63.293416879367093
 20
85.788394100420533
 30
0.0
  0
VERTEX
  5
B519
  8
0
 10
63.267752216203448
 20
85.895509364681516
 30
0.0
  0
VERTEX
  5
B51A
  8
0
 10
63.241446423699692
 20
85.982162883582987
 30
0.0
  0
VERTEX
  5
B51B
  8
0
 10
63.228177558309874
 20
86.017267131889085
 30
0.0
  0
VERTEX
  5
B51C
  8
0
 10
63.214899184355772
 20
86.046741167488847
 30
0.0
  0
VERTEX
  5
B51D
  8
0
 10
63.188527934431697
 20
86.088773490337516
 30
0.0
  0
VERTEX
  5
B51E
  8
0
 10
63.162764651590109
 20
86.108940709537876
 30
0.0
  0
VERTEX
  5
B51F
  8
0
 10
63.150248068562171
 20
86.111350227879711
 30
0.0
  0
SEQEND
  5
B520
  8
0
  0
POLYLINE
  5
AC06
  8
0
 66
     1
 10
0.0
 20
0.0
 30
0.0
  0
VERTEX
  5
B521
  8
0
 10
62.62127252191555
 20
68.079399764086304
 30
0.0
  0
VERTEX
  5
B522
  8
0
 10
62.743431107895731
 20
68.62350092155998
 30
0.0
  0
VERTEX
  5
B523
  8
0
 10
62.983641365568012
 20
69.898118407990523
 30
0.0
  0
VERTEX
  5
B524
  8
0
 10
63.212614062410921
 20
71.378540215286307
 30
0.0
  0
VERTEX
  5
B525
  8
0
 10
63.32092973215093
 20
72.175136389662271
 30
0.0
  0
SEQEND
  5
B526
  8
0
  0
LINE
  5
AC07
  8
0
 10
63.55108035981128
 20
82.926250321807629
 30
0.0
 11
63.55108035981128
 21
74.896450133951816
 31
0.0
  0
POLYLINE
  5
AC08
  8
0
 66
     1
 10
0.0
 20
0.0
 30
0.0
  0
VERTEX
  5
B527
  8
0
 10
56.781230987471638
 20
72.175136389662271
 30
0.0
  0
VERTEX
  5
B528
  8
0
 10
56.770096431077711
 20
72.240150110632612
 30
0.0
  0
VERTEX
  5
B529
  8
0
 10
56.748217969837349
 20
72.382084347976161
 30
0.0
  0
VERTEX
  5
B52A
  8
0
 10
56.726082014701312
 20
72.545927902735741
 30
0.0
  0
VERTEX
  5
B52B
  8
0
 10
56.715026942457818
 20
72.63586631837552
 30
0.0
  0
SEQEND
  5
B52C
  8
0
  0
LINE
  5
AC09
  8
0
 10
56.259800193098258
 20
84.079131107668104
 30
0.0
 11
56.259800193098258
 21
67.611350227879711
 31
0.0
  0
POLYLINE
  5
AC0A
  8
0
 66
     1
 10
0.0
 20
0.0
 30
0.0
  0
VERTEX
  5
B52D
  8
0
 10
56.259800193098258
 20
84.079131107668104
 30
0.0
  0
VERTEX
  5
B52E
  8
0
 10
56.321339357235381
 20
84.079329399586186
 30
0.0
  0
VERTEX
  5
B52F
  8
0
 10
56.442313146210601
 20
84.080944752615906
 30
0.0
  0
VERTEX
  5
B530
  8
0
 10
56.559668135311078
 20
84.084236628493954
 30
0.0
  0
VERTEX
  5
B531
  8
0
 10
56.616701064857232
 20
84.086524782193067
 30
0.0
  0
SEQEND
  5
B532
  8
0
  0
POLYLINE
  5
AC0B
  8
0
 66
     1
 10
0.0
 20
0.0
 30
0.0
  0
VERTEX
  5
B533
  8
0
 10
57.480888197707017
 20
68.079399764086304
 30
0.0
  0
VERTEX
  5
B534
  8
0
 10
57.482790809166879
 20
68.070764269814276
 30
0.0
  0
VERTEX
  5
B535
  8
0
 10
57.485560803184512
 20
68.053621139706252
 30
0.0
  0
VERTEX
  5
B536
  8
0
 10
57.48694750798699
 20
68.036654933032693
 30
0.0
  0
VERTEX
  5
B537
  8
0
 10
57.487121012832169
 20
68.02824061546653
 30
0.0
  0
SEQEND
  5
B538
  8
0
  0
POLYLINE
  5
AC0C
  8
0
 66
     1
 10
0.0
 20
0.0
 30
0.0
  0
VERTEX
  5
B539
  8
0
 10
57.487121012832169
 20
68.02824061546653
 30
0.0
  0
VERTEX
  5
B53A
  8
0
 10
57.486129478174803
 20
68.008333084167191
 30
0.0
  0
VERTEX
  5
B53B
  8
0
 10
57.478181276330581
 20
67.969387730417566
 30
0.0
  0
VERTEX
  5
B53C
  8
0
 10
57.462266891283882
 20
67.931737888712348
 30
0.0
  0
VERTEX
  5
B53D
  8
0
 10
57.451319765959852
 20
67.913436802379124
 30
0.0
  0
VERTEX
  5
B53E
  8
0
 10
57.438377887942117
 20
67.895504046706606
 30
0.0
  0
VERTEX
  5
B53F
  8
0
 10
57.406507149443421
 20
67.860803896278696
 30
0.0
  0
VERTEX
  5
B540
  8
0
 10
57.366746316859
 20
67.827830699017511
 30
0.0
  0
VERTEX
  5
B541
  8
0
 10
57.319208144254041
 20
67.796736257210227
 30
0.0
  0
VERTEX
  5
B542
  8
0
 10
57.263973444073251
 20
67.767631566798684
 30
0.0
  0
VERTEX
  5
B543
  8
0
 10
57.201124060181648
 20
67.740629476363779
 30
0.0
  0
VERTEX
  5
B544
  8
0
 10
57.166869468729821
 20
67.727952619003929
 30
0.0
  0
VERTEX
  5
B545
  8
0
 10
57.130741829268679
 20
67.715844452117778
 30
0.0
  0
VERTEX
  5
B546
  8
0
 10
57.052907362612352
 20
67.693392395886633
 30
0.0
  0
VERTEX
  5
B547
  8
0
 10
56.96771701636839
 20
67.673394363545853
 30
0.0
  0
VERTEX
  5
B548
  8
0
 10
56.875687957993129
 20
67.656040665913906
 30
0.0
  0
VERTEX
  5
B549
  8
0
 10
56.777192269061622
 20
67.641437735045258
 30
0.0
  0
VERTEX
  5
B54A
  8
0
 10
56.672449243459468
 20
67.629648899273832
 30
0.0
  0
VERTEX
  5
B54B
  8
0
 10
56.617803357114319
 20
67.624828360779816
 30
0.0
  0
VERTEX
  5
B54C
  8
0
 10
56.56167760723541
 20
67.620733027087397
 30
0.0
  0
VERTEX
  5
B54D
  8
0
 10
56.445095298550882
 20
67.614743742661403
 30
0.0
  0
VERTEX
  5
B54E
  8
0
 10
56.322918950706253
 20
67.611728906015173
 30
0.0
  0
VERTEX
  5
B54F
  8
0
 10
56.259800193098258
 20
67.611350227879711
 30
0.0
  0
SEQEND
  5
B550
  8
0
  0
LINE
  5
AC0D
  8
0
 10
91.982008247048583
 20
86.111350227879711
 30
0.0
 11
92.279347233547327
 21
86.111350227879711
 31
0.0
  0
POLYLINE
  5
AC0E
  8
0
 66
     1
 10
0.0
 20
0.0
 30
0.0
  0
VERTEX
  5
B551
  8
0
 10
95.319242881203962
 20
85.448445913739135
 30
0.0
  0
VERTEX
  5
B552
  8
0
 10
95.241795910602008
 20
85.48331735437074
 30
0.0
  0
VERTEX
  5
B553
  8
0
 10
95.087963696878745
 20
85.54942285430559
 30
0.0
  0
VERTEX
  5
B554
  8
0
 10
94.933949844804005
 20
85.611496646267653
 30
0.0
  0
VERTEX
  5
B555
  8
0
 10
94.85530077177404
 20
85.641645221070405
 30
0.0
  0
VERTEX
  5
B556
  8
0
 10
94.775575340165304
 20
85.671155297770213
 30
0.0
  0
VERTEX
  5
B557
  8
0
 10
94.613129217521944
 20
85.728064080606885
 30
0.0
  0
VERTEX
  5
B558
  8
0
 10
94.447088149486447
 20
85.781856959197626
 30
0.0
  0
VERTEX
  5
B559
  8
0
 10
94.27794015310505
 20
85.832210685366988
 30
0.0
  0
VERTEX
  5
B55A
  8
0
 10
94.106184542093246
 20
85.878845370574993
 30
0.0
  0
VERTEX
  5
B55B
  8
0
 10
93.932336652043631
 20
85.921523841410817
 30
0.0
  0
VERTEX
  5
B55C
  8
0
 10
93.844792823069923
 20
85.941317462073926
 30
0.0
  0
VERTEX
  5
B55D
  8
0
 10
93.756924741130177
 20
85.960053284375405
 30
0.0
  0
VERTEX
  5
B55E
  8
0
 10
93.580477281222414
 20
85.994288111378296
 30
0.0
  0
VERTEX
  5
B55F
  8
0
 10
93.403510153363385
 20
86.024130890945912
 30
0.0
  0
VERTEX
  5
B560
  8
0
 10
93.226575213503537
 20
86.049523353554818
 30
0.0
  0
VERTEX
  5
B561
  8
0
 10
93.050235573187464
 20
86.070452483755275
 30
0.0
  0
VERTEX
  5
B562
  8
0
 10
92.875057727571033
 20
86.086951485750092
 30
0.0
  0
VERTEX
  5
B563
  8
0
 10
92.788081851327064
 20
86.093562579241166
 30
0.0
  0
VERTEX
  5
B564
  8
0
 10
92.701610142943295
 20
86.09909919413775
 30
0.0
  0
VERTEX
  5
B565
  8
0
 10
92.530468290158609
 20
86.107019027770363
 30
0.0
  0
VERTEX
  5
B566
  8
0
 10
92.362212068096227
 20
86.110878667348615
 30
0.0
  0
VERTEX
  5
B567
  8
0
 10
92.279347233547327
 20
86.111350227879711
 30
0.0
  0
SEQEND
  5
B568
  8
0
  0
CIRCLE
  5
AC0F
  8
0
 10
108.28200824704859
 20
119.6514046202401
 30
0.0
 40
5.0
  0
CIRCLE
  5
AC10
  8
0
 10
108.28200824704859
 20
119.6514046202401
 30
0.0
 40
0.5127272724
  0
CIRCLE
  5
AC11
  8
0
 10
104.86382643104869
 20
119.6514046202401
 30
0.0
 40
0.5127272724
  0
CIRCLE
  5
AC12
  8
0
 10
106.5729173390486
 20
119.6514046202401
 30
0.0
 40
0.5127272724
  0
CIRCLE
  5
AC13
  8
0
 10
109.9910991550486
 20
119.6514046202401
 30
0.0
 40
0.5127272724
  0
CIRCLE
  5
AC14
  8
0
 10
111.7001900630485
 20
119.6514046202401
 30
0.0
 40
0.5127272724
  0
ARC
  5
AC15
  8
0
 10
60.051080359811401
 20
78.94743998887634
 30
0.0
 40
7.1639102390033456
 50
45.737808516856681
 51
62.366609035169802
  0
ARC
  5
AC16
  8
0
 10
60.051080359811401
 20
78.94743998887634
 30
0.0
 40
7.1639102390033456
 50
117.6333909648302
 51
134.26219148314331
  0
ARC
  5
AC17
  8
0
 10
108.28200824704869
 20
78.944329146628888
 30
0.0
 40
7.1670210812507644
 50
45.762040348295621
 51
134.23795965170439
  0
ARC
  5
AC18
  8
0
 10
108.28200824704859
 20
119.6514046202401
 30
0.0
 40
6.8363636320000012
 50
29.289014949816551
 51
150.70672676414529
  0
ARC
  5
AC19
  8
0
 10
108.28200824704859
 20
119.6514046202401
 30
0.0
 40
6.8363636320000012
 50
209.28901494981659
 51
330.70672676414529
  0
LINE
  5
B1E4
  8
3
 10
105.3263615695798
 20
60.111350227879711
 30
0.0
 11
104.2793819126928
 21
61.158329884766538
 31
0.0
  0
LINE
  5
B1E5
  8
0
 10
112.28200824704859
 20
62.111350227879711
 30
0.0
 11
112.28200824704859
 21
48.27641373734081
 31
0.0
  0
LINE
  5
B1E6
  8
3
 10
111.2350285901616
 20
60.111350227879711
 30
0.0
 11
111.2350285901617
 21
46.462991777121601
 31
0.0
  0
LINE
  5
B1E7
  8
3
 10
105.3289879039355
 20
60.111350227879711
 30
0.0
 11
105.3289879039355
 21
46.462991777121601
 31
0.0
  0
LINE
  5
B1E8
  8
0
 10
104.28200824704859
 20
62.111350227879711
 30
0.0
 11
104.28200824704859
 21
48.27641373734081
 31
0.0
  0
LINE
  5
B1E9
  8
0
 10
112.28200824704859
 20
48.27641373734081
 30
0.0
 11
111.03200824704859
 21
46.111350227879711
 31
0.0
  0
LINE
  5
B1EB
  8
0
 10
111.03200824704859
 20
46.111350227879718
 30
0.0
 11
105.53200824704859
 21
46.111350227879711
 31
0.0
  0
LINE
  5
B1EC
  8
0
 10
104.28200824704859
 20
48.27641373734081
 30
0.0
 11
112.28200824704859
 21
48.27641373734081
 31
0.0
  0
LINE
  5
B1ED
  8
0
 10
105.53200824704859
 20
46.111350227879711
 30
0.0
 11
104.28200824704859
 21
48.27641373734081
 31
0.0
  0
LINE
  5
B1EF
  8
3
 10
111.2350285901616
 20
60.111350227879711
 30
0.0
 11
112.28200824704859
 21
61.158329884766538
 31
0.0
  0
LINE
  5
B1F1
  8
0
 10
112.28200824704859
 20
60.111350227879711
 30
0.0
 11
104.28200824704859
 21
60.111350227879711
 31
0.0
  0
LINE
  5
B1F2
  8
3
 10
57.09543368234246
 20
60.111350227879711
 30
0.0
 11
56.048454025455463
 21
61.158329884766538
 31
0.0
  0
LINE
  5
B1F3
  8
0
 10
64.051080359811266
 20
62.111350227879711
 30
0.0
 11
64.051080359811266
 21
48.27641373734081
 31
0.0
  0
LINE
  5
B1F4
  8
3
 10
63.004100702924248
 20
60.111350227879711
 30
0.0
 11
63.00410070292439
 21
46.462991777121601
 31
0.0
  0
LINE
  5
B1F5
  8
3
 10
57.098060016698142
 20
60.111350227879711
 30
0.0
 11
57.098060016698142
 21
46.462991777121601
 31
0.0
  0
LINE
  5
B1F6
  8
0
 10
56.05108035981128
 20
62.111350227879711
 30
0.0
 11
56.05108035981128
 21
48.27641373734081
 31
0.0
  0
LINE
  5
B1F7
  8
0
 10
64.051080359811266
 20
48.27641373734081
 30
0.0
 11
62.801080359811252
 21
46.111350227879711
 31
0.0
  0
LINE
  5
B1F9
  8
0
 10
62.801080359811287
 20
46.111350227879718
 30
0.0
 11
57.30108035981128
 21
46.111350227879711
 31
0.0
  0
LINE
  5
B1FA
  8
0
 10
56.05108035981128
 20
48.27641373734081
 30
0.0
 11
64.051080359811294
 21
48.27641373734081
 31
0.0
  0
LINE
  5
B1FB
  8
0
 10
57.30108035981128
 20
46.111350227879711
 30
0.0
 11
56.05108035981128
 21
48.27641373734081
 31
0.0
  0
LINE
  5
B1FD
  8
3
 10
63.004100702924248
 20
60.111350227879711
 30
0.0
 11
64.051080359811266
 21
61.158329884766538
 31
0.0
  0
LINE
  5
B1FF
  8
0
 10
64.051080359811266
 20
60.111350227879697
 30
0.0
 11
56.05108035981128
 21
60.111350227879711
 31
0.0
  0
ENDSEC
  0
EOF
