  0
SECTION
  2
HEADER
  9
$ACADVER
  1
AC1009
  9
$INSBASE
 10
0.0
 20
0.0
 30
0.0
  9
$EXTMIN
 10
0.0
 20
-2.960436562073669
 30
0.0
  9
$EXTMAX
 10
153.0452855133515
 20
141.633726927851
 30
0.0
  9
$LIMMIN
 10
0.0
 20
0.0
  9
$LIMMAX
 10
187.5
 20
135.0
  9
$ORTHOMODE
 70
     1
  9
$REGENMODE
 70
     1
  9
$FILLMODE
 70
     1
  9
$QTEXTMODE
 70
     0
  9
$MIRRTEXT
 70
     0
  9
$DRAGMODE
 70
     2
  9
$LTSCALE
 40
5.0
  9
$OSMODE
 70
  3071
  9
$ATTMODE
 70
     1
  9
$TEXTSIZE
 40
0.2
  9
$TRACEWID
 40
0.05
  9
$TEXTSTYLE
  7
STANDARD
  9
$CLAYER
  8
0
  9
$CELTYPE
  6
BYLAYER
  9
$CECOLOR
 62
     6
  9
$DIMSCALE
 40
1.0
  9
$DIMASZ
 40
3.0
  9
$DIMEXO
 40
2.0
  9
$DIMDLI
 40
0.3799999999999999
  9
$DIMRND
 40
0.0
  9
$DIMDLE
 40
0.0
  9
$DIMEXE
 40
2.0
  9
$DIMTP
 40
0.0
  9
$DIMTM
 40
0.0
  9
$DIMTXT
 40
3.2000000000000002
  9
$DIMCEN
 40
0.09
  9
$DIMTSZ
 40
0.0
  9
$DIMTOL
 70
     0
  9
$DIMLIM
 70
     0
  9
$DIMTIH
 70
     0
  9
$DIMTOH
 70
     0
  9
$DIMSE1
 70
     0
  9
$DIMSE2
 70
     0
  9
$DIMTAD
 70
     1
  9
$DIMZIN
 70
     8
  9
$DIMBLK
  1

  9
$DIMASO
 70
     0
  9
$DIMSHO
 70
     0
  9
$DIMPOST
  1

  9
$DIMAPOST
  1

  9
$DIMALT
 70
     0
  9
$DIMALTD
 70
     2
  9
$DIMALTF
 40
25.399999999999999
  9
$DIMLFAC
 40
1.0
  9
$DIMTOFL
 70
     0
  9
$DIMTVP
 40
1.6000000000000001
  9
$DIMTIX
 70
     1
  9
$DIMSOXD
 70
     0
  9
$DIMSAH
 70
     0
  9
$DIMBLK1
  1

  9
$DIMBLK2
  1

  9
$DIMSTYLE
  2
STANDARD
  9
$DIMCLRD
 70
     0
  9
$DIMCLRE
 70
     0
  9
$DIMCLRT
 70
     0
  9
$DIMTFAC
 40
1.0
  9
$DIMGAP
 40
1.0
  9
$LUNITS
 70
     2
  9
$LUPREC
 70
     4
  9
$SKETCHINC
 40
0.1
  9
$FILLETRAD
 40
0.4
  9
$AUNITS
 70
     0
  9
$AUPREC
 70
     0
  9
$MENU
  1
E:\r13\win\SUPPORT\ACAD
  9
$ELEVATION
 40
0.0
  9
$PELEVATION
 40
0.0
  9
$THICKNESS
 40
0.0
  9
$LIMCHECK
 70
     0
  9
$BLIPMODE
 70
     0
  9
$CHAMFERA
 40
0.0
  9
$CHAMFERB
 40
0.0
  9
$SKPOLY
 70
     0
  9
$TDCREATE
 40
2456129.6740617128
  9
$TDUPDATE
 40
2456598.697404908
  9
$TDINDWG
 40
0.5126159838
  9
$TDUSRTIMER
 40
0.5126158102
  9
$USRTIMER
 70
     1
  9
$ANGBASE
 50
0.0
  9
$ANGDIR
 70
     0
  9
$PDMODE
 70
     0
  9
$PDSIZE
 40
0.0
  9
$PLINEWID
 40
0.0
  9
$COORDS
 70
     1
  9
$SPLFRAME
 70
     0
  9
$SPLINETYPE
 70
     6
  9
$SPLINESEGS
 70
     8
  9
$ATTDIA
 70
     0
  9
$ATTREQ
 70
     1
  9
$HANDLING
 70
     1
  9
$HANDSEED
  5
A5CE
  9
$SURFTAB1
 70
     6
  9
$SURFTAB2
 70
     6
  9
$SURFTYPE
 70
     6
  9
$SURFU
 70
     6
  9
$SURFV
 70
     6
  9
$UCSNAME
  2

  9
$UCSORG
 10
0.0
 20
0.0
 30
0.0
  9
$UCSXDIR
 10
1.0
 20
0.0
 30
0.0
  9
$UCSYDIR
 10
0.0
 20
1.0
 30
0.0
  9
$PUCSNAME
  2

  9
$PUCSORG
 10
0.0
 20
0.0
 30
0.0
  9
$PUCSXDIR
 10
1.0
 20
0.0
 30
0.0
  9
$PUCSYDIR
 10
0.0
 20
1.0
 30
0.0
  9
$USERI1
 70
     0
  9
$USERI2
 70
     1
  9
$USERI3
 70
     0
  9
$USERI4
 70
     0
  9
$USERI5
 70
     0
  9
$USERR1
 40
0.0
  9
$USERR2
 40
0.0
  9
$USERR3
 40
0.0
  9
$USERR4
 40
0.0
  9
$USERR5
 40
0.0
  9
$WORLDVIEW
 70
     1
  9
$SHADEDGE
 70
     3
  9
$SHADEDIF
 70
    70
  9
$TILEMODE
 70
     1
  9
$MAXACTVP
 70
    16
  9
$PLIMCHECK
 70
     0
  9
$PEXTMIN
 10
1.0000000000000000E+020
 20
1.0000000000000000E+020
 30
1.0000000000000000E+020
  9
$PEXTMAX
 10
-1.0000000000000000E+020
 20
-1.0000000000000000E+020
 30
-1.0000000000000000E+020
  9
$PLIMMIN
 10
0.0
 20
0.0
  9
$PLIMMAX
 10
12.0
 20
9.0
  9
$UNITMODE
 70
     0
  9
$VISRETAIN
 70
     0
  9
$PLINEGEN
 70
     0
  9
$PSLTSCALE
 70
     0
  0
ENDSEC
  0
SECTION
  2
TABLES
  0
TABLE
  2
VPORT
 70
     1
  0
VPORT
  2
*ACTIVE
 70
     0
 10
0.0
 20
0.0
 11
1.0
 21
1.0
 12
93.747139195326156
 22
88.615295173529063
 13
0.0
 23
0.0
 14
5.0
 24
5.0
 15
5.0
 25
5.0
 16
0.0
 26
0.0
 36
1.0
 17
0.0
 27
0.0
 37
0.0
 40
184.8229157216081
 41
1.831871345029239
 42
50.0
 43
0.0
 44
0.0
 50
0.0
 51
0.0
 71
     0
 72
   500
 73
     1
 74
     0
 75
     0
 76
     0
 77
     0
 78
     2
  0
ENDTAB
  0
TABLE
  2
LTYPE
 70
     4
  0
LTYPE
  2
CONTINUOUS
 70
     0
  3
Solid Line
 72
    65
 73
     0
 40
0.0
  0
LTYPE
  2
CENTER
 70
     0
  3
____ _ ____ _ ____ _ ____ _ ____ _ ____ _ ____
 72
    65
 73
     4
 40
2.0
 49
1.25
 49
-0.25
 49
0.25
 49
-0.25
  0
LTYPE
  2
HIDDEN
 70
     0
  3
__ __ __ __ __ __ __ __ __ __ __ __ __ __ __ __
 72
    65
 73
     2
 40
0.375
 49
0.25
 49
-0.125
  0
LTYPE
  2
PHANTOM2
 70
     0
  3
___ _ _ ___ _ _ ___ _ _ ___ _ _
 72
    65
 73
     6
 40
1.25
 49
0.625
 49
-0.125
 49
0.125
 49
-0.125
 49
0.125
 49
-0.125
  0
ENDTAB
  0
TABLE
  2
LAYER
 70
     4
  0
LAYER
  2
0
 70
     0
 62
     7
  6
CONTINUOUS
  0
LAYER
  2
1
 70
     0
 62
     1
  6
CENTER
  0
LAYER
  2
DEFPOINTS
 70
     0
 62
     7
  6
CONTINUOUS
  0
LAYER
  2
3
 70
     0
 62
     3
  6
CONTINUOUS
  0
ENDTAB
  0
TABLE
  2
STYLE
 70
     2
  0
STYLE
  2
STANDARD
 70
     0
 40
0.0
 41
1.0
 50
0.0
 71
     0
 42
0.2
  3
TXT
  4
BIGFONT
  0
STYLE
  2
STANDARD1
 70
     0
 40
0.0
 41
1.0
 50
0.0
 71
     0
 42
3.0
  3
txt
  4

  0
ENDTAB
  0
TABLE
  2
VIEW
 70
     0
  0
ENDTAB
  0
TABLE
  2
UCS
 70
     0
  0
ENDTAB
  0
TABLE
  2
APPID
 70
     7
  0
APPID
  2
ACAD
 70
     0
  0
APPID
  2
ACAD_MLEADERVER
 70
     0
  0
APPID
  2
ACAD_PSEXT
 70
     0
  0
APPID
  2
ACAD_EXEMPT_FROM_CAD_STANDARDS
 70
     0
  0
APPID
  2
ACAD_DSTYLE_DIMJAG
 70
     0
  0
APPID
  2
ACAD_DSTYLE_DIMTALN
 70
     0
  0
APPID
  2
ACAD_NAV_VCDISPLAY
 70
     0
  0
ENDTAB
  0
TABLE
  2
DIMSTYLE
 70
     1
  0
DIMSTYLE
  2
STANDARD
 70
     0
  3

  4

  5

  6

  7

 40
1.0
 41
0.18
 42
0.0625
 43
0.38
 44
0.18
 45
0.0
 46
0.0
 47
0.0
 48
0.0
140
0.18
141
0.09
142
0.0
143
25.399999999999999
144
1.0
145
0.0
146
1.0
147
0.09
 71
     0
 72
     0
 73
     1
 74
     1
 75
     0
 76
     0
 77
     0
 78
     0
170
     0
171
     2
172
     0
173
     0
174
     0
175
     0
176
     0
177
     0
178
     0
  0
ENDTAB
  0
ENDSEC
  0
SECTION
  2
BLOCKS
  0
BLOCK
  8
0
  2
$MODEL_SPACE
 70
     0
 10
0.0
 20
0.0
 30
0.0
  3
$MODEL_SPACE
  1

  0
ENDBLK
  5
9
  8
0
  0
BLOCK
 67
     1
  8
0
  2
$PAPER_SPACE
 70
     0
 10
0.0
 20
0.0
 30
0.0
  3
$PAPER_SPACE
  1

  0
ENDBLK
  5
E
 67
     1
  8
0
  0
ENDSEC
  0
SECTION
  2
ENTITIES
  0
LINE
  5
5082
  8
1
 10
120.9045525416692
 20
20.306670291240611
 30
0.0
 11
120.9045525416692
 21
98.810527226616486
 31
0.0
  0
LINE
  5
5085
  8
0
 10
102.1353913565638
 20
93.692217839614585
 30
0.0
 11
101.8045525416692
 21
93.692217839614585
 31
0.0
  0
ARC
  5
5086
  8
0
 10
101.8045525416692
 20
85.292217839614594
 30
0.0
 40
8.3999999999999915
 50
90.0
 51
249.56462489539101
  0
LINE
  5
5087
  8
0
 10
140.0045525416692
 20
93.692217839614585
 30
0.0
 11
139.67371372677451
 21
93.692217839614585
 31
0.0
  0
ARC
  5
5088
  8
0
 10
140.0045525416692
 20
85.292217839614594
 30
0.0
 40
8.3999999999999897
 50
290.43537510460868
 51
90.0
  0
ARC
  5
5089
  8
0
 10
128.39916154931859
 20
135.22270568344041
 30
0.0
 40
64.907051282049608
 50
242.9402537663409
 51
256.1889960244485
  0
ARC
  5
508A
  8
0
 10
113.40994353401931
 20
135.22270568344189
 30
0.0
 40
64.907051282051214
 50
283.81100397555139
 51
297.0597462336591
  0
LINE
  5
508B
  8
0
 10
112.9045525416692
 20
72.192217839614528
 30
0.0
 11
112.9045525416692
 21
65.692217839614585
 31
0.0
  0
LINE
  5
508C
  8
0
 10
128.9045525416692
 20
65.692217839614585
 30
0.0
 11
128.9045525416692
 21
72.192217839614528
 31
0.0
  0
LINE
  5
5091
  8
0
 10
114.2092448248633
 20
91.267230587631133
 30
0.0
 11
127.5998601974416
 21
91.267230587631133
 31
0.0
  0
LINE
  5
5093
  8
0
 10
128.9045525416692
 20
65.692217839614585
 30
0.0
 11
112.9045525416692
 21
65.692217839614585
 31
0.0
  0
POLYLINE
  5
5094
  8
0
 66
     1
 10
0.0
 20
0.0
 30
0.0
  0
VERTEX
  5
A1E8
  8
0
 10
111.32167351740669
 20
91.597472896884454
 30
0.0
  0
VERTEX
  5
A1E9
  8
0
 10
111.41152542597619
 20
91.581655995020824
 30
0.0
  0
VERTEX
  5
A1EA
  8
0
 10
111.5940141759483
 20
91.550411589850256
 30
0.0
  0
VERTEX
  5
A1EB
  8
0
 10
111.779172157367
 20
91.519913073815829
 30
0.0
  0
VERTEX
  5
A1EC
  8
0
 10
111.8723590088248
 20
91.505024126572508
 30
0.0
  0
VERTEX
  5
A1ED
  8
0
 10
111.9657448588426
 20
91.490415383328667
 30
0.0
  0
VERTEX
  5
A1EE
  8
0
 10
112.15251006770239
 20
91.462149112210355
 30
0.0
  0
VERTEX
  5
A1EF
  8
0
 10
112.33825754487739
 20
91.435324488817599
 30
0.0
  0
VERTEX
  5
A1F0
  8
0
 10
112.52178816599221
 20
91.410131502443875
 30
0.0
  0
VERTEX
  5
A1F1
  8
0
 10
112.70201022635899
 20
91.386727252789996
 30
0.0
  0
VERTEX
  5
A1F2
  8
0
 10
112.87793969834691
 20
91.365238620333884
 30
0.0
  0
VERTEX
  5
A1F3
  8
0
 10
112.9639596626524
 20
91.355251182078661
 30
0.0
  0
VERTEX
  5
A1F4
  8
0
 10
113.0485107844837
 20
91.345785649736698
 30
0.0
  0
VERTEX
  5
A1F5
  8
0
 10
113.2127240011187
 20
91.328460765324593
 30
0.0
  0
VERTEX
  5
A1F6
  8
0
 10
113.3696733295038
 20
91.313325779422399
 30
0.0
  0
VERTEX
  5
A1F7
  8
0
 10
113.5185215401346
 20
91.300414061609303
 30
0.0
  0
VERTEX
  5
A1F8
  8
0
 10
113.6585462722298
 20
91.289725534920734
 30
0.0
  0
VERTEX
  5
A1F9
  8
0
 10
113.79214179844119
 20
91.281049787040004
 30
0.0
  0
VERTEX
  5
A1FA
  8
0
 10
113.8569842798093
 20
91.277450930325443
 30
0.0
  0
VERTEX
  5
A1FB
  8
0
 10
113.920309415014
 20
91.274370274595896
 30
0.0
  0
VERTEX
  5
A1FC
  8
0
 10
114.0418156030894
 20
91.269826415183573
 30
0.0
  0
VERTEX
  5
A1FD
  8
0
 10
114.1555729690715
 20
91.267521141888295
 30
0.0
  0
VERTEX
  5
A1FE
  8
0
 10
114.2092448248633
 20
91.267230587631133
 30
0.0
  0
SEQEND
  5
A1FF
  8
0
  0
POLYLINE
  5
5098
  8
0
 66
     1
 10
0.0
 20
0.0
 30
0.0
  0
VERTEX
  5
A200
  8
0
 10
127.5998601974416
 20
91.267230587631133
 30
0.0
  0
VERTEX
  5
A201
  8
0
 10
127.6509328770792
 20
91.26749423560355
 30
0.0
  0
VERTEX
  5
A202
  8
0
 10
127.76093923080779
 20
91.269643982291043
 30
0.0
  0
VERTEX
  5
A203
  8
0
 10
127.88111040174169
 20
91.274027588393409
 30
0.0
  0
VERTEX
  5
A204
  8
0
 10
127.9448541658315
 20
91.27707488053133
 30
0.0
  0
VERTEX
  5
A205
  8
0
 10
128.01093969390959
 20
91.280697591283769
 30
0.0
  0
VERTEX
  5
A206
  8
0
 10
128.14980533911651
 20
91.289672218688324
 30
0.0
  0
VERTEX
  5
A207
  8
0
 10
128.29695920347871
 20
91.300935876708678
 30
0.0
  0
VERTEX
  5
A208
  8
0
 10
128.451528328622
 20
91.31443912977241
 30
0.0
  0
VERTEX
  5
A209
  8
0
 10
128.61261481444049
 20
91.330108238835095
 30
0.0
  0
VERTEX
  5
A20A
  8
0
 10
128.77928258599849
 20
91.347847018281996
 30
0.0
  0
VERTEX
  5
A20B
  8
0
 10
128.8643595518175
 20
91.357451340436157
 30
0.0
  0
VERTEX
  5
A20C
  8
0
 10
128.95040138252909
 20
91.367519817226153
 30
0.0
  0
VERTEX
  5
A20D
  8
0
 10
129.12477044045411
 20
91.388961931484374
 30
0.0
  0
VERTEX
  5
A20E
  8
0
 10
129.30113867937399
 20
91.411982000395383
 30
0.0
  0
VERTEX
  5
A20F
  8
0
 10
129.47817531290571
 20
91.436357815231673
 30
0.0
  0
VERTEX
  5
A210
  8
0
 10
129.65472274550339
 20
91.46187225057426
 30
0.0
  0
VERTEX
  5
A211
  8
0
 10
129.8344207579957
 20
91.489033431004742
 30
0.0
  0
VERTEX
  5
A212
  8
0
 10
129.92584805392681
 20
91.503303154070096
 30
0.0
  0
VERTEX
  5
A213
  8
0
 10
130.0181357014707
 20
91.518011061312023
 30
0.0
  0
VERTEX
  5
A214
  8
0
 10
130.2047116891479
 20
91.54866988812168
 30
0.0
  0
VERTEX
  5
A215
  8
0
 10
130.39300157891131
 20
91.580857770424785
 30
0.0
  0
VERTEX
  5
A216
  8
0
 10
130.48743156593159
 20
91.597472896884454
 30
0.0
  0
SEQEND
  5
A217
  8
0
  0
POLYLINE
  5
509B
  8
0
 10
130.48743156593153
 20
91.59747289688444
 30
0.0
 66
     1
 70
     8
  0
VERTEX
  8
0
  5
A3C6
 10
130.487
 20
91.5975
 30
0.000000
  70
    32
  0
VERTEX
  8
0
  5
A3C7
 10
130.531
 20
91.6053
 30
0.000000
  70
    32
  0
VERTEX
  8
0
  5
A3C8
 10
130.575
 20
91.6132
 30
0.000000
  70
    32
  0
VERTEX
  8
0
  5
A3C9
 10
130.619
 20
91.6211
 30
0.000000
  70
    32
  0
VERTEX
  8
0
  5
A3CA
 10
130.663
 20
91.6290
 30
0.000000
  70
    32
  0
VERTEX
  8
0
  5
A3CB
 10
130.707
 20
91.6370
 30
0.000000
  70
    32
  0
VERTEX
  8
0
  5
A3CC
 10
130.751
 20
91.6450
 30
0.000000
  70
    32
  0
VERTEX
  8
0
  5
A3CD
 10
130.795
 20
91.6530
 30
0.000000
  70
    32
  0
VERTEX
  8
0
  5
A3CE
 10
130.839
 20
91.6611
 30
0.000000
  70
    32
  0
VERTEX
  8
0
  5
A3CF
 10
130.883
 20
91.6692
 30
0.000000
  70
    32
  0
VERTEX
  8
0
  5
A3D0
 10
130.927
 20
91.6773
 30
0.000000
  70
    32
  0
VERTEX
  8
0
  5
A3D1
 10
130.971
 20
91.6855
 30
0.000000
  70
    32
  0
VERTEX
  8
0
  5
A3D2
 10
131.015
 20
91.6937
 30
0.000000
  70
    32
  0
VERTEX
  8
0
  5
A3D3
 10
131.058
 20
91.7020
 30
0.000000
  70
    32
  0
VERTEX
  8
0
  5
A3D4
 10
131.102
 20
91.7102
 30
0.000000
  70
    32
  0
VERTEX
  8
0
  5
A3D5
 10
131.146
 20
91.7186
 30
0.000000
  70
    32
  0
VERTEX
  8
0
  5
A3D6
 10
131.190
 20
91.7269
 30
0.000000
  70
    32
  0
VERTEX
  8
0
  5
A3D7
 10
131.234
 20
91.7353
 30
0.000000
  70
    32
  0
VERTEX
  8
0
  5
A3D8
 10
131.278
 20
91.7437
 30
0.000000
  70
    32
  0
VERTEX
  8
0
  5
A3D9
 10
131.322
 20
91.7522
 30
0.000000
  70
    32
  0
VERTEX
  8
0
  5
A3DA
 10
131.365
 20
91.7607
 30
0.000000
  70
    32
  0
VERTEX
  8
0
  5
A3DB
 10
131.409
 20
91.7692
 30
0.000000
  70
    32
  0
VERTEX
  8
0
  5
A3DC
 10
131.453
 20
91.7778
 30
0.000000
  70
    32
  0
VERTEX
  8
0
  5
A3DD
 10
131.497
 20
91.7864
 30
0.000000
  70
    32
  0
VERTEX
  8
0
  5
A3DE
 10
131.541
 20
91.7950
 30
0.000000
  70
    32
  0
VERTEX
  8
0
  5
A3DF
 10
131.584
 20
91.8037
 30
0.000000
  70
    32
  0
VERTEX
  8
0
  5
A3E0
 10
131.628
 20
91.8124
 30
0.000000
  70
    32
  0
VERTEX
  8
0
  5
A3E1
 10
131.672
 20
91.8211
 30
0.000000
  70
    32
  0
VERTEX
  8
0
  5
A3E2
 10
131.716
 20
91.8299
 30
0.000000
  70
    32
  0
VERTEX
  8
0
  5
A3E3
 10
131.760
 20
91.8387
 30
0.000000
  70
    32
  0
VERTEX
  8
0
  5
A3E4
 10
131.803
 20
91.8476
 30
0.000000
  70
    32
  0
VERTEX
  8
0
  5
A3E5
 10
131.847
 20
91.8565
 30
0.000000
  70
    32
  0
VERTEX
  8
0
  5
A3E6
 10
131.891
 20
91.8654
 30
0.000000
  70
    32
  0
VERTEX
  8
0
  5
A3E7
 10
131.935
 20
91.8743
 30
0.000000
  70
    32
  0
VERTEX
  8
0
  5
A3E8
 10
131.978
 20
91.8833
 30
0.000000
  70
    32
  0
VERTEX
  8
0
  5
A3E9
 10
132.022
 20
91.8923
 30
0.000000
  70
    32
  0
VERTEX
  8
0
  5
A3EA
 10
132.066
 20
91.9014
 30
0.000000
  70
    32
  0
VERTEX
  8
0
  5
A3EB
 10
132.109
 20
91.9105
 30
0.000000
  70
    32
  0
VERTEX
  8
0
  5
A3EC
 10
132.153
 20
91.9196
 30
0.000000
  70
    32
  0
VERTEX
  8
0
  5
A3ED
 10
132.197
 20
91.9288
 30
0.000000
  70
    32
  0
VERTEX
  8
0
  5
A3EE
 10
132.241
 20
91.9380
 30
0.000000
  70
    32
  0
VERTEX
  8
0
  5
A3EF
 10
132.284
 20
91.9472
 30
0.000000
  70
    32
  0
VERTEX
  8
0
  5
A3F0
 10
132.328
 20
91.9565
 30
0.000000
  70
    32
  0
VERTEX
  8
0
  5
A3F1
 10
132.372
 20
91.9658
 30
0.000000
  70
    32
  0
VERTEX
  8
0
  5
A3F2
 10
132.415
 20
91.9751
 30
0.000000
  70
    32
  0
VERTEX
  8
0
  5
A3F3
 10
132.459
 20
91.9845
 30
0.000000
  70
    32
  0
VERTEX
  8
0
  5
A3F4
 10
132.503
 20
91.9939
 30
0.000000
  70
    32
  0
VERTEX
  8
0
  5
A3F5
 10
132.546
 20
92.0033
 30
0.000000
  70
    32
  0
VERTEX
  8
0
  5
A3F6
 10
132.590
 20
92.0128
 30
0.000000
  70
    32
  0
VERTEX
  8
0
  5
A3F7
 10
132.633
 20
92.0223
 30
0.000000
  70
    32
  0
VERTEX
  8
0
  5
A3F8
 10
132.677
 20
92.0319
 30
0.000000
  70
    32
  0
VERTEX
  8
0
  5
A3F9
 10
132.721
 20
92.0415
 30
0.000000
  70
    32
  0
VERTEX
  8
0
  5
A3FA
 10
132.764
 20
92.0511
 30
0.000000
  70
    32
  0
VERTEX
  8
0
  5
A3FB
 10
132.808
 20
92.0607
 30
0.000000
  70
    32
  0
VERTEX
  8
0
  5
A3FC
 10
132.851
 20
92.0704
 30
0.000000
  70
    32
  0
VERTEX
  8
0
  5
A3FD
 10
132.895
 20
92.0801
 30
0.000000
  70
    32
  0
VERTEX
  8
0
  5
A3FE
 10
132.939
 20
92.0899
 30
0.000000
  70
    32
  0
VERTEX
  8
0
  5
A3FF
 10
132.982
 20
92.0997
 30
0.000000
  70
    32
  0
VERTEX
  8
0
  5
A400
 10
133.026
 20
92.1095
 30
0.000000
  70
    32
  0
VERTEX
  8
0
  5
A401
 10
133.069
 20
92.1194
 30
0.000000
  70
    32
  0
VERTEX
  8
0
  5
A402
 10
133.113
 20
92.1293
 30
0.000000
  70
    32
  0
VERTEX
  8
0
  5
A403
 10
133.156
 20
92.1392
 30
0.000000
  70
    32
  0
VERTEX
  8
0
  5
A404
 10
133.200
 20
92.1492
 30
0.000000
  70
    32
  0
VERTEX
  8
0
  5
A405
 10
133.243
 20
92.1592
 30
0.000000
  70
    32
  0
VERTEX
  8
0
  5
A406
 10
133.287
 20
92.1692
 30
0.000000
  70
    32
  0
VERTEX
  8
0
  5
A407
 10
133.330
 20
92.1793
 30
0.000000
  70
    32
  0
VERTEX
  8
0
  5
A408
 10
133.374
 20
92.1894
 30
0.000000
  70
    32
  0
VERTEX
  8
0
  5
A409
 10
133.417
 20
92.1995
 30
0.000000
  70
    32
  0
VERTEX
  8
0
  5
A40A
 10
133.461
 20
92.2097
 30
0.000000
  70
    32
  0
VERTEX
  8
0
  5
A40B
 10
133.504
 20
92.2199
 30
0.000000
  70
    32
  0
VERTEX
  8
0
  5
A40C
 10
133.548
 20
92.2302
 30
0.000000
  70
    32
  0
VERTEX
  8
0
  5
A40D
 10
133.591
 20
92.2405
 30
0.000000
  70
    32
  0
VERTEX
  8
0
  5
A40E
 10
133.635
 20
92.2508
 30
0.000000
  70
    32
  0
VERTEX
  8
0
  5
A40F
 10
133.678
 20
92.2611
 30
0.000000
  70
    32
  0
VERTEX
  8
0
  5
A410
 10
133.722
 20
92.2715
 30
0.000000
  70
    32
  0
VERTEX
  8
0
  5
A411
 10
133.765
 20
92.2819
 30
0.000000
  70
    32
  0
VERTEX
  8
0
  5
A412
 10
133.808
 20
92.2924
 30
0.000000
  70
    32
  0
VERTEX
  8
0
  5
A413
 10
133.852
 20
92.3029
 30
0.000000
  70
    32
  0
VERTEX
  8
0
  5
A414
 10
133.895
 20
92.3134
 30
0.000000
  70
    32
  0
VERTEX
  8
0
  5
A415
 10
133.939
 20
92.3240
 30
0.000000
  70
    32
  0
VERTEX
  8
0
  5
A416
 10
133.982
 20
92.3346
 30
0.000000
  70
    32
  0
VERTEX
  8
0
  5
A417
 10
134.025
 20
92.3452
 30
0.000000
  70
    32
  0
VERTEX
  8
0
  5
A418
 10
134.069
 20
92.3559
 30
0.000000
  70
    32
  0
VERTEX
  8
0
  5
A419
 10
134.112
 20
92.3666
 30
0.000000
  70
    32
  0
VERTEX
  8
0
  5
A41A
 10
134.155
 20
92.3773
 30
0.000000
  70
    32
  0
VERTEX
  8
0
  5
A41B
 10
134.199
 20
92.3881
 30
0.000000
  70
    32
  0
VERTEX
  8
0
  5
A41C
 10
134.242
 20
92.3989
 30
0.000000
  70
    32
  0
VERTEX
  8
0
  5
A41D
 10
134.285
 20
92.4097
 30
0.000000
  70
    32
  0
VERTEX
  8
0
  5
A41E
 10
134.329
 20
92.4206
 30
0.000000
  70
    32
  0
VERTEX
  8
0
  5
A41F
 10
134.372
 20
92.4315
 30
0.000000
  70
    32
  0
VERTEX
  8
0
  5
A420
 10
134.415
 20
92.4424
 30
0.000000
  70
    32
  0
VERTEX
  8
0
  5
A421
 10
134.459
 20
92.4534
 30
0.000000
  70
    32
  0
VERTEX
  8
0
  5
A422
 10
134.502
 20
92.4644
 30
0.000000
  70
    32
  0
VERTEX
  8
0
  5
A423
 10
134.545
 20
92.4755
 30
0.000000
  70
    32
  0
VERTEX
  8
0
  5
A424
 10
134.588
 20
92.4865
 30
0.000000
  70
    32
  0
VERTEX
  8
0
  5
A425
 10
134.632
 20
92.4977
 30
0.000000
  70
    32
  0
VERTEX
  8
0
  5
A426
 10
134.675
 20
92.5088
 30
0.000000
  70
    32
  0
VERTEX
  8
0
  5
A427
 10
134.718
 20
92.5200
 30
0.000000
  70
    32
  0
VERTEX
  8
0
  5
A428
 10
134.761
 20
92.5312
 30
0.000000
  70
    32
  0
VERTEX
  8
0
  5
A429
 10
134.804
 20
92.5425
 30
0.000000
  70
    32
  0
VERTEX
  8
0
  5
A42A
 10
134.848
 20
92.5538
 30
0.000000
  70
    32
  0
VERTEX
  8
0
  5
A42B
 10
134.891
 20
92.5651
 30
0.000000
  70
    32
  0
VERTEX
  8
0
  5
A42C
 10
134.934
 20
92.5764
 30
0.000000
  70
    32
  0
VERTEX
  8
0
  5
A42D
 10
134.977
 20
92.5878
 30
0.000000
  70
    32
  0
VERTEX
  8
0
  5
A42E
 10
135.020
 20
92.5993
 30
0.000000
  70
    32
  0
VERTEX
  8
0
  5
A42F
 10
135.064
 20
92.6107
 30
0.000000
  70
    32
  0
VERTEX
  8
0
  5
A430
 10
135.107
 20
92.6222
 30
0.000000
  70
    32
  0
VERTEX
  8
0
  5
A431
 10
135.150
 20
92.6337
 30
0.000000
  70
    32
  0
VERTEX
  8
0
  5
A432
 10
135.193
 20
92.6453
 30
0.000000
  70
    32
  0
VERTEX
  8
0
  5
A433
 10
135.236
 20
92.6569
 30
0.000000
  70
    32
  0
VERTEX
  8
0
  5
A434
 10
135.279
 20
92.6686
 30
0.000000
  70
    32
  0
VERTEX
  8
0
  5
A435
 10
135.322
 20
92.6802
 30
0.000000
  70
    32
  0
VERTEX
  8
0
  5
A436
 10
135.365
 20
92.6919
 30
0.000000
  70
    32
  0
VERTEX
  8
0
  5
A437
 10
135.408
 20
92.7037
 30
0.000000
  70
    32
  0
VERTEX
  8
0
  5
A438
 10
135.451
 20
92.7154
 30
0.000000
  70
    32
  0
VERTEX
  8
0
  5
A439
 10
135.495
 20
92.7272
 30
0.000000
  70
    32
  0
VERTEX
  8
0
  5
A43A
 10
135.538
 20
92.7391
 30
0.000000
  70
    32
  0
VERTEX
  8
0
  5
A43B
 10
135.581
 20
92.7510
 30
0.000000
  70
    32
  0
VERTEX
  8
0
  5
A43C
 10
135.624
 20
92.7629
 30
0.000000
  70
    32
  0
VERTEX
  8
0
  5
A43D
 10
135.667
 20
92.7748
 30
0.000000
  70
    32
  0
VERTEX
  8
0
  5
A43E
 10
135.710
 20
92.7868
 30
0.000000
  70
    32
  0
VERTEX
  8
0
  5
A43F
 10
135.753
 20
92.7988
 30
0.000000
  70
    32
  0
VERTEX
  8
0
  5
A440
 10
135.796
 20
92.8109
 30
0.000000
  70
    32
  0
VERTEX
  8
0
  5
A441
 10
135.839
 20
92.8230
 30
0.000000
  70
    32
  0
VERTEX
  8
0
  5
A442
 10
135.882
 20
92.8351
 30
0.000000
  70
    32
  0
VERTEX
  8
0
  5
A443
 10
135.925
 20
92.8472
 30
0.000000
  70
    32
  0
VERTEX
  8
0
  5
A444
 10
135.968
 20
92.8594
 30
0.000000
  70
    32
  0
VERTEX
  8
0
  5
A445
 10
136.011
 20
92.8716
 30
0.000000
  70
    32
  0
VERTEX
  8
0
  5
A446
 10
136.054
 20
92.8839
 30
0.000000
  70
    32
  0
SEQEND
  8
0
  5
A447
  0
POLYLINE
  5
509C
  8
0
 66
     1
 10
0.0
 20
0.0
 30
0.0
  0
VERTEX
  5
A218
  8
0
 10
136.05350379140731
 20
92.883895872313104
 30
0.0
  0
VERTEX
  5
A219
  8
0
 10
136.146050215461
 20
92.926659906097854
 30
0.0
  0
VERTEX
  5
A21A
  8
0
 10
136.33005694923139
 20
93.007759011227193
 30
0.0
  0
VERTEX
  5
A21B
  8
0
 10
136.51288744920879
 20
93.083294035845356
 30
0.0
  0
VERTEX
  5
A21C
  8
0
 10
136.6058657790235
 20
93.119824085296344
 30
0.0
  0
VERTEX
  5
A21D
  8
0
 10
136.70019683910311
 20
93.155611592291137
 30
0.0
  0
VERTEX
  5
A21E
  8
0
 10
136.89263027632151
 20
93.22470805943837
 30
0.0
  0
VERTEX
  5
A21F
  8
0
 10
137.08960153356321
 20
93.290113632539814
 30
0.0
  0
VERTEX
  5
A220
  8
0
 10
137.29050847567899
 20
93.351412100048293
 30
0.0
  0
VERTEX
  5
A221
  8
0
 10
137.49473562632579
 20
93.408242472375861
 30
0.0
  0
VERTEX
  5
A222
  8
0
 10
137.70164782220601
 20
93.460297929678873
 30
0.0
  0
VERTEX
  5
A223
  8
0
 10
137.80590728097241
 20
93.484454373117075
 30
0.0
  0
VERTEX
  5
A224
  8
0
 10
137.91059212928261
 20
93.507327443082914
 30
0.0
  0
VERTEX
  5
A225
  8
0
 10
138.12090983514861
 20
93.549138904249475
 30
0.0
  0
VERTEX
  5
A226
  8
0
 10
138.33196272310909
 20
93.585602639371444
 30
0.0
  0
VERTEX
  5
A227
  8
0
 10
138.54307076297681
 20
93.616639020412336
 30
0.0
  0
VERTEX
  5
A228
  8
0
 10
138.75353576869031
 20
93.642225054052133
 30
0.0
  0
VERTEX
  5
A229
  8
0
 10
138.96265451684999
 20
93.662396393214152
 30
0.0
  0
VERTEX
  5
A22A
  8
0
 10
139.06648890502029
 20
93.670478610699107
 30
0.0
  0
VERTEX
  5
A22B
  8
0
 10
139.1697215417887
 20
93.677246725738172
 30
0.0
  0
VERTEX
  5
A22C
  8
0
 10
139.37402277378271
 20
93.686926391209497
 30
0.0
  0
VERTEX
  5
A22D
  8
0
 10
139.57483819186609
 20
93.691641933702854
 30
0.0
  0
VERTEX
  5
A22E
  8
0
 10
139.67371372677451
 20
93.692217839614585
 30
0.0
  0
SEQEND
  5
A22F
  8
0
  0
POLYLINE
  5
50A3
  8
0
 66
     1
 10
0.0
 20
0.0
 30
0.0
  0
VERTEX
  5
A230
  8
0
 10
105.7556012919311
 20
92.883895872313104
 30
0.0
  0
VERTEX
  5
A231
  8
0
 10
105.66305486787741
 20
92.926659906097854
 30
0.0
  0
VERTEX
  5
A232
  8
0
 10
105.479048134107
 20
93.007759011227193
 30
0.0
  0
VERTEX
  5
A233
  8
0
 10
105.2962176341295
 20
93.083294035845356
 30
0.0
  0
VERTEX
  5
A234
  8
0
 10
105.20323930431481
 20
93.119824085296344
 30
0.0
  0
VERTEX
  5
A235
  8
0
 10
105.10890824423529
 20
93.155611592291137
 30
0.0
  0
VERTEX
  5
A236
  8
0
 10
104.9164748070169
 20
93.22470805943837
 30
0.0
  0
VERTEX
  5
A237
  8
0
 10
104.7195035497751
 20
93.290113632539814
 30
0.0
  0
VERTEX
  5
A238
  8
0
 10
104.5185966076594
 20
93.351412100048293
 30
0.0
  0
VERTEX
  5
A239
  8
0
 10
104.3143694570126
 20
93.408242472375861
 30
0.0
  0
VERTEX
  5
A23A
  8
0
 10
104.1074572611325
 20
93.460297929678873
 30
0.0
  0
VERTEX
  5
A23B
  8
0
 10
104.0031978023659
 20
93.484454373117075
 30
0.0
  0
VERTEX
  5
A23C
  8
0
 10
103.8985129540557
 20
93.507327443082914
 30
0.0
  0
VERTEX
  5
A23D
  8
0
 10
103.6881952481898
 20
93.549138904249475
 30
0.0
  0
VERTEX
  5
A23E
  8
0
 10
103.47714236022919
 20
93.585602639371444
 30
0.0
  0
VERTEX
  5
A23F
  8
0
 10
103.2660343203616
 20
93.616639020412336
 30
0.0
  0
VERTEX
  5
A240
  8
0
 10
103.0555693146481
 20
93.642225054052133
 30
0.0
  0
VERTEX
  5
A241
  8
0
 10
102.8464505664884
 20
93.662396393214152
 30
0.0
  0
VERTEX
  5
A242
  8
0
 10
102.7426161783181
 20
93.670478610699107
 30
0.0
  0
VERTEX
  5
A243
  8
0
 10
102.63938354154961
 20
93.677246725738172
 30
0.0
  0
VERTEX
  5
A244
  8
0
 10
102.4350823095557
 20
93.686926391209497
 30
0.0
  0
VERTEX
  5
A245
  8
0
 10
102.2342668914723
 20
93.691641933702854
 30
0.0
  0
VERTEX
  5
A246
  8
0
 10
102.1353913565638
 20
93.692217839614585
 30
0.0
  0
SEQEND
  5
A247
  8
0
  0
POLYLINE
  5
50A6
  8
0
 10
105.75560129167275
 20
92.883895871405741
 30
0.0
 66
     1
 70
     8
  0
VERTEX
  8
0
  5
A448
 10
105.756
 20
92.8839
 30
0.000000
  70
    32
  0
VERTEX
  8
0
  5
A449
 10
105.799
 20
92.8716
 30
0.000000
  70
    32
  0
VERTEX
  8
0
  5
A44A
 10
105.841
 20
92.8594
 30
0.000000
  70
    32
  0
VERTEX
  8
0
  5
A44B
 10
105.884
 20
92.8472
 30
0.000000
  70
    32
  0
VERTEX
  8
0
  5
A44C
 10
105.927
 20
92.8351
 30
0.000000
  70
    32
  0
VERTEX
  8
0
  5
A44D
 10
105.970
 20
92.8230
 30
0.000000
  70
    32
  0
VERTEX
  8
0
  5
A44E
 10
106.013
 20
92.8109
 30
0.000000
  70
    32
  0
VERTEX
  8
0
  5
A44F
 10
106.056
 20
92.7988
 30
0.000000
  70
    32
  0
VERTEX
  8
0
  5
A450
 10
106.099
 20
92.7868
 30
0.000000
  70
    32
  0
VERTEX
  8
0
  5
A451
 10
106.142
 20
92.7748
 30
0.000000
  70
    32
  0
VERTEX
  8
0
  5
A452
 10
106.185
 20
92.7629
 30
0.000000
  70
    32
  0
VERTEX
  8
0
  5
A453
 10
106.228
 20
92.7510
 30
0.000000
  70
    32
  0
VERTEX
  8
0
  5
A454
 10
106.271
 20
92.7391
 30
0.000000
  70
    32
  0
VERTEX
  8
0
  5
A455
 10
106.315
 20
92.7272
 30
0.000000
  70
    32
  0
VERTEX
  8
0
  5
A456
 10
106.358
 20
92.7154
 30
0.000000
  70
    32
  0
VERTEX
  8
0
  5
A457
 10
106.401
 20
92.7037
 30
0.000000
  70
    32
  0
VERTEX
  8
0
  5
A458
 10
106.444
 20
92.6919
 30
0.000000
  70
    32
  0
VERTEX
  8
0
  5
A459
 10
106.487
 20
92.6802
 30
0.000000
  70
    32
  0
VERTEX
  8
0
  5
A45A
 10
106.530
 20
92.6686
 30
0.000000
  70
    32
  0
VERTEX
  8
0
  5
A45B
 10
106.573
 20
92.6569
 30
0.000000
  70
    32
  0
VERTEX
  8
0
  5
A45C
 10
106.616
 20
92.6453
 30
0.000000
  70
    32
  0
VERTEX
  8
0
  5
A45D
 10
106.659
 20
92.6337
 30
0.000000
  70
    32
  0
VERTEX
  8
0
  5
A45E
 10
106.702
 20
92.6222
 30
0.000000
  70
    32
  0
VERTEX
  8
0
  5
A45F
 10
106.746
 20
92.6107
 30
0.000000
  70
    32
  0
VERTEX
  8
0
  5
A460
 10
106.789
 20
92.5993
 30
0.000000
  70
    32
  0
VERTEX
  8
0
  5
A461
 10
106.832
 20
92.5878
 30
0.000000
  70
    32
  0
VERTEX
  8
0
  5
A462
 10
106.875
 20
92.5764
 30
0.000000
  70
    32
  0
VERTEX
  8
0
  5
A463
 10
106.918
 20
92.5651
 30
0.000000
  70
    32
  0
VERTEX
  8
0
  5
A464
 10
106.961
 20
92.5538
 30
0.000000
  70
    32
  0
VERTEX
  8
0
  5
A465
 10
107.005
 20
92.5425
 30
0.000000
  70
    32
  0
VERTEX
  8
0
  5
A466
 10
107.048
 20
92.5312
 30
0.000000
  70
    32
  0
VERTEX
  8
0
  5
A467
 10
107.091
 20
92.5200
 30
0.000000
  70
    32
  0
VERTEX
  8
0
  5
A468
 10
107.134
 20
92.5088
 30
0.000000
  70
    32
  0
VERTEX
  8
0
  5
A469
 10
107.178
 20
92.4977
 30
0.000000
  70
    32
  0
VERTEX
  8
0
  5
A46A
 10
107.221
 20
92.4865
 30
0.000000
  70
    32
  0
VERTEX
  8
0
  5
A46B
 10
107.264
 20
92.4755
 30
0.000000
  70
    32
  0
VERTEX
  8
0
  5
A46C
 10
107.307
 20
92.4644
 30
0.000000
  70
    32
  0
VERTEX
  8
0
  5
A46D
 10
107.351
 20
92.4534
 30
0.000000
  70
    32
  0
VERTEX
  8
0
  5
A46E
 10
107.394
 20
92.4424
 30
0.000000
  70
    32
  0
VERTEX
  8
0
  5
A46F
 10
107.437
 20
92.4315
 30
0.000000
  70
    32
  0
VERTEX
  8
0
  5
A470
 10
107.480
 20
92.4206
 30
0.000000
  70
    32
  0
VERTEX
  8
0
  5
A471
 10
107.524
 20
92.4097
 30
0.000000
  70
    32
  0
VERTEX
  8
0
  5
A472
 10
107.567
 20
92.3989
 30
0.000000
  70
    32
  0
VERTEX
  8
0
  5
A473
 10
107.610
 20
92.3881
 30
0.000000
  70
    32
  0
VERTEX
  8
0
  5
A474
 10
107.654
 20
92.3773
 30
0.000000
  70
    32
  0
VERTEX
  8
0
  5
A475
 10
107.697
 20
92.3666
 30
0.000000
  70
    32
  0
VERTEX
  8
0
  5
A476
 10
107.740
 20
92.3559
 30
0.000000
  70
    32
  0
VERTEX
  8
0
  5
A477
 10
107.784
 20
92.3452
 30
0.000000
  70
    32
  0
VERTEX
  8
0
  5
A478
 10
107.827
 20
92.3346
 30
0.000000
  70
    32
  0
VERTEX
  8
0
  5
A479
 10
107.871
 20
92.3240
 30
0.000000
  70
    32
  0
VERTEX
  8
0
  5
A47A
 10
107.914
 20
92.3134
 30
0.000000
  70
    32
  0
VERTEX
  8
0
  5
A47B
 10
107.957
 20
92.3029
 30
0.000000
  70
    32
  0
VERTEX
  8
0
  5
A47C
 10
108.001
 20
92.2924
 30
0.000000
  70
    32
  0
VERTEX
  8
0
  5
A47D
 10
108.044
 20
92.2819
 30
0.000000
  70
    32
  0
VERTEX
  8
0
  5
A47E
 10
108.088
 20
92.2715
 30
0.000000
  70
    32
  0
VERTEX
  8
0
  5
A47F
 10
108.131
 20
92.2611
 30
0.000000
  70
    32
  0
VERTEX
  8
0
  5
A480
 10
108.174
 20
92.2508
 30
0.000000
  70
    32
  0
VERTEX
  8
0
  5
A481
 10
108.218
 20
92.2405
 30
0.000000
  70
    32
  0
VERTEX
  8
0
  5
A482
 10
108.261
 20
92.2302
 30
0.000000
  70
    32
  0
VERTEX
  8
0
  5
A483
 10
108.305
 20
92.2199
 30
0.000000
  70
    32
  0
VERTEX
  8
0
  5
A484
 10
108.348
 20
92.2097
 30
0.000000
  70
    32
  0
VERTEX
  8
0
  5
A485
 10
108.392
 20
92.1995
 30
0.000000
  70
    32
  0
VERTEX
  8
0
  5
A486
 10
108.435
 20
92.1894
 30
0.000000
  70
    32
  0
VERTEX
  8
0
  5
A487
 10
108.479
 20
92.1793
 30
0.000000
  70
    32
  0
VERTEX
  8
0
  5
A488
 10
108.522
 20
92.1692
 30
0.000000
  70
    32
  0
VERTEX
  8
0
  5
A489
 10
108.566
 20
92.1592
 30
0.000000
  70
    32
  0
VERTEX
  8
0
  5
A48A
 10
108.609
 20
92.1492
 30
0.000000
  70
    32
  0
VERTEX
  8
0
  5
A48B
 10
108.653
 20
92.1392
 30
0.000000
  70
    32
  0
VERTEX
  8
0
  5
A48C
 10
108.696
 20
92.1293
 30
0.000000
  70
    32
  0
VERTEX
  8
0
  5
A48D
 10
108.740
 20
92.1194
 30
0.000000
  70
    32
  0
VERTEX
  8
0
  5
A48E
 10
108.783
 20
92.1095
 30
0.000000
  70
    32
  0
VERTEX
  8
0
  5
A48F
 10
108.827
 20
92.0997
 30
0.000000
  70
    32
  0
VERTEX
  8
0
  5
A490
 10
108.870
 20
92.0899
 30
0.000000
  70
    32
  0
VERTEX
  8
0
  5
A491
 10
108.914
 20
92.0801
 30
0.000000
  70
    32
  0
VERTEX
  8
0
  5
A492
 10
108.958
 20
92.0704
 30
0.000000
  70
    32
  0
VERTEX
  8
0
  5
A493
 10
109.001
 20
92.0607
 30
0.000000
  70
    32
  0
VERTEX
  8
0
  5
A494
 10
109.045
 20
92.0511
 30
0.000000
  70
    32
  0
VERTEX
  8
0
  5
A495
 10
109.088
 20
92.0415
 30
0.000000
  70
    32
  0
VERTEX
  8
0
  5
A496
 10
109.132
 20
92.0319
 30
0.000000
  70
    32
  0
VERTEX
  8
0
  5
A497
 10
109.176
 20
92.0223
 30
0.000000
  70
    32
  0
VERTEX
  8
0
  5
A498
 10
109.219
 20
92.0128
 30
0.000000
  70
    32
  0
VERTEX
  8
0
  5
A499
 10
109.263
 20
92.0033
 30
0.000000
  70
    32
  0
VERTEX
  8
0
  5
A49A
 10
109.307
 20
91.9939
 30
0.000000
  70
    32
  0
VERTEX
  8
0
  5
A49B
 10
109.350
 20
91.9845
 30
0.000000
  70
    32
  0
VERTEX
  8
0
  5
A49C
 10
109.394
 20
91.9751
 30
0.000000
  70
    32
  0
VERTEX
  8
0
  5
A49D
 10
109.438
 20
91.9658
 30
0.000000
  70
    32
  0
VERTEX
  8
0
  5
A49E
 10
109.481
 20
91.9565
 30
0.000000
  70
    32
  0
VERTEX
  8
0
  5
A49F
 10
109.525
 20
91.9472
 30
0.000000
  70
    32
  0
VERTEX
  8
0
  5
A4A0
 10
109.569
 20
91.9380
 30
0.000000
  70
    32
  0
VERTEX
  8
0
  5
A4A1
 10
109.612
 20
91.9288
 30
0.000000
  70
    32
  0
VERTEX
  8
0
  5
A4A2
 10
109.656
 20
91.9196
 30
0.000000
  70
    32
  0
VERTEX
  8
0
  5
A4A3
 10
109.700
 20
91.9105
 30
0.000000
  70
    32
  0
VERTEX
  8
0
  5
A4A4
 10
109.743
 20
91.9014
 30
0.000000
  70
    32
  0
VERTEX
  8
0
  5
A4A5
 10
109.787
 20
91.8923
 30
0.000000
  70
    32
  0
VERTEX
  8
0
  5
A4A6
 10
109.831
 20
91.8833
 30
0.000000
  70
    32
  0
VERTEX
  8
0
  5
A4A7
 10
109.875
 20
91.8743
 30
0.000000
  70
    32
  0
VERTEX
  8
0
  5
A4A8
 10
109.918
 20
91.8654
 30
0.000000
  70
    32
  0
VERTEX
  8
0
  5
A4A9
 10
109.962
 20
91.8565
 30
0.000000
  70
    32
  0
VERTEX
  8
0
  5
A4AA
 10
110.006
 20
91.8476
 30
0.000000
  70
    32
  0
VERTEX
  8
0
  5
A4AB
 10
110.050
 20
91.8387
 30
0.000000
  70
    32
  0
VERTEX
  8
0
  5
A4AC
 10
110.093
 20
91.8299
 30
0.000000
  70
    32
  0
VERTEX
  8
0
  5
A4AD
 10
110.137
 20
91.8211
 30
0.000000
  70
    32
  0
VERTEX
  8
0
  5
A4AE
 10
110.181
 20
91.8124
 30
0.000000
  70
    32
  0
VERTEX
  8
0
  5
A4AF
 10
110.225
 20
91.8037
 30
0.000000
  70
    32
  0
VERTEX
  8
0
  5
A4B0
 10
110.268
 20
91.7950
 30
0.000000
  70
    32
  0
VERTEX
  8
0
  5
A4B1
 10
110.312
 20
91.7864
 30
0.000000
  70
    32
  0
VERTEX
  8
0
  5
A4B2
 10
110.356
 20
91.7778
 30
0.000000
  70
    32
  0
VERTEX
  8
0
  5
A4B3
 10
110.400
 20
91.7692
 30
0.000000
  70
    32
  0
VERTEX
  8
0
  5
A4B4
 10
110.444
 20
91.7607
 30
0.000000
  70
    32
  0
VERTEX
  8
0
  5
A4B5
 10
110.488
 20
91.7522
 30
0.000000
  70
    32
  0
VERTEX
  8
0
  5
A4B6
 10
110.531
 20
91.7437
 30
0.000000
  70
    32
  0
VERTEX
  8
0
  5
A4B7
 10
110.575
 20
91.7353
 30
0.000000
  70
    32
  0
VERTEX
  8
0
  5
A4B8
 10
110.619
 20
91.7269
 30
0.000000
  70
    32
  0
VERTEX
  8
0
  5
A4B9
 10
110.663
 20
91.7186
 30
0.000000
  70
    32
  0
VERTEX
  8
0
  5
A4BA
 10
110.707
 20
91.7102
 30
0.000000
  70
    32
  0
VERTEX
  8
0
  5
A4BB
 10
110.751
 20
91.7020
 30
0.000000
  70
    32
  0
VERTEX
  8
0
  5
A4BC
 10
110.795
 20
91.6937
 30
0.000000
  70
    32
  0
VERTEX
  8
0
  5
A4BD
 10
110.838
 20
91.6855
 30
0.000000
  70
    32
  0
VERTEX
  8
0
  5
A4BE
 10
110.882
 20
91.6773
 30
0.000000
  70
    32
  0
VERTEX
  8
0
  5
A4BF
 10
110.926
 20
91.6692
 30
0.000000
  70
    32
  0
VERTEX
  8
0
  5
A4C0
 10
110.970
 20
91.6611
 30
0.000000
  70
    32
  0
VERTEX
  8
0
  5
A4C1
 10
111.014
 20
91.6530
 30
0.000000
  70
    32
  0
VERTEX
  8
0
  5
A4C2
 10
111.058
 20
91.6450
 30
0.000000
  70
    32
  0
VERTEX
  8
0
  5
A4C3
 10
111.102
 20
91.6370
 30
0.000000
  70
    32
  0
VERTEX
  8
0
  5
A4C4
 10
111.146
 20
91.6290
 30
0.000000
  70
    32
  0
VERTEX
  8
0
  5
A4C5
 10
111.190
 20
91.6211
 30
0.000000
  70
    32
  0
VERTEX
  8
0
  5
A4C6
 10
111.234
 20
91.6132
 30
0.000000
  70
    32
  0
VERTEX
  8
0
  5
A4C7
 10
111.278
 20
91.6053
 30
0.000000
  70
    32
  0
VERTEX
  8
0
  5
A4C8
 10
111.322
 20
91.5975
 30
0.000000
  70
    32
  0
SEQEND
  8
0
  5
A4C9
  0
POLYLINE
  5
50AC
  8
0
 10
102.1009789436513
 20
79.822300107143661
 30
0.0
 66
     1
 70
     8
  0
VERTEX
  8
0
  5
A4CA
 10
102.101
 20
79.8223
 30
0.000000
  70
    32
  0
VERTEX
  8
0
  5
A4CB
 10
102.369
 20
79.8289
 30
0.000000
  70
    32
  0
VERTEX
  8
0
  5
A4CC
 10
102.636
 20
79.8486
 30
0.000000
  70
    32
  0
VERTEX
  8
0
  5
A4CD
 10
102.902
 20
79.8815
 30
0.000000
  70
    32
  0
VERTEX
  8
0
  5
A4CE
 10
103.166
 20
79.9274
 30
0.000000
  70
    32
  0
VERTEX
  8
0
  5
A4CF
 10
103.427
 20
79.9862
 30
0.000000
  70
    32
  0
VERTEX
  8
0
  5
A4D0
 10
103.685
 20
80.0578
 30
0.000000
  70
    32
  0
VERTEX
  8
0
  5
A4D1
 10
103.940
 20
80.1420
 30
0.000000
  70
    32
  0
VERTEX
  8
0
  5
A4D2
 10
104.190
 20
80.2387
 30
0.000000
  70
    32
  0
VERTEX
  8
0
  5
A4D3
 10
104.435
 20
80.3475
 30
0.000000
  70
    32
  0
VERTEX
  8
0
  5
A4D4
 10
104.674
 20
80.4682
 30
0.000000
  70
    32
  0
VERTEX
  8
0
  5
A4D5
 10
104.907
 20
80.6005
 30
0.000000
  70
    32
  0
VERTEX
  8
0
  5
A4D6
 10
105.133
 20
80.7441
 30
0.000000
  70
    32
  0
VERTEX
  8
0
  5
A4D7
 10
105.352
 20
80.8987
 30
0.000000
  70
    32
  0
VERTEX
  8
0
  5
A4D8
 10
105.564
 20
81.0639
 30
0.000000
  70
    32
  0
VERTEX
  8
0
  5
A4D9
 10
105.766
 20
81.2393
 30
0.000000
  70
    32
  0
VERTEX
  8
0
  5
A4DA
 10
105.961
 20
81.4244
 30
0.000000
  70
    32
  0
VERTEX
  8
0
  5
A4DB
 10
106.145
 20
81.6188
 30
0.000000
  70
    32
  0
VERTEX
  8
0
  5
A4DC
 10
106.320
 20
81.8221
 30
0.000000
  70
    32
  0
VERTEX
  8
0
  5
A4DD
 10
106.485
 20
82.0338
 30
0.000000
  70
    32
  0
VERTEX
  8
0
  5
A4DE
 10
106.639
 20
82.2533
 30
0.000000
  70
    32
  0
VERTEX
  8
0
  5
A4DF
 10
106.783
 20
82.4801
 30
0.000000
  70
    32
  0
VERTEX
  8
0
  5
A4E0
 10
106.915
 20
82.7137
 30
0.000000
  70
    32
  0
VERTEX
  8
0
  5
A4E1
 10
107.035
 20
82.9535
 30
0.000000
  70
    32
  0
VERTEX
  8
0
  5
A4E2
 10
107.144
 20
83.1990
 30
0.000000
  70
    32
  0
VERTEX
  8
0
  5
A4E3
 10
107.240
 20
83.4495
 30
0.000000
  70
    32
  0
VERTEX
  8
0
  5
A4E4
 10
107.324
 20
83.7044
 30
0.000000
  70
    32
  0
VERTEX
  8
0
  5
A4E5
 10
107.396
 20
83.9631
 30
0.000000
  70
    32
  0
VERTEX
  8
0
  5
A4E6
 10
107.454
 20
84.2251
 30
0.000000
  70
    32
  0
VERTEX
  8
0
  5
A4E7
 10
107.500
 20
84.4896
 30
0.000000
  70
    32
  0
VERTEX
  8
0
  5
A4E8
 10
107.533
 20
84.7561
 30
0.000000
  70
    32
  0
VERTEX
  8
0
  5
A4E9
 10
107.553
 20
85.0238
 30
0.000000
  70
    32
  0
VERTEX
  8
0
  5
A4EA
 10
107.559
 20
85.2922
 30
0.000000
  70
    32
  0
VERTEX
  8
0
  5
A4EB
 10
107.553
 20
85.5606
 30
0.000000
  70
    32
  0
VERTEX
  8
0
  5
A4EC
 10
107.533
 20
85.8284
 30
0.000000
  70
    32
  0
VERTEX
  8
0
  5
A4ED
 10
107.500
 20
86.0948
 30
0.000000
  70
    32
  0
VERTEX
  8
0
  5
A4EE
 10
107.454
 20
86.3593
 30
0.000000
  70
    32
  0
VERTEX
  8
0
  5
A4EF
 10
107.396
 20
86.6213
 30
0.000000
  70
    32
  0
VERTEX
  8
0
  5
A4F0
 10
107.324
 20
86.8801
 30
0.000000
  70
    32
  0
VERTEX
  8
0
  5
A4F1
 10
107.240
 20
87.1350
 30
0.000000
  70
    32
  0
VERTEX
  8
0
  5
A4F2
 10
107.144
 20
87.3855
 30
0.000000
  70
    32
  0
VERTEX
  8
0
  5
A4F3
 10
107.035
 20
87.6309
 30
0.000000
  70
    32
  0
VERTEX
  8
0
  5
A4F4
 10
106.915
 20
87.8707
 30
0.000000
  70
    32
  0
VERTEX
  8
0
  5
A4F5
 10
106.783
 20
88.1043
 30
0.000000
  70
    32
  0
VERTEX
  8
0
  5
A4F6
 10
106.639
 20
88.3311
 30
0.000000
  70
    32
  0
VERTEX
  8
0
  5
A4F7
 10
106.485
 20
88.5506
 30
0.000000
  70
    32
  0
VERTEX
  8
0
  5
A4F8
 10
106.320
 20
88.7623
 30
0.000000
  70
    32
  0
VERTEX
  8
0
  5
A4F9
 10
106.145
 20
88.9656
 30
0.000000
  70
    32
  0
VERTEX
  8
0
  5
A4FA
 10
105.961
 20
89.1600
 30
0.000000
  70
    32
  0
VERTEX
  8
0
  5
A4FB
 10
105.766
 20
89.3452
 30
0.000000
  70
    32
  0
VERTEX
  8
0
  5
A4FC
 10
105.564
 20
89.5205
 30
0.000000
  70
    32
  0
VERTEX
  8
0
  5
A4FD
 10
105.352
 20
89.6857
 30
0.000000
  70
    32
  0
VERTEX
  8
0
  5
A4FE
 10
105.133
 20
89.8403
 30
0.000000
  70
    32
  0
VERTEX
  8
0
  5
A4FF
 10
104.907
 20
89.9839
 30
0.000000
  70
    32
  0
VERTEX
  8
0
  5
A500
 10
104.674
 20
90.1163
 30
0.000000
  70
    32
  0
VERTEX
  8
0
  5
A501
 10
104.435
 20
90.2370
 30
0.000000
  70
    32
  0
VERTEX
  8
0
  5
A502
 10
104.190
 20
90.3458
 30
0.000000
  70
    32
  0
VERTEX
  8
0
  5
A503
 10
103.940
 20
90.4424
 30
0.000000
  70
    32
  0
VERTEX
  8
0
  5
A504
 10
103.685
 20
90.5266
 30
0.000000
  70
    32
  0
VERTEX
  8
0
  5
A505
 10
103.427
 20
90.5982
 30
0.000000
  70
    32
  0
VERTEX
  8
0
  5
A506
 10
103.166
 20
90.6570
 30
0.000000
  70
    32
  0
VERTEX
  8
0
  5
A507
 10
102.902
 20
90.7029
 30
0.000000
  70
    32
  0
VERTEX
  8
0
  5
A508
 10
102.636
 20
90.7358
 30
0.000000
  70
    32
  0
VERTEX
  8
0
  5
A509
 10
102.369
 20
90.7555
 30
0.000000
  70
    32
  0
VERTEX
  8
0
  5
A50A
 10
102.101
 20
90.7621
 30
0.000000
  70
    32
  0
VERTEX
  8
0
  5
A50B
 10
101.833
 20
90.7555
 30
0.000000
  70
    32
  0
VERTEX
  8
0
  5
A50C
 10
101.566
 20
90.7358
 30
0.000000
  70
    32
  0
VERTEX
  8
0
  5
A50D
 10
101.300
 20
90.7029
 30
0.000000
  70
    32
  0
VERTEX
  8
0
  5
A50E
 10
101.036
 20
90.6570
 30
0.000000
  70
    32
  0
VERTEX
  8
0
  5
A50F
 10
100.775
 20
90.5982
 30
0.000000
  70
    32
  0
VERTEX
  8
0
  5
A510
 10
100.517
 20
90.5266
 30
0.000000
  70
    32
  0
VERTEX
  8
0
  5
A511
 10
100.262
 20
90.4424
 30
0.000000
  70
    32
  0
VERTEX
  8
0
  5
A512
 10
100.012
 20
90.3458
 30
0.000000
  70
    32
  0
VERTEX
  8
0
  5
A513
 10
99.7673
 20
90.2370
 30
0.000000
  70
    32
  0
VERTEX
  8
0
  5
A514
 10
99.5280
 20
90.1163
 30
0.000000
  70
    32
  0
VERTEX
  8
0
  5
A515
 10
99.2949
 20
89.9839
 30
0.000000
  70
    32
  0
VERTEX
  8
0
  5
A516
 10
99.0686
 20
89.8403
 30
0.000000
  70
    32
  0
VERTEX
  8
0
  5
A517
 10
98.8495
 20
89.6857
 30
0.000000
  70
    32
  0
VERTEX
  8
0
  5
A518
 10
98.6383
 20
89.5205
 30
0.000000
  70
    32
  0
VERTEX
  8
0
  5
A519
 10
98.4355
 20
89.3452
 30
0.000000
  70
    32
  0
VERTEX
  8
0
  5
A51A
 10
98.2415
 20
89.1600
 30
0.000000
  70
    32
  0
VERTEX
  8
0
  5
A51B
 10
98.0567
 20
88.9656
 30
0.000000
  70
    32
  0
VERTEX
  8
0
  5
A51C
 10
97.8817
 20
88.7623
 30
0.000000
  70
    32
  0
VERTEX
  8
0
  5
A51D
 10
97.7169
 20
88.5506
 30
0.000000
  70
    32
  0
VERTEX
  8
0
  5
A51E
 10
97.5627
 20
88.3311
 30
0.000000
  70
    32
  0
VERTEX
  8
0
  5
A51F
 10
97.4193
 20
88.1043
 30
0.000000
  70
    32
  0
VERTEX
  8
0
  5
A520
 10
97.2873
 20
87.8707
 30
0.000000
  70
    32
  0
VERTEX
  8
0
  5
A521
 10
97.1668
 20
87.6309
 30
0.000000
  70
    32
  0
VERTEX
  8
0
  5
A522
 10
97.0583
 20
87.3855
 30
0.000000
  70
    32
  0
VERTEX
  8
0
  5
A523
 10
96.9619
 20
87.1350
 30
0.000000
  70
    32
  0
VERTEX
  8
0
  5
A524
 10
96.8778
 20
86.8801
 30
0.000000
  70
    32
  0
VERTEX
  8
0
  5
A525
 10
96.8064
 20
86.6213
 30
0.000000
  70
    32
  0
VERTEX
  8
0
  5
A526
 10
96.7477
 20
86.3593
 30
0.000000
  70
    32
  0
VERTEX
  8
0
  5
A527
 10
96.7019
 20
86.0948
 30
0.000000
  70
    32
  0
VERTEX
  8
0
  5
A528
 10
96.6691
 20
85.8284
 30
0.000000
  70
    32
  0
VERTEX
  8
0
  5
A529
 10
96.6494
 20
85.5606
 30
0.000000
  70
    32
  0
VERTEX
  8
0
  5
A52A
 10
96.6428
 20
85.2922
 30
0.000000
  70
    32
  0
VERTEX
  8
0
  5
A52B
 10
96.6494
 20
85.0238
 30
0.000000
  70
    32
  0
VERTEX
  8
0
  5
A52C
 10
96.6691
 20
84.7561
 30
0.000000
  70
    32
  0
VERTEX
  8
0
  5
A52D
 10
96.7019
 20
84.4896
 30
0.000000
  70
    32
  0
VERTEX
  8
0
  5
A52E
 10
96.7477
 20
84.2251
 30
0.000000
  70
    32
  0
VERTEX
  8
0
  5
A52F
 10
96.8064
 20
83.9631
 30
0.000000
  70
    32
  0
VERTEX
  8
0
  5
A530
 10
96.8778
 20
83.7044
 30
0.000000
  70
    32
  0
VERTEX
  8
0
  5
A531
 10
96.9619
 20
83.4495
 30
0.000000
  70
    32
  0
VERTEX
  8
0
  5
A532
 10
97.0583
 20
83.1990
 30
0.000000
  70
    32
  0
VERTEX
  8
0
  5
A533
 10
97.1668
 20
82.9535
 30
0.000000
  70
    32
  0
VERTEX
  8
0
  5
A534
 10
97.2873
 20
82.7137
 30
0.000000
  70
    32
  0
VERTEX
  8
0
  5
A535
 10
97.4193
 20
82.4801
 30
0.000000
  70
    32
  0
VERTEX
  8
0
  5
A536
 10
97.5627
 20
82.2533
 30
0.000000
  70
    32
  0
VERTEX
  8
0
  5
A537
 10
97.7169
 20
82.0338
 30
0.000000
  70
    32
  0
VERTEX
  8
0
  5
A538
 10
97.8817
 20
81.8221
 30
0.000000
  70
    32
  0
VERTEX
  8
0
  5
A539
 10
98.0567
 20
81.6188
 30
0.000000
  70
    32
  0
VERTEX
  8
0
  5
A53A
 10
98.2415
 20
81.4244
 30
0.000000
  70
    32
  0
VERTEX
  8
0
  5
A53B
 10
98.4355
 20
81.2393
 30
0.000000
  70
    32
  0
VERTEX
  8
0
  5
A53C
 10
98.6383
 20
81.0639
 30
0.000000
  70
    32
  0
VERTEX
  8
0
  5
A53D
 10
98.8495
 20
80.8987
 30
0.000000
  70
    32
  0
VERTEX
  8
0
  5
A53E
 10
99.0686
 20
80.7441
 30
0.000000
  70
    32
  0
VERTEX
  8
0
  5
A53F
 10
99.2949
 20
80.6005
 30
0.000000
  70
    32
  0
VERTEX
  8
0
  5
A540
 10
99.5280
 20
80.4682
 30
0.000000
  70
    32
  0
VERTEX
  8
0
  5
A541
 10
99.7673
 20
80.3475
 30
0.000000
  70
    32
  0
VERTEX
  8
0
  5
A542
 10
100.012
 20
80.2387
 30
0.000000
  70
    32
  0
VERTEX
  8
0
  5
A543
 10
100.262
 20
80.1420
 30
0.000000
  70
    32
  0
VERTEX
  8
0
  5
A544
 10
100.517
 20
80.0578
 30
0.000000
  70
    32
  0
VERTEX
  8
0
  5
A545
 10
100.775
 20
79.9862
 30
0.000000
  70
    32
  0
VERTEX
  8
0
  5
A546
 10
101.036
 20
79.9274
 30
0.000000
  70
    32
  0
VERTEX
  8
0
  5
A547
 10
101.300
 20
79.8815
 30
0.000000
  70
    32
  0
VERTEX
  8
0
  5
A548
 10
101.566
 20
79.8486
 30
0.000000
  70
    32
  0
VERTEX
  8
0
  5
A549
 10
101.833
 20
79.8289
 30
0.000000
  70
    32
  0
VERTEX
  8
0
  5
A54A
 10
102.101
 20
79.8223
 30
0.000000
  70
    32
  0
SEQEND
  8
0
  5
A54B
  0
POLYLINE
  5
50AD
  8
0
 10
139.70812605817898
 20
90.762135572085541
 30
0.0
 66
     1
 70
     8
  0
VERTEX
  8
0
  5
A54C
 10
139.708
 20
90.7621
 30
0.000000
  70
    32
  0
VERTEX
  8
0
  5
A54D
 10
139.440
 20
90.7555
 30
0.000000
  70
    32
  0
VERTEX
  8
0
  5
A54E
 10
139.173
 20
90.7358
 30
0.000000
  70
    32
  0
VERTEX
  8
0
  5
A54F
 10
138.907
 20
90.7029
 30
0.000000
  70
    32
  0
VERTEX
  8
0
  5
A550
 10
138.643
 20
90.6570
 30
0.000000
  70
    32
  0
VERTEX
  8
0
  5
A551
 10
138.382
 20
90.5982
 30
0.000000
  70
    32
  0
VERTEX
  8
0
  5
A552
 10
138.124
 20
90.5266
 30
0.000000
  70
    32
  0
VERTEX
  8
0
  5
A553
 10
137.869
 20
90.4424
 30
0.000000
  70
    32
  0
VERTEX
  8
0
  5
A554
 10
137.619
 20
90.3458
 30
0.000000
  70
    32
  0
VERTEX
  8
0
  5
A555
 10
137.374
 20
90.2370
 30
0.000000
  70
    32
  0
VERTEX
  8
0
  5
A556
 10
137.135
 20
90.1163
 30
0.000000
  70
    32
  0
VERTEX
  8
0
  5
A557
 10
136.902
 20
89.9839
 30
0.000000
  70
    32
  0
VERTEX
  8
0
  5
A558
 10
136.676
 20
89.8403
 30
0.000000
  70
    32
  0
VERTEX
  8
0
  5
A559
 10
136.457
 20
89.6857
 30
0.000000
  70
    32
  0
VERTEX
  8
0
  5
A55A
 10
136.245
 20
89.5205
 30
0.000000
  70
    32
  0
VERTEX
  8
0
  5
A55B
 10
136.043
 20
89.3452
 30
0.000000
  70
    32
  0
VERTEX
  8
0
  5
A55C
 10
135.849
 20
89.1600
 30
0.000000
  70
    32
  0
VERTEX
  8
0
  5
A55D
 10
135.664
 20
88.9656
 30
0.000000
  70
    32
  0
VERTEX
  8
0
  5
A55E
 10
135.489
 20
88.7623
 30
0.000000
  70
    32
  0
VERTEX
  8
0
  5
A55F
 10
135.324
 20
88.5506
 30
0.000000
  70
    32
  0
VERTEX
  8
0
  5
A560
 10
135.170
 20
88.3311
 30
0.000000
  70
    32
  0
VERTEX
  8
0
  5
A561
 10
135.026
 20
88.1043
 30
0.000000
  70
    32
  0
VERTEX
  8
0
  5
A562
 10
134.894
 20
87.8707
 30
0.000000
  70
    32
  0
VERTEX
  8
0
  5
A563
 10
134.774
 20
87.6309
 30
0.000000
  70
    32
  0
VERTEX
  8
0
  5
A564
 10
134.665
 20
87.3855
 30
0.000000
  70
    32
  0
VERTEX
  8
0
  5
A565
 10
134.569
 20
87.1350
 30
0.000000
  70
    32
  0
VERTEX
  8
0
  5
A566
 10
134.485
 20
86.8801
 30
0.000000
  70
    32
  0
VERTEX
  8
0
  5
A567
 10
134.414
 20
86.6213
 30
0.000000
  70
    32
  0
VERTEX
  8
0
  5
A568
 10
134.355
 20
86.3593
 30
0.000000
  70
    32
  0
VERTEX
  8
0
  5
A569
 10
134.309
 20
86.0948
 30
0.000000
  70
    32
  0
VERTEX
  8
0
  5
A56A
 10
134.276
 20
85.8284
 30
0.000000
  70
    32
  0
VERTEX
  8
0
  5
A56B
 10
134.257
 20
85.5606
 30
0.000000
  70
    32
  0
VERTEX
  8
0
  5
A56C
 10
134.250
 20
85.2922
 30
0.000000
  70
    32
  0
VERTEX
  8
0
  5
A56D
 10
134.257
 20
85.0238
 30
0.000000
  70
    32
  0
VERTEX
  8
0
  5
A56E
 10
134.276
 20
84.7561
 30
0.000000
  70
    32
  0
VERTEX
  8
0
  5
A56F
 10
134.309
 20
84.4896
 30
0.000000
  70
    32
  0
VERTEX
  8
0
  5
A570
 10
134.355
 20
84.2251
 30
0.000000
  70
    32
  0
VERTEX
  8
0
  5
A571
 10
134.414
 20
83.9631
 30
0.000000
  70
    32
  0
VERTEX
  8
0
  5
A572
 10
134.485
 20
83.7044
 30
0.000000
  70
    32
  0
VERTEX
  8
0
  5
A573
 10
134.569
 20
83.4495
 30
0.000000
  70
    32
  0
VERTEX
  8
0
  5
A574
 10
134.665
 20
83.1990
 30
0.000000
  70
    32
  0
VERTEX
  8
0
  5
A575
 10
134.774
 20
82.9535
 30
0.000000
  70
    32
  0
VERTEX
  8
0
  5
A576
 10
134.894
 20
82.7137
 30
0.000000
  70
    32
  0
VERTEX
  8
0
  5
A577
 10
135.026
 20
82.4801
 30
0.000000
  70
    32
  0
VERTEX
  8
0
  5
A578
 10
135.170
 20
82.2533
 30
0.000000
  70
    32
  0
VERTEX
  8
0
  5
A579
 10
135.324
 20
82.0338
 30
0.000000
  70
    32
  0
VERTEX
  8
0
  5
A57A
 10
135.489
 20
81.8221
 30
0.000000
  70
    32
  0
VERTEX
  8
0
  5
A57B
 10
135.664
 20
81.6188
 30
0.000000
  70
    32
  0
VERTEX
  8
0
  5
A57C
 10
135.849
 20
81.4244
 30
0.000000
  70
    32
  0
VERTEX
  8
0
  5
A57D
 10
136.043
 20
81.2393
 30
0.000000
  70
    32
  0
VERTEX
  8
0
  5
A57E
 10
136.245
 20
81.0639
 30
0.000000
  70
    32
  0
VERTEX
  8
0
  5
A57F
 10
136.457
 20
80.8987
 30
0.000000
  70
    32
  0
VERTEX
  8
0
  5
A580
 10
136.676
 20
80.7441
 30
0.000000
  70
    32
  0
VERTEX
  8
0
  5
A581
 10
136.902
 20
80.6005
 30
0.000000
  70
    32
  0
VERTEX
  8
0
  5
A582
 10
137.135
 20
80.4682
 30
0.000000
  70
    32
  0
VERTEX
  8
0
  5
A583
 10
137.374
 20
80.3475
 30
0.000000
  70
    32
  0
VERTEX
  8
0
  5
A584
 10
137.619
 20
80.2387
 30
0.000000
  70
    32
  0
VERTEX
  8
0
  5
A585
 10
137.869
 20
80.1420
 30
0.000000
  70
    32
  0
VERTEX
  8
0
  5
A586
 10
138.124
 20
80.0578
 30
0.000000
  70
    32
  0
VERTEX
  8
0
  5
A587
 10
138.382
 20
79.9862
 30
0.000000
  70
    32
  0
VERTEX
  8
0
  5
A588
 10
138.643
 20
79.9274
 30
0.000000
  70
    32
  0
VERTEX
  8
0
  5
A589
 10
138.907
 20
79.8815
 30
0.000000
  70
    32
  0
VERTEX
  8
0
  5
A58A
 10
139.173
 20
79.8486
 30
0.000000
  70
    32
  0
VERTEX
  8
0
  5
A58B
 10
139.440
 20
79.8289
 30
0.000000
  70
    32
  0
VERTEX
  8
0
  5
A58C
 10
139.708
 20
79.8223
 30
0.000000
  70
    32
  0
VERTEX
  8
0
  5
A58D
 10
139.976
 20
79.8289
 30
0.000000
  70
    32
  0
VERTEX
  8
0
  5
A58E
 10
140.243
 20
79.8486
 30
0.000000
  70
    32
  0
VERTEX
  8
0
  5
A58F
 10
140.509
 20
79.8815
 30
0.000000
  70
    32
  0
VERTEX
  8
0
  5
A590
 10
140.773
 20
79.9274
 30
0.000000
  70
    32
  0
VERTEX
  8
0
  5
A591
 10
141.034
 20
79.9862
 30
0.000000
  70
    32
  0
VERTEX
  8
0
  5
A592
 10
141.293
 20
80.0578
 30
0.000000
  70
    32
  0
VERTEX
  8
0
  5
A593
 10
141.547
 20
80.1420
 30
0.000000
  70
    32
  0
VERTEX
  8
0
  5
A594
 10
141.797
 20
80.2387
 30
0.000000
  70
    32
  0
VERTEX
  8
0
  5
A595
 10
142.042
 20
80.3475
 30
0.000000
  70
    32
  0
VERTEX
  8
0
  5
A596
 10
142.281
 20
80.4682
 30
0.000000
  70
    32
  0
VERTEX
  8
0
  5
A597
 10
142.514
 20
80.6005
 30
0.000000
  70
    32
  0
VERTEX
  8
0
  5
A598
 10
142.741
 20
80.7441
 30
0.000000
  70
    32
  0
VERTEX
  8
0
  5
A599
 10
142.960
 20
80.8987
 30
0.000000
  70
    32
  0
VERTEX
  8
0
  5
A59A
 10
143.171
 20
81.0639
 30
0.000000
  70
    32
  0
VERTEX
  8
0
  5
A59B
 10
143.374
 20
81.2393
 30
0.000000
  70
    32
  0
VERTEX
  8
0
  5
A59C
 10
143.568
 20
81.4244
 30
0.000000
  70
    32
  0
VERTEX
  8
0
  5
A59D
 10
143.752
 20
81.6188
 30
0.000000
  70
    32
  0
VERTEX
  8
0
  5
A59E
 10
143.927
 20
81.8221
 30
0.000000
  70
    32
  0
VERTEX
  8
0
  5
A59F
 10
144.092
 20
82.0338
 30
0.000000
  70
    32
  0
VERTEX
  8
0
  5
A5A0
 10
144.246
 20
82.2533
 30
0.000000
  70
    32
  0
VERTEX
  8
0
  5
A5A1
 10
144.390
 20
82.4801
 30
0.000000
  70
    32
  0
VERTEX
  8
0
  5
A5A2
 10
144.522
 20
82.7137
 30
0.000000
  70
    32
  0
VERTEX
  8
0
  5
A5A3
 10
144.642
 20
82.9535
 30
0.000000
  70
    32
  0
VERTEX
  8
0
  5
A5A4
 10
144.751
 20
83.1990
 30
0.000000
  70
    32
  0
VERTEX
  8
0
  5
A5A5
 10
144.847
 20
83.4495
 30
0.000000
  70
    32
  0
VERTEX
  8
0
  5
A5A6
 10
144.931
 20
83.7044
 30
0.000000
  70
    32
  0
VERTEX
  8
0
  5
A5A7
 10
145.003
 20
83.9631
 30
0.000000
  70
    32
  0
VERTEX
  8
0
  5
A5A8
 10
145.061
 20
84.2251
 30
0.000000
  70
    32
  0
VERTEX
  8
0
  5
A5A9
 10
145.107
 20
84.4896
 30
0.000000
  70
    32
  0
VERTEX
  8
0
  5
A5AA
 10
145.140
 20
84.7561
 30
0.000000
  70
    32
  0
VERTEX
  8
0
  5
A5AB
 10
145.160
 20
85.0238
 30
0.000000
  70
    32
  0
VERTEX
  8
0
  5
A5AC
 10
145.166
 20
85.2922
 30
0.000000
  70
    32
  0
VERTEX
  8
0
  5
A5AD
 10
145.160
 20
85.5606
 30
0.000000
  70
    32
  0
VERTEX
  8
0
  5
A5AE
 10
145.140
 20
85.8284
 30
0.000000
  70
    32
  0
VERTEX
  8
0
  5
A5AF
 10
145.107
 20
86.0948
 30
0.000000
  70
    32
  0
VERTEX
  8
0
  5
A5B0
 10
145.061
 20
86.3593
 30
0.000000
  70
    32
  0
VERTEX
  8
0
  5
A5B1
 10
145.003
 20
86.6213
 30
0.000000
  70
    32
  0
VERTEX
  8
0
  5
A5B2
 10
144.931
 20
86.8801
 30
0.000000
  70
    32
  0
VERTEX
  8
0
  5
A5B3
 10
144.847
 20
87.1350
 30
0.000000
  70
    32
  0
VERTEX
  8
0
  5
A5B4
 10
144.751
 20
87.3855
 30
0.000000
  70
    32
  0
VERTEX
  8
0
  5
A5B5
 10
144.642
 20
87.6309
 30
0.000000
  70
    32
  0
VERTEX
  8
0
  5
A5B6
 10
144.522
 20
87.8707
 30
0.000000
  70
    32
  0
VERTEX
  8
0
  5
A5B7
 10
144.390
 20
88.1043
 30
0.000000
  70
    32
  0
VERTEX
  8
0
  5
A5B8
 10
144.246
 20
88.3311
 30
0.000000
  70
    32
  0
VERTEX
  8
0
  5
A5B9
 10
144.092
 20
88.5506
 30
0.000000
  70
    32
  0
VERTEX
  8
0
  5
A5BA
 10
143.927
 20
88.7623
 30
0.000000
  70
    32
  0
VERTEX
  8
0
  5
A5BB
 10
143.752
 20
88.9656
 30
0.000000
  70
    32
  0
VERTEX
  8
0
  5
A5BC
 10
143.568
 20
89.1600
 30
0.000000
  70
    32
  0
VERTEX
  8
0
  5
A5BD
 10
143.374
 20
89.3452
 30
0.000000
  70
    32
  0
VERTEX
  8
0
  5
A5BE
 10
143.171
 20
89.5205
 30
0.000000
  70
    32
  0
VERTEX
  8
0
  5
A5BF
 10
142.960
 20
89.6857
 30
0.000000
  70
    32
  0
VERTEX
  8
0
  5
A5C0
 10
142.741
 20
89.8403
 30
0.000000
  70
    32
  0
VERTEX
  8
0
  5
A5C1
 10
142.514
 20
89.9839
 30
0.000000
  70
    32
  0
VERTEX
  8
0
  5
A5C2
 10
142.281
 20
90.1163
 30
0.000000
  70
    32
  0
VERTEX
  8
0
  5
A5C3
 10
142.042
 20
90.2370
 30
0.000000
  70
    32
  0
VERTEX
  8
0
  5
A5C4
 10
141.797
 20
90.3458
 30
0.000000
  70
    32
  0
VERTEX
  8
0
  5
A5C5
 10
141.547
 20
90.4424
 30
0.000000
  70
    32
  0
VERTEX
  8
0
  5
A5C6
 10
141.293
 20
90.5266
 30
0.000000
  70
    32
  0
VERTEX
  8
0
  5
A5C7
 10
141.034
 20
90.5982
 30
0.000000
  70
    32
  0
VERTEX
  8
0
  5
A5C8
 10
140.773
 20
90.6570
 30
0.000000
  70
    32
  0
VERTEX
  8
0
  5
A5C9
 10
140.509
 20
90.7029
 30
0.000000
  70
    32
  0
VERTEX
  8
0
  5
A5CA
 10
140.243
 20
90.7358
 30
0.000000
  70
    32
  0
VERTEX
  8
0
  5
A5CB
 10
139.976
 20
90.7555
 30
0.000000
  70
    32
  0
VERTEX
  8
0
  5
A5CC
 10
139.708
 20
90.7621
 30
0.000000
  70
    32
  0
SEQEND
  8
0
  5
A5CD
  0
LINE
  5
545C
  8
1
 10
120.9045525416692
 20
116.8836625822677
 30
0.0
 11
120.9045525416692
 21
141.633726927851
 31
0.0
  0
LINE
  5
545D
  8
1
 10
153.0452855133515
 20
129.25869475505939
 30
0.0
 11
88.763819569986936
 21
129.25869475505939
 31
0.0
  0
ARC
  5
545E
  8
0
 10
120.90455254166871
 20
129.25869475505939
 30
0.0
 40
27.499999999999499
 50
174.68311095382839
 51
185.3168890461715
  0
ARC
  5
545F
  8
0
 10
120.9045525416697
 20
129.25869475505939
 30
0.0
 40
27.49999999999952
 50
354.68311095382847
 51
5.3168890461682379
  0
LINE
  5
5460
  8
0
 10
107.54660356994989
 20
132.4376922868253
 30
0.0
 11
107.5591674210621
 21
132.4425062715336
 31
0.0
  0
POLYLINE
  5
5466
  8
0
 66
     1
 10
0.0
 20
0.0
 30
0.0
  0
VERTEX
  5
A248
  8
0
 10
111.32167351740669
 20
126.3216782363565
 30
0.0
  0
VERTEX
  5
A249
  8
0
 10
111.41152542597619
 20
126.3263043896457
 30
0.0
  0
VERTEX
  5
A24A
  8
0
 10
111.5940141759483
 20
126.32792196253889
 30
0.0
  0
VERTEX
  5
A24B
  8
0
 10
111.779172157367
 20
126.3189116744321
 30
0.0
  0
VERTEX
  5
A24C
  8
0
 10
111.8723590088248
 20
126.31029385148921
 30
0.0
  0
VERTEX
  5
A24D
  8
0
 10
111.9657448588426
 20
126.2988874894545
 30
0.0
  0
VERTEX
  5
A24E
  8
0
 10
112.15251006770229
 20
126.26762856723219
 30
0.0
  0
VERTEX
  5
A24F
  8
0
 10
112.33825754487739
 20
126.2250755326687
 30
0.0
  0
VERTEX
  5
A250
  8
0
 10
112.52178816599221
 20
126.1713315750399
 30
0.0
  0
VERTEX
  5
A251
  8
0
 10
112.70201022635899
 20
126.1066301113753
 30
0.0
  0
VERTEX
  5
A252
  8
0
 10
112.87793969834691
 20
126.0313114285246
 30
0.0
  0
VERTEX
  5
A253
  8
0
 10
112.9639596626523
 20
125.9898292331806
 30
0.0
  0
VERTEX
  5
A254
  8
0
 10
113.0485107844838
 20
125.9459024340798
 30
0.0
  0
VERTEX
  5
A255
  8
0
 10
113.2127240011187
 20
125.8510782363837
 30
0.0
  0
VERTEX
  5
A256
  8
0
 10
113.3696733295038
 20
125.7476483749107
 30
0.0
  0
VERTEX
  5
A257
  8
0
 10
113.5185215401346
 20
125.63657562027259
 30
0.0
  0
VERTEX
  5
A258
  8
0
 10
113.6585462722298
 20
125.5189511585375
 30
0.0
  0
VERTEX
  5
A259
  8
0
 10
113.79214179844119
 20
125.3930021766533
 30
0.0
  0
VERTEX
  5
A25A
  8
0
 10
113.8569842798092
 20
125.32634893227549
 30
0.0
  0
VERTEX
  5
A25B
  8
0
 10
113.920309415014
 20
125.25733846688421
 30
0.0
  0
VERTEX
  5
A25C
  8
0
 10
114.0418156030893
 20
125.1125805710445
 30
0.0
  0
VERTEX
  5
A25D
  8
0
 10
114.1555729690715
 20
124.9594568217788
 30
0.0
  0
VERTEX
  5
A25E
  8
0
 10
114.2092448248633
 20
124.88001292404221
 30
0.0
  0
SEQEND
  5
A25F
  8
0
  0
POLYLINE
  5
5467
  8
0
 66
     1
 10
0.0
 20
0.0
 30
0.0
  0
VERTEX
  5
A260
  8
0
 10
127.4721784983463
 20
124.6907313912416
 30
0.0
  0
VERTEX
  5
A261
  8
0
 10
127.6509328770792
 20
124.9557254065076
 30
0.0
  0
VERTEX
  5
A262
  8
0
 10
127.76093923080779
 20
125.10451813686259
 30
0.0
  0
VERTEX
  5
A263
  8
0
 10
127.88111040174169
 20
125.24868168420851
 30
0.0
  0
VERTEX
  5
A264
  8
0
 10
127.9448541658314
 20
125.31863335376769
 30
0.0
  0
VERTEX
  5
A265
  8
0
 10
128.01093969390959
 20
125.38697170054429
 30
0.0
  0
VERTEX
  5
A266
  8
0
 10
128.14980533911651
 20
125.51828036865609
 30
0.0
  0
VERTEX
  5
A267
  8
0
 10
128.29695920347871
 20
125.64161460990979
 30
0.0
  0
VERTEX
  5
A268
  8
0
 10
128.451528328622
 20
125.75609831619769
 30
0.0
  0
VERTEX
  5
A269
  8
0
 10
128.61261481444049
 20
125.8610385406452
 30
0.0
  0
VERTEX
  5
A26A
  8
0
 10
128.77928258599849
 20
125.9558879862454
 30
0.0
  0
VERTEX
  5
A26B
  8
0
 10
128.8643595518175
 20
125.9993706049824
 30
0.0
  0
VERTEX
  5
A26C
  8
0
 10
128.95040138252909
 20
126.040159259859
 30
0.0
  0
VERTEX
  5
A26D
  8
0
 10
129.12477044045411
 20
126.11351915528169
 30
0.0
  0
VERTEX
  5
A26E
  8
0
 10
129.30113867937399
 20
126.1757969693809
 30
0.0
  0
VERTEX
  5
A26F
  8
0
 10
129.47817531290571
 20
126.2269763195098
 30
0.0
  0
VERTEX
  5
A270
  8
0
 10
129.65472274550339
 20
126.26725736768169
 30
0.0
  0
VERTEX
  5
A271
  8
0
 10
129.8344207579957
 20
126.2976491324772
 30
0.0
  0
VERTEX
  5
A272
  8
0
 10
129.92584805392681
 20
126.3091061736127
 30
0.0
  0
VERTEX
  5
A273
  8
0
 10
130.0181357014707
 20
126.317972494261
 30
0.0
  0
VERTEX
  5
A274
  8
0
 10
130.2047116891479
 20
126.32770108802291
 30
0.0
  0
VERTEX
  5
A275
  8
0
 10
130.39300157891131
 20
126.3264723282843
 30
0.0
  0
VERTEX
  5
A276
  8
0
 10
130.48743156593159
 20
126.3216782363565
 30
0.0
  0
SEQEND
  5
A277
  8
0
  0
LINE
  5
5468
  8
0
 10
130.48743156593159
 20
126.3216782363565
 30
0.0
 11
146.69311589832009
 21
125.25869475505939
 31
0.0
  0
POLYLINE
  5
5469
  8
0
 66
     1
 10
0.0
 20
0.0
 30
0.0
  0
VERTEX
  5
A278
  8
0
 10
146.69311589832009
 20
125.25869475505939
 30
0.0
  0
VERTEX
  5
A279
  8
0
 10
146.77262504352231
 20
125.2606715087237
 30
0.0
  0
VERTEX
  5
A27A
  8
0
 10
146.92646707893101
 20
125.2758027099383
 30
0.0
  0
VERTEX
  5
A27B
  8
0
 10
147.07309920849801
 20
125.3044706129272
 30
0.0
  0
VERTEX
  5
A27C
  8
0
 10
147.14355223617031
 20
125.3234074511504
 30
0.0
  0
VERTEX
  5
A27D
  8
0
 10
147.21200498235359
 20
125.3451710127709
 30
0.0
  0
VERTEX
  5
A27E
  8
0
 10
147.3429486265029
 20
125.39660124731689
 30
0.0
  0
VERTEX
  5
A27F
  8
0
 10
147.46596145752781
 20
125.4577273244555
 30
0.0
  0
VERTEX
  5
A280
  8
0
 10
147.58085148137741
 20
125.5275578219928
 30
0.0
  0
VERTEX
  5
A281
  8
0
 10
147.68744313866341
 20
125.60517437664051
 30
0.0
  0
VERTEX
  5
A282
  8
0
 10
147.78557993485191
 20
125.689711295431
 30
0.0
  0
VERTEX
  5
A283
  8
0
 10
147.83143505606421
 20
125.7343151505161
 30
0.0
  0
VERTEX
  5
A284
  8
0
 10
147.87512852672751
 20
125.7803413128682
 30
0.0
  0
VERTEX
  5
A285
  8
0
 10
147.95601231759699
 20
125.87630347141641
 30
0.0
  0
VERTEX
  5
A286
  8
0
 10
148.02830347689439
 20
125.97706323905
 30
0.0
  0
VERTEX
  5
A287
  8
0
 10
148.09197858002179
 20
126.0820460585805
 30
0.0
  0
VERTEX
  5
A288
  8
0
 10
148.14699463835649
 20
126.1906853170495
 30
0.0
  0
VERTEX
  5
A289
  8
0
 10
148.1933071764544
 20
126.302433908864
 30
0.0
  0
VERTEX
  5
A28A
  8
0
 10
148.2131856752176
 20
126.3593072568549
 30
0.0
  0
VERTEX
  5
A28B
  8
0
 10
148.2308716642786
 20
126.41675900830271
 30
0.0
  0
VERTEX
  5
A28C
  8
0
 10
148.25964479948649
 20
126.5331379983937
 30
0.0
  0
VERTEX
  5
A28D
  8
0
 10
148.27958551510281
 20
126.65105527175839
 30
0.0
  0
VERTEX
  5
A28E
  8
0
 10
148.28623178135649
 20
126.7104322067968
 30
0.0
  0
SEQEND
  5
A28F
  8
0
  0
LINE
  5
546A
  8
0
 10
111.32167351740669
 20
132.1957112737623
 30
0.0
 11
95.115989185018265
 21
133.25869475505939
 31
0.0
  0
POLYLINE
  5
546B
  8
0
 66
     1
 10
0.0
 20
0.0
 30
0.0
  0
VERTEX
  5
A290
  8
0
 10
95.11598918501825
 20
133.25869475505939
 30
0.0
  0
VERTEX
  5
A291
  8
0
 10
95.036480039816155
 20
133.25671800139509
 30
0.0
  0
VERTEX
  5
A292
  8
0
 10
94.88263800440744
 20
133.24158680018039
 30
0.0
  0
VERTEX
  5
A293
  8
0
 10
94.736005874840544
 20
133.21291889719151
 30
0.0
  0
VERTEX
  5
A294
  8
0
 10
94.665552847168158
 20
133.1939820589684
 30
0.0
  0
VERTEX
  5
A295
  8
0
 10
94.597100100984832
 20
133.1722184973479
 30
0.0
  0
VERTEX
  5
A296
  8
0
 10
94.466156456835549
 20
133.1207882628018
 30
0.0
  0
VERTEX
  5
A297
  8
0
 10
94.343143625810725
 20
133.0596621856634
 30
0.0
  0
VERTEX
  5
A298
  8
0
 10
94.228253601961072
 20
132.989831688126
 30
0.0
  0
VERTEX
  5
A299
  8
0
 10
94.121661944675111
 20
132.9122151334783
 30
0.0
  0
VERTEX
  5
A29A
  8
0
 10
94.023525148486584
 20
132.82767821468781
 30
0.0
  0
VERTEX
  5
A29B
  8
0
 10
93.977670027274243
 20
132.78307435960269
 30
0.0
  0
VERTEX
  5
A29C
  8
0
 10
93.933976556611
 20
132.73704819725069
 30
0.0
  0
VERTEX
  5
A29D
  8
0
 10
93.853092765741508
 20
132.64108603870241
 30
0.0
  0
VERTEX
  5
A29E
  8
0
 10
93.780801606444058
 20
132.54032627106889
 30
0.0
  0
VERTEX
  5
A29F
  8
0
 10
93.717126503316621
 20
132.43534345153839
 30
0.0
  0
VERTEX
  5
A2A0
  8
0
 10
93.662110444981892
 20
132.3267041930693
 30
0.0
  0
VERTEX
  5
A2A1
  8
0
 10
93.615797906884026
 20
132.21495560125479
 30
0.0
  0
VERTEX
  5
A2A2
  8
0
 10
93.595919408120807
 20
132.15808225326381
 30
0.0
  0
VERTEX
  5
A2A3
  8
0
 10
93.578233419059757
 20
132.10063050181611
 30
0.0
  0
VERTEX
  5
A2A4
  8
0
 10
93.549460283851943
 20
131.98425151172501
 30
0.0
  0
VERTEX
  5
A2A5
  8
0
 10
93.529519568235614
 20
131.86633423836051
 30
0.0
  0
VERTEX
  5
A2A6
  8
0
 10
93.522873301981903
 20
131.80695730332189
 30
0.0
  0
SEQEND
  5
A2A7
  8
0
  0
POLYLINE
  5
546C
  8
0
 66
     1
 10
0.0
 20
0.0
 30
0.0
  0
VERTEX
  5
A2A8
  8
0
 10
148.28623178135649
 20
131.80695730332189
 30
0.0
  0
VERTEX
  5
A2A9
  8
0
 10
148.27958551510281
 20
131.86633423836051
 30
0.0
  0
VERTEX
  5
A2AA
  8
0
 10
148.25964479948649
 20
131.98425151172501
 30
0.0
  0
VERTEX
  5
A2AB
  8
0
 10
148.2308716642786
 20
132.10063050181611
 30
0.0
  0
VERTEX
  5
A2AC
  8
0
 10
148.2131856752176
 20
132.15808225326381
 30
0.0
  0
VERTEX
  5
A2AD
  8
0
 10
148.1933071764544
 20
132.21495560125479
 30
0.0
  0
VERTEX
  5
A2AE
  8
0
 10
148.14699463835649
 20
132.3267041930693
 30
0.0
  0
VERTEX
  5
A2AF
  8
0
 10
148.09197858002179
 20
132.43534345153839
 30
0.0
  0
VERTEX
  5
A2B0
  8
0
 10
148.02830347689439
 20
132.54032627106889
 30
0.0
  0
VERTEX
  5
A2B1
  8
0
 10
147.9560123175969
 20
132.64108603870241
 30
0.0
  0
VERTEX
  5
A2B2
  8
0
 10
147.87512852672739
 20
132.73704819725069
 30
0.0
  0
VERTEX
  5
A2B3
  8
0
 10
147.83143505606409
 20
132.78307435960269
 30
0.0
  0
VERTEX
  5
A2B4
  8
0
 10
147.7855799348518
 20
132.82767821468781
 30
0.0
  0
VERTEX
  5
A2B5
  8
0
 10
147.6874431386633
 20
132.9122151334783
 30
0.0
  0
VERTEX
  5
A2B6
  8
0
 10
147.58085148137729
 20
132.989831688126
 30
0.0
  0
VERTEX
  5
A2B7
  8
0
 10
147.4659614575277
 20
133.0596621856634
 30
0.0
  0
VERTEX
  5
A2B8
  8
0
 10
147.3429486265029
 20
133.1207882628018
 30
0.0
  0
VERTEX
  5
A2B9
  8
0
 10
147.21200498235359
 20
133.1722184973479
 30
0.0
  0
VERTEX
  5
A2BA
  8
0
 10
147.14355223617019
 20
133.1939820589684
 30
0.0
  0
VERTEX
  5
A2BB
  8
0
 10
147.07309920849781
 20
133.21291889719151
 30
0.0
  0
VERTEX
  5
A2BC
  8
0
 10
146.9264670789309
 20
133.24158680018039
 30
0.0
  0
VERTEX
  5
A2BD
  8
0
 10
146.7726250435222
 20
133.25671800139509
 30
0.0
  0
VERTEX
  5
A2BE
  8
0
 10
146.69311589832009
 20
133.25869475505939
 30
0.0
  0
SEQEND
  5
A2BF
  8
0
  0
LINE
  5
546D
  8
0
 10
95.115989185018265
 20
125.25869475505939
 30
0.0
 11
111.32167351740669
 21
126.3216782363565
 31
0.0
  0
POLYLINE
  5
546E
  8
0
 66
     1
 10
0.0
 20
0.0
 30
0.0
  0
VERTEX
  5
A2C0
  8
0
 10
93.522873301981903
 20
126.7104322067968
 30
0.0
  0
VERTEX
  5
A2C1
  8
0
 10
93.529519568235614
 20
126.6510552717583
 30
0.0
  0
VERTEX
  5
A2C2
  8
0
 10
93.549460283851943
 20
126.5331379983937
 30
0.0
  0
VERTEX
  5
A2C3
  8
0
 10
93.578233419059757
 20
126.41675900830271
 30
0.0
  0
VERTEX
  5
A2C4
  8
0
 10
93.595919408120807
 20
126.3593072568549
 30
0.0
  0
VERTEX
  5
A2C5
  8
0
 10
93.615797906883998
 20
126.302433908864
 30
0.0
  0
VERTEX
  5
A2C6
  8
0
 10
93.662110444981877
 20
126.1906853170496
 30
0.0
  0
VERTEX
  5
A2C7
  8
0
 10
93.717126503316564
 20
126.0820460585805
 30
0.0
  0
VERTEX
  5
A2C8
  8
0
 10
93.780801606444015
 20
125.97706323905
 30
0.0
  0
VERTEX
  5
A2C9
  8
0
 10
93.853092765741437
 20
125.87630347141641
 30
0.0
  0
VERTEX
  5
A2CA
  8
0
 10
93.933976556610929
 20
125.7803413128682
 30
0.0
  0
VERTEX
  5
A2CB
  8
0
 10
93.977670027274186
 20
125.7343151505161
 30
0.0
  0
VERTEX
  5
A2CC
  8
0
 10
94.02352514848647
 20
125.689711295431
 30
0.0
  0
VERTEX
  5
A2CD
  8
0
 10
94.121661944674983
 20
125.60517437664051
 30
0.0
  0
VERTEX
  5
A2CE
  8
0
 10
94.228253601960944
 20
125.5275578219928
 30
0.0
  0
VERTEX
  5
A2CF
  8
0
 10
94.343143625810598
 20
125.4577273244555
 30
0.0
  0
VERTEX
  5
A2D0
  8
0
 10
94.466156456835407
 20
125.39660124731699
 30
0.0
  0
VERTEX
  5
A2D1
  8
0
 10
94.59710010098469
 20
125.345171012771
 30
0.0
  0
VERTEX
  5
A2D2
  8
0
 10
94.665552847168016
 20
125.3234074511504
 30
0.0
  0
VERTEX
  5
A2D3
  8
0
 10
94.736005874840416
 20
125.3044706129273
 30
0.0
  0
VERTEX
  5
A2D4
  8
0
 10
94.88263800440734
 20
125.2758027099383
 30
0.0
  0
VERTEX
  5
A2D5
  8
0
 10
95.036480039816126
 20
125.2606715087237
 30
0.0
  0
VERTEX
  5
A2D6
  8
0
 10
95.115989185018265
 20
125.25869475505939
 30
0.0
  0
SEQEND
  5
A2D7
  8
0
  0
LINE
  5
546F
  8
0
 10
146.69311589832009
 20
133.25869475505939
 30
0.0
 11
130.48743156593159
 21
132.1957112737623
 31
0.0
  0
POLYLINE
  5
5470
  8
0
 66
     1
 10
0.0
 20
0.0
 30
0.0
  0
VERTEX
  5
A2D8
  8
0
 10
130.48743156593159
 20
132.1957112737623
 30
0.0
  0
VERTEX
  5
A2D9
  8
0
 10
130.3975796544467
 20
132.19108512036399
 30
0.0
  0
VERTEX
  5
A2DA
  8
0
 10
130.21509089848391
 20
132.1894675477549
 30
0.0
  0
VERTEX
  5
A2DB
  8
0
 10
130.0299329109632
 20
132.19847783685361
 30
0.0
  0
VERTEX
  5
A2DC
  8
0
 10
129.9367460564504
 20
132.20709566056669
 30
0.0
  0
VERTEX
  5
A2DD
  8
0
 10
129.8433602033943
 20
132.21850202355719
 30
0.0
  0
VERTEX
  5
A2DE
  8
0
 10
129.65659498856519
 20
132.2497609482453
 30
0.0
  0
VERTEX
  5
A2DF
  8
0
 10
129.47084750566231
 20
132.29231398599919
 30
0.0
  0
VERTEX
  5
A2E0
  8
0
 10
129.28731687917181
 20
132.3460579475076
 30
0.0
  0
VERTEX
  5
A2E1
  8
0
 10
129.1070948138462
 20
132.41075941570199
 30
0.0
  0
VERTEX
  5
A2E2
  8
0
 10
128.93116533743219
 20
132.4860781036605
 30
0.0
  0
VERTEX
  5
A2E3
  8
0
 10
128.84514537114549
 20
132.52756030174641
 30
0.0
  0
VERTEX
  5
A2E4
  8
0
 10
128.76059424750031
 20
132.57148710369759
 30
0.0
  0
VERTEX
  5
A2E5
  8
0
 10
128.5963810277716
 20
132.6663113073655
 30
0.0
  0
VERTEX
  5
A2E6
  8
0
 10
128.4394316970556
 20
132.7697411750656
 30
0.0
  0
VERTEX
  5
A2E7
  8
0
 10
128.2905834849127
 20
132.88081393603679
 30
0.0
  0
VERTEX
  5
A2E8
  8
0
 10
128.15055875193079
 20
132.99843840424839
 30
0.0
  0
VERTEX
  5
A2E9
  8
0
 10
128.01696322356759
 20
133.12438739470181
 30
0.0
  0
VERTEX
  5
A2EA
  8
0
 10
127.9521207414778
 20
133.19104064350989
 30
0.0
  0
VERTEX
  5
A2EB
  8
0
 10
127.8887956057989
 20
133.26005111340791
 30
0.0
  0
VERTEX
  5
A2EC
  8
0
 10
127.7672894175393
 20
133.4048090184298
 30
0.0
  0
VERTEX
  5
A2ED
  8
0
 10
127.6535320524099
 20
133.55793277700619
 30
0.0
  0
VERTEX
  5
A2EE
  8
0
 10
127.5998601974416
 20
133.6373766794008
 30
0.0
  0
SEQEND
  5
A2EF
  8
0
  0
POLYLINE
  5
5471
  8
0
 66
     1
 10
0.0
 20
0.0
 30
0.0
  0
VERTEX
  5
A2F0
  8
0
 10
114.2092448206493
 20
133.63737657963301
 30
0.0
  0
VERTEX
  5
A2F1
  8
0
 10
114.15817213999929
 20
133.5616640083455
 30
0.0
  0
VERTEX
  5
A2F2
  8
0
 10
114.04816578488909
 20
133.412871287093
 30
0.0
  0
VERTEX
  5
A2F3
  8
0
 10
113.9279946134362
 20
133.26870774885319
 30
0.0
  0
VERTEX
  5
A2F4
  8
0
 10
113.8642508494068
 20
133.19875608380329
 30
0.0
  0
VERTEX
  5
A2F5
  8
0
 10
113.79816532159801
 20
133.1304177414851
 30
0.0
  0
VERTEX
  5
A2F6
  8
0
 10
113.6592996775351
 20
132.99910908207491
 30
0.0
  0
VERTEX
  5
A2F7
  8
0
 10
113.5121458150718
 20
132.87577484913751
 30
0.0
  0
VERTEX
  5
A2F8
  8
0
 10
113.357576692506
 20
132.76129115067769
 30
0.0
  0
VERTEX
  5
A2F9
  8
0
 10
113.19649020989181
 20
132.65635093351131
 30
0.0
  0
VERTEX
  5
A2FA
  8
0
 10
113.0298224420342
 20
132.56150149455729
 30
0.0
  0
VERTEX
  5
A2FB
  8
0
 10
112.94474547821061
 20
132.5180188788859
 30
0.0
  0
VERTEX
  5
A2FC
  8
0
 10
112.8587036495698
 20
132.47723022689661
 30
0.0
  0
VERTEX
  5
A2FD
  8
0
 10
112.6843345959482
 20
132.4038703367039
 30
0.0
  0
VERTEX
  5
A2FE
  8
0
 10
112.50796636142
 20
132.34159252709961
 30
0.0
  0
VERTEX
  5
A2FF
  8
0
 10
112.33092973219929
 20
132.29041318073971
 30
0.0
  0
VERTEX
  5
A300
  8
0
 10
112.1543823045219
 20
132.2501321358221
 30
0.0
  0
VERTEX
  5
A301
  8
0
 10
111.9746842994647
 20
132.21974037401961
 30
0.0
  0
VERTEX
  5
A302
  8
0
 10
111.8832570072845
 20
132.2082833340562
 30
0.0
  0
VERTEX
  5
A303
  8
0
 10
111.7909693634946
 20
132.1994170143609
 30
0.0
  0
VERTEX
  5
A304
  8
0
 10
111.6043933832832
 20
132.189688421846
 30
0.0
  0
VERTEX
  5
A305
  8
0
 10
111.41610350085109
 20
132.19091718196299
 30
0.0
  0
VERTEX
  5
A306
  8
0
 10
111.32167351740669
 20
132.1957112737623
 30
0.0
  0
SEQEND
  5
A307
  8
0
  0
LINE
  5
5517
  8
1
 10
60.051080359811287
 20
20.306670291240611
 30
0.0
 11
60.051080359811287
 21
98.810527226616486
 31
0.0
  0
LINE
  5
5518
  8
0
 10
63.59065496808492
 20
93.692217839614585
 30
0.0
 11
56.511505751537669
 21
93.692217839614585
 31
0.0
  0
LINE
  5
5519
  8
0
 10
52.05108035981128
 20
91.267230587631133
 30
0.0
 11
52.05108035981128
 21
65.692217839614585
 31
0.0
  0
LINE
  5
551A
  8
0
 10
68.051080359811309
 20
65.692217839614585
 30
0.0
 11
68.051080359811309
 21
91.267230587631133
 31
0.0
  0
LINE
  5
551E
  8
0
 10
52.05108035981128
 20
91.267230587631133
 30
0.0
 11
56.12310006115753
 21
91.267230587631133
 31
0.0
  0
LINE
  5
551F
  8
0
 10
64.42976219082847
 20
72.1922178396145
 30
0.0
 11
55.672398535237662
 21
72.1922178396145
 31
0.0
  0
LINE
  5
5520
  8
0
 10
63.979060658465052
 20
91.267230587631133
 30
0.0
 11
68.051080359811294
 21
91.267230587631133
 31
0.0
  0
LINE
  5
5521
  8
0
 10
68.051080359811294
 20
65.692217839614585
 30
0.0
 11
52.05108035981128
 21
65.692217839614585
 31
0.0
  0
LINE
  5
5523
  8
0
 10
64.429762190828455
 20
91.267230587631133
 30
0.0
 11
64.429762190828455
 21
72.1922178396145
 31
0.0
  0
POLYLINE
  5
5524
  8
0
 66
     1
 10
0.0
 20
0.0
 30
0.0
  0
VERTEX
  5
A308
  8
0
 10
64.429762190828455
 20
72.1922178396145
 30
0.0
  0
VERTEX
  5
A309
  8
0
 10
64.355576180269694
 20
72.192648270899269
 30
0.0
  0
VERTEX
  5
A30A
  8
0
 10
64.211764639588097
 20
72.1960800491984
 30
0.0
  0
VERTEX
  5
A30B
  8
0
 10
64.07427835280123
 20
72.202910248069571
 30
0.0
  0
VERTEX
  5
A30C
  8
0
 10
64.007999245631112
 20
72.207587122843535
 30
0.0
  0
VERTEX
  5
A30D
  8
0
 10
63.943412071727487
 20
72.213097628030397
 30
0.0
  0
VERTEX
  5
A30E
  8
0
 10
63.819461702379499
 20
72.226594591505744
 30
0.0
  0
VERTEX
  5
A30F
  8
0
 10
63.703032896148677
 20
72.243297788011176
 30
0.0
  0
VERTEX
  5
A310
  8
0
 10
63.594628015181847
 20
72.263069193896257
 30
0.0
  0
VERTEX
  5
A311
  8
0
 10
63.494421647237331
 20
72.285799449222139
 30
0.0
  0
VERTEX
  5
A312
  8
0
 10
63.402589667936233
 20
72.31137759376773
 30
0.0
  0
VERTEX
  5
A313
  8
0
 10
63.359869123788137
 20
72.325199648362712
 30
0.0
  0
VERTEX
  5
A314
  8
0
 10
63.319308188229151
 20
72.339691631255874
 30
0.0
  0
VERTEX
  5
A315
  8
0
 10
63.244813751244237
 20
72.370601184747983
 30
0.0
  0
VERTEX
  5
A316
  8
0
 10
63.179453019293447
 20
72.403877091618398
 30
0.0
  0
VERTEX
  5
A317
  8
0
 10
63.123298961941138
 20
72.439372475506531
 30
0.0
  0
VERTEX
  5
A318
  8
0
 10
63.076401806017238
 20
72.476953034069169
 30
0.0
  0
VERTEX
  5
A319
  8
0
 10
63.038812090675769
 20
72.516487525910435
 30
0.0
  0
VERTEX
  5
A31A
  8
0
 10
63.023523034001357
 20
72.536947295597429
 30
0.0
  0
VERTEX
  5
A31B
  8
0
 10
63.010582135666482
 20
72.557842414519484
 30
0.0
  0
VERTEX
  5
A31C
  8
0
 10
62.991785093507993
 20
72.600800131516479
 30
0.0
  0
VERTEX
  5
A31D
  8
0
 10
62.982405629430779
 20
72.645198772276245
 30
0.0
  0
VERTEX
  5
A31E
  8
0
 10
62.981235053889321
 20
72.667898824097634
 30
0.0
  0
SEQEND
  5
A31F
  8
0
  0
POLYLINE
  5
5525
  8
0
 66
     1
 10
0.0
 20
0.0
 30
0.0
  0
VERTEX
  5
A320
  8
0
 10
62.981235053889321
 20
72.667898824097634
 30
0.0
  0
VERTEX
  5
A321
  8
0
 10
62.981425937339957
 20
72.677159733021682
 30
0.0
  0
VERTEX
  5
A322
  8
0
 10
62.982952012223159
 20
72.695830854150273
 30
0.0
  0
VERTEX
  5
A323
  8
0
 10
62.986001606129911
 20
72.714694378456755
 30
0.0
  0
VERTEX
  5
A324
  8
0
 10
62.988096878514213
 20
72.724195811013175
 30
0.0
  0
SEQEND
  5
A325
  8
0
  0
POLYLINE
  5
5527
  8
0
 66
     1
 10
0.0
 20
0.0
 30
0.0
  0
VERTEX
  5
A326
  8
0
 10
63.822266153948313
 20
77.663845660011603
 30
0.0
  0
VERTEX
  5
A327
  8
0
 10
63.81587496051668
 20
77.619809794331417
 30
0.0
  0
VERTEX
  5
A328
  8
0
 10
63.80319076333172
 20
77.536762674861592
 30
0.0
  0
VERTEX
  5
A329
  8
0
 10
63.790391270732812
 20
77.458666542917626
 30
0.0
  0
VERTEX
  5
A32A
  8
0
 10
63.783840487756947
 20
77.420858414071773
 30
0.0
  0
SEQEND
  5
A32B
  8
0
  0
POLYLINE
  5
5528
  8
0
 66
     1
 10
0.0
 20
0.0
 30
0.0
  0
VERTEX
  5
A32C
  8
0
 10
56.511505751537669
 20
93.692217839614585
 30
0.0
  0
VERTEX
  5
A32D
  8
0
 10
56.497102212485537
 20
93.689376270448605
 30
0.0
  0
VERTEX
  5
A32E
  8
0
 10
56.467453020026468
 20
93.665590667609507
 30
0.0
  0
VERTEX
  5
A32F
  8
0
 10
56.437105159803863
 20
93.616017227078913
 30
0.0
  0
VERTEX
  5
A330
  8
0
 10
56.421826150408222
 20
93.581258179003584
 30
0.0
  0
VERTEX
  5
A331
  8
0
 10
56.406559850976478
 20
93.539863722070805
 30
0.0
  0
VERTEX
  5
A332
  8
0
 10
56.37630108348467
 20
93.437705906807736
 30
0.0
  0
VERTEX
  5
A333
  8
0
 10
56.34679247435723
 20
93.311478442894128
 30
0.0
  0
VERTEX
  5
A334
  8
0
 10
56.318483887365019
 20
93.164503347558906
 30
0.0
  0
VERTEX
  5
A335
  8
0
 10
56.291686751356551
 20
93.00068739105356
 30
0.0
  0
VERTEX
  5
A336
  8
0
 10
56.2649447702522
 20
92.811671004607859
 30
0.0
  0
VERTEX
  5
A337
  8
0
 10
56.251502874267644
 20
92.706418988515935
 30
0.0
  0
VERTEX
  5
A338
  8
0
 10
56.238099141591569
 20
92.594254940111483
 30
0.0
  0
VERTEX
  5
A339
  8
0
 10
56.211646362714554
 20
92.350406225252385
 30
0.0
  0
VERTEX
  5
A33A
  8
0
 10
56.186035201657411
 20
92.083303473071766
 30
0.0
  0
VERTEX
  5
A33B
  8
0
 10
56.16165767712728
 20
91.79725217631082
 30
0.0
  0
VERTEX
  5
A33C
  8
0
 10
56.13885993136951
 20
91.497802476547363
 30
0.0
  0
VERTEX
  5
A33D
  8
0
 10
56.117917051687229
 20
91.191401518751235
 30
0.0
  0
VERTEX
  5
A33E
  8
0
 10
56.10786179814373
 20
91.032194364473156
 30
0.0
  0
VERTEX
  5
A33F
  8
0
 10
56.097883548539507
 20
90.865557650067416
 30
0.0
  0
VERTEX
  5
A340
  8
0
 10
56.078392381766839
 20
90.512021848386297
 30
0.0
  0
VERTEX
  5
A341
  8
0
 10
56.059867547222417
 20
90.135395136233186
 30
0.0
  0
VERTEX
  5
A342
  8
0
 10
56.05108035981128
 20
89.940110372933788
 30
0.0
  0
SEQEND
  5
A343
  8
0
  0
POLYLINE
  5
5529
  8
0
 66
     1
 10
0.0
 20
0.0
 30
0.0
  0
VERTEX
  5
A344
  8
0
 10
56.05108035981128
 20
80.644325306295357
 30
0.0
  0
VERTEX
  5
A345
  8
0
 10
56.056651308074727
 20
80.519154808585682
 30
0.0
  0
VERTEX
  5
A346
  8
0
 10
56.068204822862
 20
80.274071228773153
 30
0.0
  0
VERTEX
  5
A347
  8
0
 10
56.080235402453972
 20
80.037248172076772
 30
0.0
  0
VERTEX
  5
A348
  8
0
 10
56.086399718222061
 20
79.922369175498375
 30
0.0
  0
VERTEX
  5
A349
  8
0
 10
56.092646017216403
 20
79.810056682329048
 30
0.0
  0
VERTEX
  5
A34A
  8
0
 10
56.105327908635552
 20
79.593711681085978
 30
0.0
  0
VERTEX
  5
A34B
  8
0
 10
56.118160305153978
 20
79.389285081871606
 30
0.0
  0
VERTEX
  5
A34C
  8
0
 10
56.131322435661879
 20
79.193214063244682
 30
0.0
  0
VERTEX
  5
A34D
  8
0
 10
56.145272547379491
 20
78.999026543622819
 30
0.0
  0
VERTEX
  5
A34E
  8
0
 10
56.159953851546938
 20
78.80844256372032
 30
0.0
  0
VERTEX
  5
A34F
  8
0
 10
56.167545135682971
 20
78.715040562037728
 30
0.0
  0
VERTEX
  5
A350
  8
0
 10
56.175289780945647
 20
78.623162712456377
 30
0.0
  0
VERTEX
  5
A351
  8
0
 10
56.191193983542853
 20
78.444707025189217
 30
0.0
  0
VERTEX
  5
A352
  8
0
 10
56.207570294449518
 20
78.274409983638947
 30
0.0
  0
VERTEX
  5
A353
  8
0
 10
56.224317527402988
 20
78.113371938169848
 30
0.0
  0
VERTEX
  5
A354
  8
0
 10
56.241323902436008
 20
77.962520307791266
 30
0.0
  0
VERTEX
  5
A355
  8
0
 10
56.258467777509068
 20
77.822596333588393
 30
0.0
  0
VERTEX
  5
A356
  8
0
 10
56.267051426350001
 20
77.756905537888571
 30
0.0
  0
VERTEX
  5
A357
  8
0
 10
56.275620694805681
 20
77.694129360782682
 30
0.0
  0
VERTEX
  5
A358
  8
0
 10
56.292646750457877
 20
77.577447736184951
 30
0.0
  0
VERTEX
  5
A359
  8
0
 10
56.309607569143068
 20
77.471462489983281
 30
0.0
  0
VERTEX
  5
A35A
  8
0
 10
56.318320231865627
 20
77.420858414071773
 30
0.0
  0
SEQEND
  5
A35B
  8
0
  0
POLYLINE
  5
552A
  8
0
 66
     1
 10
0.0
 20
0.0
 30
0.0
  0
VERTEX
  5
A35C
  8
0
 10
56.318320231865627
 20
77.420858414071773
 30
0.0
  0
VERTEX
  5
A35D
  8
0
 10
56.441147092838683
 20
76.505318444530957
 30
0.0
  0
VERTEX
  5
A35E
  8
0
 10
56.701286352766083
 20
74.805112811509588
 30
0.0
  0
VERTEX
  5
A35F
  8
0
 10
56.859680047096639
 20
73.920126136047045
 30
0.0
  0
VERTEX
  5
A360
  8
0
 10
56.905561716065442
 20
73.684162474079955
 30
0.0
  0
VERTEX
  5
A361
  8
0
 10
56.951655392366121
 20
73.456167038783207
 30
0.0
  0
VERTEX
  5
A362
  8
0
 10
56.97477025658776
 20
73.345227011473185
 30
0.0
  0
VERTEX
  5
A363
  8
0
 10
56.997924322400081
 20
73.236360273577617
 30
0.0
  0
VERTEX
  5
A364
  8
0
 10
57.044324889187543
 20
73.024974440208808
 30
0.0
  0
VERTEX
  5
A365
  8
0
 10
57.090804530309349
 20
72.822258240594039
 30
0.0
  0
VERTEX
  5
A366
  8
0
 10
57.114063841108369
 20
72.724195811013175
 30
0.0
  0
SEQEND
  5
A367
  8
0
  0
LINE
  5
552B
  8
0
 10
56.05108035981128
 20
89.940110372933788
 30
0.0
 11
56.05108035981128
 21
80.644325306295357
 31
0.0
  0
POLYLINE
  5
552E
  8
0
 66
     1
 10
0.0
 20
0.0
 30
0.0
  0
VERTEX
  5
A368
  8
0
 10
64.051080359811294
 20
89.940110372933844
 30
0.0
  0
VERTEX
  5
A369
  8
0
 10
64.04229317240015
 20
90.135395136233186
 30
0.0
  0
VERTEX
  5
A36A
  8
0
 10
64.023768337855728
 20
90.512021848386297
 30
0.0
  0
VERTEX
  5
A36B
  8
0
 10
64.004277171083061
 20
90.865557650067416
 30
0.0
  0
VERTEX
  5
A36C
  8
0
 10
63.994298921478837
 20
91.032194364473156
 30
0.0
  0
VERTEX
  5
A36D
  8
0
 10
63.98424366793536
 20
91.191401518751235
 30
0.0
  0
VERTEX
  5
A36E
  8
0
 10
63.963300788253072
 20
91.497802476547434
 30
0.0
  0
VERTEX
  5
A36F
  8
0
 10
63.940503042495287
 20
91.797252176310863
 30
0.0
  0
VERTEX
  5
A370
  8
0
 10
63.916125517965163
 20
92.083303473071823
 30
0.0
  0
VERTEX
  5
A371
  8
0
 10
63.890514356908021
 20
92.350406225252385
 30
0.0
  0
VERTEX
  5
A372
  8
0
 10
63.864061578030999
 20
92.594254940111483
 30
0.0
  0
VERTEX
  5
A373
  8
0
 10
63.850657845354931
 20
92.706418988515878
 30
0.0
  0
VERTEX
  5
A374
  8
0
 10
63.837215949370368
 20
92.811671004607859
 30
0.0
  0
VERTEX
  5
A375
  8
0
 10
63.810473968266017
 20
93.00068739105356
 30
0.0
  0
VERTEX
  5
A376
  8
0
 10
63.783676832257548
 20
93.164503347558906
 30
0.0
  0
VERTEX
  5
A377
  8
0
 10
63.755368245265331
 20
93.311478442894128
 30
0.0
  0
VERTEX
  5
A378
  8
0
 10
63.725859636137912
 20
93.437705906807736
 30
0.0
  0
VERTEX
  5
A379
  8
0
 10
63.695600868646089
 20
93.539863722070805
 30
0.0
  0
VERTEX
  5
A37A
  8
0
 10
63.680334569214352
 20
93.581258179003584
 30
0.0
  0
VERTEX
  5
A37B
  8
0
 10
63.665055559818711
 20
93.616017227078913
 30
0.0
  0
VERTEX
  5
A37C
  8
0
 10
63.634707699596092
 20
93.665590667609507
 30
0.0
  0
VERTEX
  5
A37D
  8
0
 10
63.605058507137038
 20
93.689376270448605
 30
0.0
  0
VERTEX
  5
A37E
  8
0
 10
63.59065496808492
 20
93.692217839614585
 30
0.0
  0
SEQEND
  5
A37F
  8
0
  0
POLYLINE
  5
552F
  8
0
 66
     1
 10
0.0
 20
0.0
 30
0.0
  0
VERTEX
  5
A380
  8
0
 10
62.988096878514213
 20
72.724195811013175
 30
0.0
  0
VERTEX
  5
A381
  8
0
 10
63.011356189313233
 20
72.822258240594039
 30
0.0
  0
VERTEX
  5
A382
  8
0
 10
63.057835830435039
 20
73.024974440208808
 30
0.0
  0
VERTEX
  5
A383
  8
0
 10
63.104236397222508
 20
73.236360273577645
 30
0.0
  0
VERTEX
  5
A384
  8
0
 10
63.127390463034828
 20
73.345227011473185
 30
0.0
  0
VERTEX
  5
A385
  8
0
 10
63.150505327256461
 20
73.456167038783207
 30
0.0
  0
VERTEX
  5
A386
  8
0
 10
63.196599003557139
 20
73.684162474079955
 30
0.0
  0
VERTEX
  5
A387
  8
0
 10
63.242480672525943
 20
73.920126136047045
 30
0.0
  0
VERTEX
  5
A388
  8
0
 10
63.400874366856513
 20
74.805112811509559
 30
0.0
  0
VERTEX
  5
A389
  8
0
 10
63.661013626783891
 20
76.505318444530957
 30
0.0
  0
VERTEX
  5
A38A
  8
0
 10
63.783840487756947
 20
77.420858414071773
 30
0.0
  0
SEQEND
  5
A38B
  8
0
  0
LINE
  5
5531
  8
0
 10
64.051080359811294
 20
89.940110372933844
 30
0.0
 11
64.051080359811294
 21
80.644325306295343
 31
0.0
  0
LINE
  5
5534
  8
0
 10
55.67239853523769
 20
91.267230587631133
 30
0.0
 11
55.67239853523769
 21
72.1922178396145
 31
0.0
  0
POLYLINE
  5
5536
  8
0
 66
     1
 10
0.0
 20
0.0
 30
0.0
  0
VERTEX
  5
A38C
  8
0
 10
57.11406384110839
 20
72.724195811013175
 30
0.0
  0
VERTEX
  5
A38D
  8
0
 10
57.116158633576283
 20
72.714696765990226
 30
0.0
  0
VERTEX
  5
A38E
  8
0
 10
57.11920818605801
 20
72.695835129910535
 30
0.0
  0
VERTEX
  5
A38F
  8
0
 10
57.120734685142509
 20
72.677162095906709
 30
0.0
  0
VERTEX
  5
A390
  8
0
 10
57.120925665733267
 20
72.667898823948832
 30
0.0
  0
SEQEND
  5
A391
  8
0
  0
POLYLINE
  5
5537
  8
0
 66
     1
 10
0.0
 20
0.0
 30
0.0
  0
VERTEX
  5
A392
  8
0
 10
57.120925665733267
 20
72.667898823948832
 30
0.0
  0
VERTEX
  5
A393
  8
0
 10
57.119750702733221
 20
72.645156589067597
 30
0.0
  0
VERTEX
  5
A394
  8
0
 10
57.110332460489779
 20
72.60066631882799
 30
0.0
  0
VERTEX
  5
A395
  8
0
 10
57.091478015154792
 20
72.557662161046693
 30
0.0
  0
VERTEX
  5
A396
  8
0
 10
57.078511417087121
 20
72.536762461171691
 30
0.0
  0
VERTEX
  5
A397
  8
0
 10
57.063184645459224
 20
72.516286102823329
 30
0.0
  0
VERTEX
  5
A398
  8
0
 10
57.025448707343848
 20
72.476670073132141
 30
0.0
  0
VERTEX
  5
A399
  8
0
 10
56.978354568047479
 20
72.439013075433166
 30
0.0
  0
VERTEX
  5
A39A
  8
0
 10
56.92207115405327
 20
72.403517057183592
 30
0.0
  0
VERTEX
  5
A39B
  8
0
 10
56.856704636419892
 20
72.370306496838865
 30
0.0
  0
VERTEX
  5
A39C
  8
0
 10
56.782362351599183
 20
72.339507684346415
 30
0.0
  0
VERTEX
  5
A39D
  8
0
 10
56.741858914833529
 20
72.325052609810996
 30
0.0
  0
VERTEX
  5
A39E
  8
0
 10
56.69915177603626
 20
72.311248574327124
 30
0.0
  0
VERTEX
  5
A39F
  8
0
 10
56.607179117922001
 20
72.285658608111788
 30
0.0
  0
VERTEX
  5
A3A0
  8
0
 10
56.50656372176843
 20
72.262871861272373
 30
0.0
  0
VERTEX
  5
A3A1
  8
0
 10
56.3979150711803
 20
72.243101153888091
 30
0.0
  0
VERTEX
  5
A3A2
  8
0
 10
56.281703207356131
 20
72.226469552530375
 30
0.0
  0
VERTEX
  5
A3A3
  8
0
 10
56.15819887522867
 20
72.213046548728073
 30
0.0
  0
VERTEX
  5
A3A4
  8
0
 10
56.093796505723937
 20
72.207558723774653
 30
0.0
  0
VERTEX
  5
A3A5
  8
0
 10
56.02767230946916
 20
72.20289692517872
 30
0.0
  0
VERTEX
  5
A3A6
  8
0
 10
55.890392986665482
 20
72.196079936251024
 30
0.0
  0
VERTEX
  5
A3A7
  8
0
 10
55.746629024491298
 20
72.192648792155552
 30
0.0
  0
VERTEX
  5
A3A8
  8
0
 10
55.67239853523769
 20
72.1922178396145
 30
0.0
  0
SEQEND
  5
A3A9
  8
0
  0
POLYLINE
  5
5A42
  8
0
 66
     1
 10
0.0
 20
0.0
 30
0.0
  0
VERTEX
  5
A3AA
  8
0
 10
64.051080359811223
 20
80.644325306295357
 30
0.0
  0
VERTEX
  5
A3AB
  8
0
 10
64.045509411547755
 20
80.519154808585682
 30
0.0
  0
VERTEX
  5
A3AC
  8
0
 10
64.033955896760503
 20
80.274071228773153
 30
0.0
  0
VERTEX
  5
A3AD
  8
0
 10
64.021925317168524
 20
80.037248172076772
 30
0.0
  0
VERTEX
  5
A3AE
  8
0
 10
64.015761001400421
 20
79.922369175498375
 30
0.0
  0
VERTEX
  5
A3AF
  8
0
 10
64.009514702406079
 20
79.810056682329048
 30
0.0
  0
VERTEX
  5
A3B0
  8
0
 10
63.996832810986938
 20
79.593711681085978
 30
0.0
  0
VERTEX
  5
A3B1
  8
0
 10
63.984000414468511
 20
79.389285081871606
 30
0.0
  0
VERTEX
  5
A3B2
  8
0
 10
63.970838283960603
 20
79.193214063244682
 30
0.0
  0
VERTEX
  5
A3B3
  8
0
 10
63.956888172242998
 20
78.999026543622819
 30
0.0
  0
VERTEX
  5
A3B4
  8
0
 10
63.942206868075537
 20
78.80844256372032
 30
0.0
  0
VERTEX
  5
A3B5
  8
0
 10
63.934615583939511
 20
78.715040562037728
 30
0.0
  0
VERTEX
  5
A3B6
  8
0
 10
63.926870938676842
 20
78.623162712456377
 30
0.0
  0
VERTEX
  5
A3B7
  8
0
 10
63.910966736079651
 20
78.444707025189217
 30
0.0
  0
VERTEX
  5
A3B8
  8
0
 10
63.894590425172957
 20
78.274409983638947
 30
0.0
  0
VERTEX
  5
A3B9
  8
0
 10
63.877843192219501
 20
78.113371938169848
 30
0.0
  0
VERTEX
  5
A3BA
  8
0
 10
63.860836817186481
 20
77.962520307791266
 30
0.0
  0
VERTEX
  5
A3BB
  8
0
 10
63.843692942113407
 20
77.822596333588393
 30
0.0
  0
VERTEX
  5
A3BC
  8
0
 10
63.835109293272502
 20
77.756905537888571
 30
0.0
  0
VERTEX
  5
A3BD
  8
0
 10
63.826540024816822
 20
77.694129360782682
 30
0.0
  0
VERTEX
  5
A3BE
  8
0
 10
63.809513969164612
 20
77.577447736184951
 30
0.0
  0
VERTEX
  5
A3BF
  8
0
 10
63.792553150479421
 20
77.471462489983281
 30
0.0
  0
VERTEX
  5
A3C0
  8
0
 10
63.783840487756862
 20
77.420858414071773
 30
0.0
  0
SEQEND
  5
A3C1
  8
0
  0
CIRCLE
  5
5B72
  8
0
 10
120.9045525416692
 20
129.25869475505939
 30
0.0
 40
6.0
  0
CIRCLE
  5
5B74
  8
0
 62
     7
 10
124.9045525416691
 20
129.25869475505939
 30
0.0
 40
0.6
  0
CIRCLE
  5
5B76
  8
0
 62
     7
 10
120.9045525416692
 20
129.25869475505939
 30
0.0
 40
0.6
  0
CIRCLE
  5
5B77
  8
0
 62
     7
 10
116.9045525416691
 20
129.25869475505939
 30
0.0
 40
0.6
  0
CIRCLE
  5
5B78
  8
0
 62
     7
 10
118.9045525416691
 20
129.25869475505939
 30
0.0
 40
0.6
  0
CIRCLE
  5
5B79
  8
0
 62
     7
 10
122.9045525416692
 20
129.25869475505939
 30
0.0
 40
0.6
  0
ARC
  5
5B7F
  8
0
 10
60.051080359811387
 20
85.062358530287412
 30
0.0
 40
8.6313635798757442
 50
45.961681682996968
 51
63.990547733298591
  0
ARC
  5
5B80
  8
0
 10
60.051080359811387
 20
85.062358530287412
 30
0.0
 40
8.6313635798757442
 50
116.00945226670321
 51
134.03831831700299
  0
ARC
  5
5C06
  8
0
 10
120.9045525416692
 20
85.057004780653727
 30
0.0
 40
8.6352130589608596
 50
45.986375003063429
 51
134.01362499693639
  0
ARC
  5
96E3
  8
0
 10
120.9045525416692
 20
129.25869475505939
 30
0.0
 40
8.0
 50
33.184390710109312
 51
146.8156101436569
  0
ARC
  5
96E4
  8
0
 10
120.9045525416692
 20
129.25869475505939
 30
0.0
 40
8.0
 50
213.18438991148241
 51
326.81560928989052
  0
LINE
  5
9F66
  8
3
 62
     3
 10
117.9502190313783
 20
63.692217839614578
 30
0.0
 11
116.90323937449131
 21
64.739197496501419
 31
0.0
  0
LINE
  5
9F69
  8
0
 10
124.9058657088471
 20
65.692217839614585
 30
0.0
 11
124.9058657088471
 21
27.857281349075691
 31
0.0
  0
LINE
  5
9F6A
  8
3
 62
     3
 10
123.8588860519601
 20
63.692217839614578
 30
0.0
 11
123.8588860519602
 21
26.043859388856479
 31
0.0
  0
LINE
  5
9F6B
  8
3
 62
     3
 10
117.95284536573401
 20
63.692217839614578
 30
0.0
 11
117.95284536573401
 21
26.043859388856479
 31
0.0
  0
LINE
  5
9F6C
  8
0
 10
116.9058657088471
 20
65.692217839614585
 30
0.0
 11
116.9058657088471
 21
27.857281349075691
 31
0.0
  0
LINE
  5
9F6D
  8
0
 10
124.9058657088471
 20
27.857281349075691
 30
0.0
 11
123.6558657088471
 21
25.692217839614589
 31
0.0
  0
LINE
  5
9F6E
  8
0
 10
124.9058657088471
 20
27.857281349075691
 30
0.0
 11
120.9045525416692
 21
27.857281349075691
 31
0.0
  0
LINE
  5
9F6F
  8
0
 10
120.905865708847
 20
25.692217839614589
 30
0.0
 11
118.1558657088471
 21
25.692217839614589
 31
0.0
  0
LINE
  5
9F70
  8
0
 10
116.9058657088471
 20
27.857281349075691
 30
0.0
 11
120.9045525416692
 21
27.857281349075691
 31
0.0
  0
LINE
  5
9F71
  8
0
 10
118.1558657088471
 20
25.692217839614589
 30
0.0
 11
116.9058657088471
 21
27.857281349075691
 31
0.0
  0
LINE
  5
9F72
  8
0
 10
120.905865708847
 20
25.692217839614589
 30
0.0
 11
123.6558657088471
 21
25.692217839614589
 31
0.0
  0
LINE
  5
9F73
  8
3
 62
     3
 10
123.8588860519601
 20
63.692217839614578
 30
0.0
 11
124.9058657088471
 21
64.739197496501419
 31
0.0
  0
LINE
  5
9F74
  8
0
 10
120.905865708847
 20
63.692217839614578
 30
0.0
 11
124.9058657088471
 21
63.692217839614578
 31
0.0
  0
LINE
  5
9F75
  8
0
 10
120.905865708847
 20
63.692217839614578
 30
0.0
 11
116.9058657088471
 21
63.692217839614578
 31
0.0
  0
LINE
  5
9F76
  8
3
 62
     3
 10
57.0967468495204
 20
63.692217839614578
 30
0.0
 11
56.049767192633396
 21
64.739197496501419
 31
0.0
  0
LINE
  5
9F79
  8
0
 10
64.052393526989192
 20
65.692217839614585
 30
0.0
 11
64.052393526989192
 21
27.857281349075691
 31
0.0
  0
LINE
  5
9F7A
  8
3
 62
     3
 10
63.005413870102188
 20
63.692217839614578
 30
0.0
 11
63.005413870102331
 21
26.043859388856479
 31
0.0
  0
LINE
  5
9F7B
  8
3
 62
     3
 10
57.099373183876082
 20
63.692217839614578
 30
0.0
 11
57.099373183876082
 21
26.043859388856479
 31
0.0
  0
LINE
  5
9F7C
  8
0
 10
56.052393526989221
 20
65.692217839614585
 30
0.0
 11
56.052393526989221
 21
27.857281349075691
 31
0.0
  0
LINE
  5
9F7D
  8
0
 10
64.052393526989192
 20
27.857281349075691
 30
0.0
 11
62.802393526989192
 21
25.692217839614589
 31
0.0
  0
LINE
  5
9F7E
  8
0
 10
64.052393526989192
 20
27.857281349075691
 30
0.0
 11
60.051080359811287
 21
27.857281349075691
 31
0.0
  0
LINE
  5
9F7F
  8
0
 10
60.052393526989142
 20
25.692217839614589
 30
0.0
 11
57.302393526989221
 21
25.692217839614589
 31
0.0
  0
LINE
  5
9F80
  8
0
 10
56.052393526989221
 20
27.857281349075691
 30
0.0
 11
60.051080359811287
 21
27.857281349075691
 31
0.0
  0
LINE
  5
9F81
  8
0
 10
57.302393526989221
 20
25.692217839614589
 30
0.0
 11
56.052393526989221
 21
27.857281349075691
 31
0.0
  0
LINE
  5
9F82
  8
0
 10
60.052393526989142
 20
25.692217839614589
 30
0.0
 11
62.802393526989192
 21
25.692217839614589
 31
0.0
  0
LINE
  5
9F83
  8
3
 62
     3
 10
63.005413870102188
 20
63.692217839614578
 30
0.0
 11
64.052393526989192
 21
64.739197496501419
 31
0.0
  0
LINE
  5
9F84
  8
0
 10
60.052393526989142
 20
63.692217839614578
 30
0.0
 11
64.052393526989192
 21
63.692217839614578
 31
0.0
  0
LINE
  5
9F85
  8
0
 10
60.052393526989142
 20
63.692217839614578
 30
0.0
 11
56.052393526989221
 21
63.692217839614578
 31
0.0
  0
TEXT
  5
A189
  8
0
 62
     3
 10
0.0
 20
0.0
 30
0.0
 40
10.0
  1
EWN55X40-LB
  7
STANDARD1
  0
ENDSEC
  0
EOF
