  0
SECTION
  2
HEADER
  9
$ACADVER
  1
AC1009
  9
$INSBASE
 10
0.0
 20
0.0
 30
0.0
  9
$EXTMIN
 10
0.0
 20
-2.9604365620736979
 30
0.0
  9
$EXTMAX
 10
258.91666666666708
 20
196.00000000000011
 30
0.0
  9
$LIMMIN
 10
0.0
 20
0.0
  9
$LIMMAX
 10
385.0
 20
270.0
  9
$ORTHOMODE
 70
     1
  9
$REGENMODE
 70
     1
  9
$FILLMODE
 70
     1
  9
$QTEXTMODE
 70
     0
  9
$MIRRTEXT
 70
     0
  9
$DRAGMODE
 70
     2
  9
$LTSCALE
 40
5.0
  9
$OSMODE
 70
    37
  9
$ATTMODE
 70
     1
  9
$TEXTSIZE
 40
4.0
  9
$TRACEWID
 40
0.05
  9
$TEXTSTYLE
  7
STANDARD
  9
$CLAYER
  8
0
  9
$CELTYPE
  6
BYLAYER
  9
$CECOLOR
 62
   256
  9
$DIMSCALE
 40
1.0
  9
$DIMASZ
 40
3.0
  9
$DIMEXO
 40
1.0
  9
$DIMDLI
 40
6.0
  9
$DIMRND
 40
0.0
  9
$DIMDLE
 40
0.0
  9
$DIMEXE
 40
1.0
  9
$DIMTP
 40
495.0
  9
$DIMTM
 40
0.0
  9
$DIMTXT
 40
3.0
  9
$DIMCEN
 40
0.0
  9
$DIMTSZ
 40
0.0
  9
$DIMTOL
 70
     0
  9
$DIMLIM
 70
     0
  9
$DIMTIH
 70
     0
  9
$DIMTOH
 70
     0
  9
$DIMSE1
 70
     0
  9
$DIMSE2
 70
     0
  9
$DIMTAD
 70
     1
  9
$DIMZIN
 70
     8
  9
$DIMBLK
  1

  9
$DIMASO
 70
     1
  9
$DIMSHO
 70
     0
  9
$DIMPOST
  1

  9
$DIMAPOST
  1

  9
$DIMALT
 70
     0
  9
$DIMALTD
 70
     2
  9
$DIMALTF
 40
25.399999999999999
  9
$DIMLFAC
 40
1.0
  9
$DIMTOFL
 70
     1
  9
$DIMTVP
 40
0.0
  9
$DIMTIX
 70
     0
  9
$DIMSOXD
 70
     0
  9
$DIMSAH
 70
     0
  9
$DIMBLK1
  1

  9
$DIMBLK2
  1

  9
$DIMSTYLE
  2
STANDARD
  9
$DIMCLRD
 70
     0
  9
$DIMCLRE
 70
     0
  9
$DIMCLRT
 70
     0
  9
$DIMTFAC
 40
1.0
  9
$DIMGAP
 40
1.0
  9
$LUNITS
 70
     2
  9
$LUPREC
 70
     1
  9
$SKETCHINC
 40
0.1
  9
$FILLETRAD
 40
2.0
  9
$AUNITS
 70
     0
  9
$AUPREC
 70
     1
  9
$MENU
  1
E:\r13\win\SUPPORT\ACAD
  9
$ELEVATION
 40
0.0
  9
$PELEVATION
 40
0.0
  9
$THICKNESS
 40
0.0
  9
$LIMCHECK
 70
     0
  9
$BLIPMODE
 70
     0
  9
$CHAMFERA
 40
0.0
  9
$CHAMFERB
 40
0.0
  9
$SKPOLY
 70
     0
  9
$TDCREATE
 40
2450541.3939600689
  9
$TDUPDATE
 40
2459429.574258727
  9
$TDINDWG
 40
1.9612381713
  9
$TDUSRTIMER
 40
1.9612381713
  9
$USRTIMER
 70
     1
  9
$ANGBASE
 50
0.0
  9
$ANGDIR
 70
     0
  9
$PDMODE
 70
     0
  9
$PDSIZE
 40
0.0
  9
$PLINEWID
 40
0.0
  9
$COORDS
 70
     1
  9
$SPLFRAME
 70
     0
  9
$SPLINETYPE
 70
     6
  9
$SPLINESEGS
 70
     8
  9
$ATTDIA
 70
     0
  9
$ATTREQ
 70
     1
  9
$HANDLING
 70
     1
  9
$HANDSEED
  5
1EFD8
  9
$SURFTAB1
 70
     6
  9
$SURFTAB2
 70
     6
  9
$SURFTYPE
 70
     6
  9
$SURFU
 70
     6
  9
$SURFV
 70
     6
  9
$UCSNAME
  2

  9
$UCSORG
 10
0.0
 20
0.0
 30
0.0
  9
$UCSXDIR
 10
1.0
 20
0.0
 30
0.0
  9
$UCSYDIR
 10
0.0
 20
1.0
 30
0.0
  9
$PUCSNAME
  2

  9
$PUCSORG
 10
0.0
 20
0.0
 30
0.0
  9
$PUCSXDIR
 10
1.0
 20
0.0
 30
0.0
  9
$PUCSYDIR
 10
0.0
 20
1.0
 30
0.0
  9
$USERI1
 70
     3
  9
$USERI2
 70
     1
  9
$USERI3
 70
     1
  9
$USERI4
 70
     0
  9
$USERI5
 70
     0
  9
$USERR1
 40
1.0
  9
$USERR2
 40
3.0
  9
$USERR3
 40
3.0
  9
$USERR4
 40
3.0
  9
$USERR5
 40
10.0
  9
$WORLDVIEW
 70
     1
  9
$SHADEDGE
 70
     3
  9
$SHADEDIF
 70
    70
  9
$TILEMODE
 70
     1
  9
$MAXACTVP
 70
    16
  9
$PLIMCHECK
 70
     0
  9
$PEXTMIN
 10
1.0000000000000000E+020
 20
1.0000000000000000E+020
 30
1.0000000000000000E+020
  9
$PEXTMAX
 10
-1.0000000000000000E+020
 20
-1.0000000000000000E+020
 30
-1.0000000000000000E+020
  9
$PLIMMIN
 10
0.0
 20
0.0
  9
$PLIMMAX
 10
12.0
 20
9.0
  9
$UNITMODE
 70
     0
  9
$VISRETAIN
 70
     0
  9
$PLINEGEN
 70
     0
  9
$PSLTSCALE
 70
     0
  0
ENDSEC
  0
SECTION
  2
TABLES
  0
TABLE
  2
VPORT
 70
     1
  0
VPORT
  2
*ACTIVE
 70
     0
 10
0.0
 20
0.0
 11
1.0
 21
1.0
 12
227.43851156734681
 22
96.515824414949407
 13
0.0
 23
0.0
 14
5.0
 24
5.0
 15
10.0
 25
10.0
 16
0.0
 26
0.0
 36
1.0
 17
0.0
 27
0.0
 37
0.0
 40
200.72204593443161
 41
2.3805970149253728
 42
50.0
 43
0.0
 44
0.0
 50
0.0
 51
0.0
 71
     0
 72
   100
 73
     1
 74
     0
 75
     0
 76
     0
 77
     0
 78
     0
  0
ENDTAB
  0
TABLE
  2
LTYPE
 70
     4
  0
LTYPE
  2
CONTINUOUS
 70
     0
  3
Solid Line
 72
    65
 73
     0
 40
0.0
  0
LTYPE
  2
CENTER
 70
     0
  3
____ _ ____ _ ____ _ ____ _ ____ _ ____ _ ____
 72
    65
 73
     4
 40
2.0
 49
1.25
 49
-0.25
 49
0.25
 49
-0.25
  0
LTYPE
  2
HIDDEN
 70
     0
  3
_ _ _ _ _ _ _ _ _ _ _ _ _ _ _ _ _ _ _ _ _ _ _
 72
    65
 73
     2
 40
0.375
 49
0.25
 49
-0.125
  0
LTYPE
  2
PHANTOM2
 70
     0
  3
___ _ _ ___ _ _ ___ _ _ ___ _ _
 72
    65
 73
     6
 40
1.25
 49
0.625
 49
-0.125
 49
0.125
 49
-0.125
 49
0.125
 49
-0.125
  0
ENDTAB
  0
TABLE
  2
LAYER
 70
     6
  0
LAYER
  2
0
 70
     0
 62
     7
  6
CONTINUOUS
  0
LAYER
  2
1
 70
     0
 62
     1
  6
CENTER
  0
LAYER
  2
2
 70
     0
 62
     2
  6
HIDDEN
  0
LAYER
  2
DEFPOINTS
 70
     0
 62
     7
  6
CONTINUOUS
  0
LAYER
  2
4
 70
     0
 62
     4
  6
CONTINUOUS
  0
LAYER
  2
3
 70
     0
 62
     3
  6
CONTINUOUS
  0
ENDTAB
  0
TABLE
  2
STYLE
 70
     2
  0
STYLE
  2
STANDARD
 70
     0
 40
0.0
 41
1.0
 50
0.0
 71
     0
 42
4.0
  3
SIMPLEX
  4
BIGFONT
  0
STYLE
  2
STANDARD1
 70
     0
 40
0.0
 41
1.0
 50
0.0
 71
     0
 42
3.0
  3
txt
  4

  0
ENDTAB
  0
TABLE
  2
VIEW
 70
     0
  0
ENDTAB
  0
TABLE
  2
UCS
 70
     0
  0
ENDTAB
  0
TABLE
  2
APPID
 70
    43
  0
APPID
  2
ACAD
 70
     0
  0
APPID
  2
ASM_BASE
 70
     0
  0
APPID
  2
ASM_EXPLO_VER_2_00
 70
     0
  0
APPID
  2
ASM_CADM_VER_12_00
 70
     0
  0
APPID
  2
ASM_BASEFORO
 70
     0
  0
APPID
  2
ASM_BASETRAVI
 70
     0
  0
APPID
  2
ASM_BASETRAVI1
 70
     0
  0
APPID
  2
ASM_GRUPPI
 70
     0
  0
APPID
  2
ASM_CADM_ALBERO
 70
     0
  0
APPID
  2
ASM_GOLE
 70
     0
  0
APPID
  2
ACAD_EXEMPT_FROM_CAD_STANDARDS
 70
     0
  0
APPID
  2
ACAD_DSTYLE_DIMJAG
 70
     0
  0
APPID
  2
ACAD_DSTYLE_DIMTALN
 70
     0
  0
APPID
  2
ACAD_MLEADERVER
 70
     0
  0
APPID
  2
ACAD_NAV_VCDISPLAY
 70
     0
  0
APPID
  2
ACAD_DSTYLE_DIMRADIAL_EXTENSION
 70
     0
  0
APPID
  2
DCO15
 70
     0
  0
APPID
  2
ACADANNOTATIVE
 70
     0
  0
APPID
  2
GENIUS_GENODEF_13
 70
     0
  0
APPID
  2
GENIUS_GENFIL_13
 70
     0
  0
APPID
  2
GENIUS_GENOBJ-N-CHA_13
 70
     0
  0
APPID
  2
GENIUS_GENOREF_13
 70
     0
  0
APPID
  2
GENIUS_GENOENT_13
 70
     0
  0
APPID
  2
GENIUS_GENBH_13
 70
     0
  0
APPID
  2
GENIUS_GENOBJ_13
 70
     0
  0
APPID
  2
GENIUS_GENOLIS_13
 70
     0
  0
APPID
  2
GENIUS_GENOBJ-NBEHI-BHF_13
 70
     0
  0
APPID
  2
GENIUS_GENOBJ-NBEHI-BHB_13
 70
     0
  0
APPID
  2
GENIUS_GENOBJ-F-PART_13
 70
     0
  0
APPID
  2
GENIUS_GEFSTDP_13
 70
     0
  0
APPID
  2
GENIUS_GENOBJ-N-RSSYM_13
 70
     0
  0
APPID
  2
GENIUS_GENSYMENT_13
 70
     0
  0
APPID
  2
GENIUS_GENOBJ-N-TIT_13
 70
     0
  0
APPID
  2
GENIUS_GENTITLE_13
 70
     0
  0
APPID
  2
GENIUS_GENZVEED_13
 70
     0
  0
APPID
  2
GENIUS_GENOBJ-N-LEADER_13
 70
     0
  0
APPID
  2
GENIUS_GENOBJ-N-FIL_13
 70
     0
  0
APPID
  2
GENIUS_GENOBJ-N-SEC_13
 70
     0
  0
APPID
  2
GENIUS_GENOBJ-N-CRS_13
 70
     0
  0
APPID
  2
GENIUS_GENOBJ-N-ZOO_13
 70
     0
  0
APPID
  2
GENIUS_GENZOO_13
 70
     0
  0
APPID
  2
GENIUS_GENOBJ-F-TOL_13
 70
     0
  0
APPID
  2
_CALL_MAC$
 70
     0
  0
ENDTAB
  0
TABLE
  2
DIMSTYLE
 70
     1
  0
DIMSTYLE
  2
STANDARD
 70
     0
  3

  4

  5

  6

  7

 40
1.0
 41
0.18
 42
0.0625
 43
0.38
 44
0.18
 45
0.0
 46
0.0
 47
0.0
 48
0.0
140
0.18
141
0.09
142
0.0
143
25.399999999999999
144
1.0
145
0.0
146
1.0
147
0.09
 71
     0
 72
     0
 73
     1
 74
     1
 75
     0
 76
     0
 77
     0
 78
     0
170
     0
171
     2
172
     0
173
     0
174
     0
175
     0
176
     0
177
     0
178
     0
  0
ENDTAB
  0
ENDSEC
  0
SECTION
  2
BLOCKS
  0
BLOCK
  8
0
  2
$MODEL_SPACE
 70
     0
 10
0.0
 20
0.0
 30
0.0
  3
$MODEL_SPACE
  1

  0
ENDBLK
  5
1CD3
  8
0
  0
BLOCK
 67
     1
  8
0
  2
$PAPER_SPACE
 70
     0
 10
0.0
 20
0.0
 30
0.0
  3
$PAPER_SPACE
  1

  0
ENDBLK
  5
1CD1
 67
     1
  8
0
  0
ENDSEC
  0
SECTION
  2
ENTITIES
  0
TEXT
  5
12011
  8
0
 62
     3
 10
0.0
 20
-0.0000000000000284
 30
0.0
 40
10.0
  1
EWN55X40-LP
  7
STANDARD1
  0
LINE
  5
1E423
  8
1
 10
145.5000000000002
 20
50.0
 30
0.0
 11
145.5000000000002
 21
124.0000000000001
 31
0.0
  0
ARC
  5
1E443
  8
0
 10
166.57730185998611
 20
95.166666666666643
 30
0.0
 40
0.5416666666666666
 50
270.0
 51
90.0
  0
POLYLINE
  5
1E444
  8
0
 10
126.69642640198229
 20
107.13008226752905
 30
0.0
 66
     1
 70
     8
  0
VERTEX
  8
0
  5
1EDD0
 10
126.696
 20
107.130
 30
0.000000
  70
    32
  0
VERTEX
  8
0
  5
1EDD1
 10
126.964
 20
107.137
 30
0.000000
  70
    32
  0
VERTEX
  8
0
  5
1EDD2
 10
127.231
 20
107.156
 30
0.000000
  70
    32
  0
VERTEX
  8
0
  5
1EDD3
 10
127.497
 20
107.189
 30
0.000000
  70
    32
  0
VERTEX
  8
0
  5
1EDD4
 10
127.761
 20
107.235
 30
0.000000
  70
    32
  0
VERTEX
  8
0
  5
1EDD5
 10
128.023
 20
107.294
 30
0.000000
  70
    32
  0
VERTEX
  8
0
  5
1EDD6
 10
128.281
 20
107.366
 30
0.000000
  70
    32
  0
VERTEX
  8
0
  5
1EDD7
 10
128.535
 20
107.450
 30
0.000000
  70
    32
  0
VERTEX
  8
0
  5
1EDD8
 10
128.785
 20
107.546
 30
0.000000
  70
    32
  0
VERTEX
  8
0
  5
1EDD9
 10
129.030
 20
107.655
 30
0.000000
  70
    32
  0
VERTEX
  8
0
  5
1EDDA
 10
129.269
 20
107.776
 30
0.000000
  70
    32
  0
VERTEX
  8
0
  5
1EDDB
 10
129.502
 20
107.908
 30
0.000000
  70
    32
  0
VERTEX
  8
0
  5
1EDDC
 10
129.729
 20
108.052
 30
0.000000
  70
    32
  0
VERTEX
  8
0
  5
1EDDD
 10
129.948
 20
108.207
 30
0.000000
  70
    32
  0
VERTEX
  8
0
  5
1EDDE
 10
130.159
 20
108.372
 30
0.000000
  70
    32
  0
VERTEX
  8
0
  5
1EDDF
 10
130.362
 20
108.547
 30
0.000000
  70
    32
  0
VERTEX
  8
0
  5
1EDE0
 10
130.556
 20
108.732
 30
0.000000
  70
    32
  0
VERTEX
  8
0
  5
1EDE1
 10
130.741
 20
108.927
 30
0.000000
  70
    32
  0
VERTEX
  8
0
  5
1EDE2
 10
130.916
 20
109.130
 30
0.000000
  70
    32
  0
VERTEX
  8
0
  5
1EDE3
 10
131.080
 20
109.342
 30
0.000000
  70
    32
  0
VERTEX
  8
0
  5
1EDE4
 10
131.235
 20
109.561
 30
0.000000
  70
    32
  0
VERTEX
  8
0
  5
1EDE5
 10
131.378
 20
109.788
 30
0.000000
  70
    32
  0
VERTEX
  8
0
  5
1EDE6
 10
131.510
 20
110.021
 30
0.000000
  70
    32
  0
VERTEX
  8
0
  5
1EDE7
 10
131.631
 20
110.261
 30
0.000000
  70
    32
  0
VERTEX
  8
0
  5
1EDE8
 10
131.739
 20
110.507
 30
0.000000
  70
    32
  0
VERTEX
  8
0
  5
1EDE9
 10
131.836
 20
110.757
 30
0.000000
  70
    32
  0
VERTEX
  8
0
  5
1EDEA
 10
131.920
 20
111.012
 30
0.000000
  70
    32
  0
VERTEX
  8
0
  5
1EDEB
 10
131.991
 20
111.271
 30
0.000000
  70
    32
  0
VERTEX
  8
0
  5
1EDEC
 10
132.050
 20
111.533
 30
0.000000
  70
    32
  0
VERTEX
  8
0
  5
1EDED
 10
132.096
 20
111.797
 30
0.000000
  70
    32
  0
VERTEX
  8
0
  5
1EDEE
 10
132.128
 20
112.064
 30
0.000000
  70
    32
  0
VERTEX
  8
0
  5
1EDEF
 10
132.148
 20
112.332
 30
0.000000
  70
    32
  0
VERTEX
  8
0
  5
1EDF0
 10
132.155
 20
112.600
 30
0.000000
  70
    32
  0
VERTEX
  8
0
  5
1EDF1
 10
132.148
 20
112.868
 30
0.000000
  70
    32
  0
VERTEX
  8
0
  5
1EDF2
 10
132.128
 20
113.136
 30
0.000000
  70
    32
  0
VERTEX
  8
0
  5
1EDF3
 10
132.096
 20
113.403
 30
0.000000
  70
    32
  0
VERTEX
  8
0
  5
1EDF4
 10
132.050
 20
113.667
 30
0.000000
  70
    32
  0
VERTEX
  8
0
  5
1EDF5
 10
131.991
 20
113.929
 30
0.000000
  70
    32
  0
VERTEX
  8
0
  5
1EDF6
 10
131.920
 20
114.188
 30
0.000000
  70
    32
  0
VERTEX
  8
0
  5
1EDF7
 10
131.836
 20
114.443
 30
0.000000
  70
    32
  0
VERTEX
  8
0
  5
1EDF8
 10
131.739
 20
114.693
 30
0.000000
  70
    32
  0
VERTEX
  8
0
  5
1EDF9
 10
131.631
 20
114.939
 30
0.000000
  70
    32
  0
VERTEX
  8
0
  5
1EDFA
 10
131.510
 20
115.179
 30
0.000000
  70
    32
  0
VERTEX
  8
0
  5
1EDFB
 10
131.378
 20
115.412
 30
0.000000
  70
    32
  0
VERTEX
  8
0
  5
1EDFC
 10
131.235
 20
115.639
 30
0.000000
  70
    32
  0
VERTEX
  8
0
  5
1EDFD
 10
131.080
 20
115.858
 30
0.000000
  70
    32
  0
VERTEX
  8
0
  5
1EDFE
 10
130.916
 20
116.070
 30
0.000000
  70
    32
  0
VERTEX
  8
0
  5
1EDFF
 10
130.741
 20
116.273
 30
0.000000
  70
    32
  0
VERTEX
  8
0
  5
1EE00
 10
130.556
 20
116.468
 30
0.000000
  70
    32
  0
VERTEX
  8
0
  5
1EE01
 10
130.362
 20
116.653
 30
0.000000
  70
    32
  0
VERTEX
  8
0
  5
1EE02
 10
130.159
 20
116.828
 30
0.000000
  70
    32
  0
VERTEX
  8
0
  5
1EE03
 10
129.948
 20
116.993
 30
0.000000
  70
    32
  0
VERTEX
  8
0
  5
1EE04
 10
129.729
 20
117.148
 30
0.000000
  70
    32
  0
VERTEX
  8
0
  5
1EE05
 10
129.502
 20
117.292
 30
0.000000
  70
    32
  0
VERTEX
  8
0
  5
1EE06
 10
129.269
 20
117.424
 30
0.000000
  70
    32
  0
VERTEX
  8
0
  5
1EE07
 10
129.030
 20
117.545
 30
0.000000
  70
    32
  0
VERTEX
  8
0
  5
1EE08
 10
128.785
 20
117.654
 30
0.000000
  70
    32
  0
VERTEX
  8
0
  5
1EE09
 10
128.535
 20
117.750
 30
0.000000
  70
    32
  0
VERTEX
  8
0
  5
1EE0A
 10
128.281
 20
117.834
 30
0.000000
  70
    32
  0
VERTEX
  8
0
  5
1EE0B
 10
128.023
 20
117.906
 30
0.000000
  70
    32
  0
VERTEX
  8
0
  5
1EE0C
 10
127.761
 20
117.965
 30
0.000000
  70
    32
  0
VERTEX
  8
0
  5
1EE0D
 10
127.497
 20
118.011
 30
0.000000
  70
    32
  0
VERTEX
  8
0
  5
1EE0E
 10
127.231
 20
118.044
 30
0.000000
  70
    32
  0
VERTEX
  8
0
  5
1EE0F
 10
126.964
 20
118.063
 30
0.000000
  70
    32
  0
VERTEX
  8
0
  5
1EE10
 10
126.696
 20
118.070
 30
0.000000
  70
    32
  0
VERTEX
  8
0
  5
1EE11
 10
126.429
 20
118.063
 30
0.000000
  70
    32
  0
VERTEX
  8
0
  5
1EE12
 10
126.161
 20
118.044
 30
0.000000
  70
    32
  0
VERTEX
  8
0
  5
1EE13
 10
125.896
 20
118.011
 30
0.000000
  70
    32
  0
VERTEX
  8
0
  5
1EE14
 10
125.632
 20
117.965
 30
0.000000
  70
    32
  0
VERTEX
  8
0
  5
1EE15
 10
125.370
 20
117.906
 30
0.000000
  70
    32
  0
VERTEX
  8
0
  5
1EE16
 10
125.112
 20
117.834
 30
0.000000
  70
    32
  0
VERTEX
  8
0
  5
1EE17
 10
124.858
 20
117.750
 30
0.000000
  70
    32
  0
VERTEX
  8
0
  5
1EE18
 10
124.608
 20
117.654
 30
0.000000
  70
    32
  0
VERTEX
  8
0
  5
1EE19
 10
124.363
 20
117.545
 30
0.000000
  70
    32
  0
VERTEX
  8
0
  5
1EE1A
 10
124.123
 20
117.424
 30
0.000000
  70
    32
  0
VERTEX
  8
0
  5
1EE1B
 10
123.890
 20
117.292
 30
0.000000
  70
    32
  0
VERTEX
  8
0
  5
1EE1C
 10
123.664
 20
117.148
 30
0.000000
  70
    32
  0
VERTEX
  8
0
  5
1EE1D
 10
123.445
 20
116.993
 30
0.000000
  70
    32
  0
VERTEX
  8
0
  5
1EE1E
 10
123.234
 20
116.828
 30
0.000000
  70
    32
  0
VERTEX
  8
0
  5
1EE1F
 10
123.031
 20
116.653
 30
0.000000
  70
    32
  0
VERTEX
  8
0
  5
1EE20
 10
122.837
 20
116.468
 30
0.000000
  70
    32
  0
VERTEX
  8
0
  5
1EE21
 10
122.652
 20
116.273
 30
0.000000
  70
    32
  0
VERTEX
  8
0
  5
1EE22
 10
122.477
 20
116.070
 30
0.000000
  70
    32
  0
VERTEX
  8
0
  5
1EE23
 10
122.312
 20
115.858
 30
0.000000
  70
    32
  0
VERTEX
  8
0
  5
1EE24
 10
122.158
 20
115.639
 30
0.000000
  70
    32
  0
VERTEX
  8
0
  5
1EE25
 10
122.015
 20
115.412
 30
0.000000
  70
    32
  0
VERTEX
  8
0
  5
1EE26
 10
121.883
 20
115.179
 30
0.000000
  70
    32
  0
VERTEX
  8
0
  5
1EE27
 10
121.762
 20
114.939
 30
0.000000
  70
    32
  0
VERTEX
  8
0
  5
1EE28
 10
121.654
 20
114.693
 30
0.000000
  70
    32
  0
VERTEX
  8
0
  5
1EE29
 10
121.557
 20
114.443
 30
0.000000
  70
    32
  0
VERTEX
  8
0
  5
1EE2A
 10
121.473
 20
114.188
 30
0.000000
  70
    32
  0
VERTEX
  8
0
  5
1EE2B
 10
121.402
 20
113.929
 30
0.000000
  70
    32
  0
VERTEX
  8
0
  5
1EE2C
 10
121.343
 20
113.667
 30
0.000000
  70
    32
  0
VERTEX
  8
0
  5
1EE2D
 10
121.297
 20
113.403
 30
0.000000
  70
    32
  0
VERTEX
  8
0
  5
1EE2E
 10
121.265
 20
113.136
 30
0.000000
  70
    32
  0
VERTEX
  8
0
  5
1EE2F
 10
121.245
 20
112.868
 30
0.000000
  70
    32
  0
VERTEX
  8
0
  5
1EE30
 10
121.238
 20
112.600
 30
0.000000
  70
    32
  0
VERTEX
  8
0
  5
1EE31
 10
121.245
 20
112.332
 30
0.000000
  70
    32
  0
VERTEX
  8
0
  5
1EE32
 10
121.265
 20
112.064
 30
0.000000
  70
    32
  0
VERTEX
  8
0
  5
1EE33
 10
121.297
 20
111.797
 30
0.000000
  70
    32
  0
VERTEX
  8
0
  5
1EE34
 10
121.343
 20
111.533
 30
0.000000
  70
    32
  0
VERTEX
  8
0
  5
1EE35
 10
121.402
 20
111.271
 30
0.000000
  70
    32
  0
VERTEX
  8
0
  5
1EE36
 10
121.473
 20
111.012
 30
0.000000
  70
    32
  0
VERTEX
  8
0
  5
1EE37
 10
121.557
 20
110.757
 30
0.000000
  70
    32
  0
VERTEX
  8
0
  5
1EE38
 10
121.654
 20
110.507
 30
0.000000
  70
    32
  0
VERTEX
  8
0
  5
1EE39
 10
121.762
 20
110.261
 30
0.000000
  70
    32
  0
VERTEX
  8
0
  5
1EE3A
 10
121.883
 20
110.021
 30
0.000000
  70
    32
  0
VERTEX
  8
0
  5
1EE3B
 10
122.015
 20
109.788
 30
0.000000
  70
    32
  0
VERTEX
  8
0
  5
1EE3C
 10
122.158
 20
109.561
 30
0.000000
  70
    32
  0
VERTEX
  8
0
  5
1EE3D
 10
122.312
 20
109.342
 30
0.000000
  70
    32
  0
VERTEX
  8
0
  5
1EE3E
 10
122.477
 20
109.130
 30
0.000000
  70
    32
  0
VERTEX
  8
0
  5
1EE3F
 10
122.652
 20
108.927
 30
0.000000
  70
    32
  0
VERTEX
  8
0
  5
1EE40
 10
122.837
 20
108.732
 30
0.000000
  70
    32
  0
VERTEX
  8
0
  5
1EE41
 10
123.031
 20
108.547
 30
0.000000
  70
    32
  0
VERTEX
  8
0
  5
1EE42
 10
123.234
 20
108.372
 30
0.000000
  70
    32
  0
VERTEX
  8
0
  5
1EE43
 10
123.445
 20
108.207
 30
0.000000
  70
    32
  0
VERTEX
  8
0
  5
1EE44
 10
123.664
 20
108.052
 30
0.000000
  70
    32
  0
VERTEX
  8
0
  5
1EE45
 10
123.890
 20
107.908
 30
0.000000
  70
    32
  0
VERTEX
  8
0
  5
1EE46
 10
124.123
 20
107.776
 30
0.000000
  70
    32
  0
VERTEX
  8
0
  5
1EE47
 10
124.363
 20
107.655
 30
0.000000
  70
    32
  0
VERTEX
  8
0
  5
1EE48
 10
124.608
 20
107.546
 30
0.000000
  70
    32
  0
VERTEX
  8
0
  5
1EE49
 10
124.858
 20
107.450
 30
0.000000
  70
    32
  0
VERTEX
  8
0
  5
1EE4A
 10
125.112
 20
107.366
 30
0.000000
  70
    32
  0
VERTEX
  8
0
  5
1EE4B
 10
125.370
 20
107.294
 30
0.000000
  70
    32
  0
VERTEX
  8
0
  5
1EE4C
 10
125.632
 20
107.235
 30
0.000000
  70
    32
  0
VERTEX
  8
0
  5
1EE4D
 10
125.896
 20
107.189
 30
0.000000
  70
    32
  0
VERTEX
  8
0
  5
1EE4E
 10
126.161
 20
107.156
 30
0.000000
  70
    32
  0
VERTEX
  8
0
  5
1EE4F
 10
126.429
 20
107.137
 30
0.000000
  70
    32
  0
VERTEX
  8
0
  5
1EE50
 10
126.696
 20
107.130
 30
0.000000
  70
    32
  0
SEQEND
  8
0
  5
1EE51
  0
POLYLINE
  5
1E446
  8
0
 10
164.30357359801809
 20
107.13008226752905
 30
0.0
 66
     1
 70
     8
  0
VERTEX
  8
0
  5
1EE52
 10
164.304
 20
107.130
 30
0.000000
  70
    32
  0
VERTEX
  8
0
  5
1EE53
 10
164.571
 20
107.137
 30
0.000000
  70
    32
  0
VERTEX
  8
0
  5
1EE54
 10
164.839
 20
107.156
 30
0.000000
  70
    32
  0
VERTEX
  8
0
  5
1EE55
 10
165.104
 20
107.189
 30
0.000000
  70
    32
  0
VERTEX
  8
0
  5
1EE56
 10
165.368
 20
107.235
 30
0.000000
  70
    32
  0
VERTEX
  8
0
  5
1EE57
 10
165.630
 20
107.294
 30
0.000000
  70
    32
  0
VERTEX
  8
0
  5
1EE58
 10
165.888
 20
107.366
 30
0.000000
  70
    32
  0
VERTEX
  8
0
  5
1EE59
 10
166.142
 20
107.450
 30
0.000000
  70
    32
  0
VERTEX
  8
0
  5
1EE5A
 10
166.392
 20
107.546
 30
0.000000
  70
    32
  0
VERTEX
  8
0
  5
1EE5B
 10
166.637
 20
107.655
 30
0.000000
  70
    32
  0
VERTEX
  8
0
  5
1EE5C
 10
166.877
 20
107.776
 30
0.000000
  70
    32
  0
VERTEX
  8
0
  5
1EE5D
 10
167.110
 20
107.908
 30
0.000000
  70
    32
  0
VERTEX
  8
0
  5
1EE5E
 10
167.336
 20
108.052
 30
0.000000
  70
    32
  0
VERTEX
  8
0
  5
1EE5F
 10
167.555
 20
108.207
 30
0.000000
  70
    32
  0
VERTEX
  8
0
  5
1EE60
 10
167.766
 20
108.372
 30
0.000000
  70
    32
  0
VERTEX
  8
0
  5
1EE61
 10
167.969
 20
108.547
 30
0.000000
  70
    32
  0
VERTEX
  8
0
  5
1EE62
 10
168.163
 20
108.732
 30
0.000000
  70
    32
  0
VERTEX
  8
0
  5
1EE63
 10
168.348
 20
108.927
 30
0.000000
  70
    32
  0
VERTEX
  8
0
  5
1EE64
 10
168.523
 20
109.130
 30
0.000000
  70
    32
  0
VERTEX
  8
0
  5
1EE65
 10
168.688
 20
109.342
 30
0.000000
  70
    32
  0
VERTEX
  8
0
  5
1EE66
 10
168.842
 20
109.561
 30
0.000000
  70
    32
  0
VERTEX
  8
0
  5
1EE67
 10
168.985
 20
109.788
 30
0.000000
  70
    32
  0
VERTEX
  8
0
  5
1EE68
 10
169.117
 20
110.021
 30
0.000000
  70
    32
  0
VERTEX
  8
0
  5
1EE69
 10
169.238
 20
110.261
 30
0.000000
  70
    32
  0
VERTEX
  8
0
  5
1EE6A
 10
169.346
 20
110.507
 30
0.000000
  70
    32
  0
VERTEX
  8
0
  5
1EE6B
 10
169.443
 20
110.757
 30
0.000000
  70
    32
  0
VERTEX
  8
0
  5
1EE6C
 10
169.527
 20
111.012
 30
0.000000
  70
    32
  0
VERTEX
  8
0
  5
1EE6D
 10
169.598
 20
111.271
 30
0.000000
  70
    32
  0
VERTEX
  8
0
  5
1EE6E
 10
169.657
 20
111.533
 30
0.000000
  70
    32
  0
VERTEX
  8
0
  5
1EE6F
 10
169.703
 20
111.797
 30
0.000000
  70
    32
  0
VERTEX
  8
0
  5
1EE70
 10
169.735
 20
112.064
 30
0.000000
  70
    32
  0
VERTEX
  8
0
  5
1EE71
 10
169.755
 20
112.332
 30
0.000000
  70
    32
  0
VERTEX
  8
0
  5
1EE72
 10
169.762
 20
112.600
 30
0.000000
  70
    32
  0
VERTEX
  8
0
  5
1EE73
 10
169.755
 20
112.868
 30
0.000000
  70
    32
  0
VERTEX
  8
0
  5
1EE74
 10
169.735
 20
113.136
 30
0.000000
  70
    32
  0
VERTEX
  8
0
  5
1EE75
 10
169.703
 20
113.403
 30
0.000000
  70
    32
  0
VERTEX
  8
0
  5
1EE76
 10
169.657
 20
113.667
 30
0.000000
  70
    32
  0
VERTEX
  8
0
  5
1EE77
 10
169.598
 20
113.929
 30
0.000000
  70
    32
  0
VERTEX
  8
0
  5
1EE78
 10
169.527
 20
114.188
 30
0.000000
  70
    32
  0
VERTEX
  8
0
  5
1EE79
 10
169.443
 20
114.443
 30
0.000000
  70
    32
  0
VERTEX
  8
0
  5
1EE7A
 10
169.346
 20
114.693
 30
0.000000
  70
    32
  0
VERTEX
  8
0
  5
1EE7B
 10
169.238
 20
114.939
 30
0.000000
  70
    32
  0
VERTEX
  8
0
  5
1EE7C
 10
169.117
 20
115.179
 30
0.000000
  70
    32
  0
VERTEX
  8
0
  5
1EE7D
 10
168.985
 20
115.412
 30
0.000000
  70
    32
  0
VERTEX
  8
0
  5
1EE7E
 10
168.842
 20
115.639
 30
0.000000
  70
    32
  0
VERTEX
  8
0
  5
1EE7F
 10
168.688
 20
115.858
 30
0.000000
  70
    32
  0
VERTEX
  8
0
  5
1EE80
 10
168.523
 20
116.070
 30
0.000000
  70
    32
  0
VERTEX
  8
0
  5
1EE81
 10
168.348
 20
116.273
 30
0.000000
  70
    32
  0
VERTEX
  8
0
  5
1EE82
 10
168.163
 20
116.468
 30
0.000000
  70
    32
  0
VERTEX
  8
0
  5
1EE83
 10
167.969
 20
116.653
 30
0.000000
  70
    32
  0
VERTEX
  8
0
  5
1EE84
 10
167.766
 20
116.828
 30
0.000000
  70
    32
  0
VERTEX
  8
0
  5
1EE85
 10
167.555
 20
116.993
 30
0.000000
  70
    32
  0
VERTEX
  8
0
  5
1EE86
 10
167.336
 20
117.148
 30
0.000000
  70
    32
  0
VERTEX
  8
0
  5
1EE87
 10
167.110
 20
117.292
 30
0.000000
  70
    32
  0
VERTEX
  8
0
  5
1EE88
 10
166.877
 20
117.424
 30
0.000000
  70
    32
  0
VERTEX
  8
0
  5
1EE89
 10
166.637
 20
117.545
 30
0.000000
  70
    32
  0
VERTEX
  8
0
  5
1EE8A
 10
166.392
 20
117.654
 30
0.000000
  70
    32
  0
VERTEX
  8
0
  5
1EE8B
 10
166.142
 20
117.750
 30
0.000000
  70
    32
  0
VERTEX
  8
0
  5
1EE8C
 10
165.888
 20
117.834
 30
0.000000
  70
    32
  0
VERTEX
  8
0
  5
1EE8D
 10
165.630
 20
117.906
 30
0.000000
  70
    32
  0
VERTEX
  8
0
  5
1EE8E
 10
165.368
 20
117.965
 30
0.000000
  70
    32
  0
VERTEX
  8
0
  5
1EE8F
 10
165.104
 20
118.011
 30
0.000000
  70
    32
  0
VERTEX
  8
0
  5
1EE90
 10
164.839
 20
118.044
 30
0.000000
  70
    32
  0
VERTEX
  8
0
  5
1EE91
 10
164.571
 20
118.063
 30
0.000000
  70
    32
  0
VERTEX
  8
0
  5
1EE92
 10
164.304
 20
118.070
 30
0.000000
  70
    32
  0
VERTEX
  8
0
  5
1EE93
 10
164.036
 20
118.063
 30
0.000000
  70
    32
  0
VERTEX
  8
0
  5
1EE94
 10
163.769
 20
118.044
 30
0.000000
  70
    32
  0
VERTEX
  8
0
  5
1EE95
 10
163.503
 20
118.011
 30
0.000000
  70
    32
  0
VERTEX
  8
0
  5
1EE96
 10
163.239
 20
117.965
 30
0.000000
  70
    32
  0
VERTEX
  8
0
  5
1EE97
 10
162.977
 20
117.906
 30
0.000000
  70
    32
  0
VERTEX
  8
0
  5
1EE98
 10
162.719
 20
117.834
 30
0.000000
  70
    32
  0
VERTEX
  8
0
  5
1EE99
 10
162.465
 20
117.750
 30
0.000000
  70
    32
  0
VERTEX
  8
0
  5
1EE9A
 10
162.215
 20
117.654
 30
0.000000
  70
    32
  0
VERTEX
  8
0
  5
1EE9B
 10
161.970
 20
117.545
 30
0.000000
  70
    32
  0
VERTEX
  8
0
  5
1EE9C
 10
161.731
 20
117.424
 30
0.000000
  70
    32
  0
VERTEX
  8
0
  5
1EE9D
 10
161.498
 20
117.292
 30
0.000000
  70
    32
  0
VERTEX
  8
0
  5
1EE9E
 10
161.271
 20
117.148
 30
0.000000
  70
    32
  0
VERTEX
  8
0
  5
1EE9F
 10
161.052
 20
116.993
 30
0.000000
  70
    32
  0
VERTEX
  8
0
  5
1EEA0
 10
160.841
 20
116.828
 30
0.000000
  70
    32
  0
VERTEX
  8
0
  5
1EEA1
 10
160.638
 20
116.653
 30
0.000000
  70
    32
  0
VERTEX
  8
0
  5
1EEA2
 10
160.444
 20
116.468
 30
0.000000
  70
    32
  0
VERTEX
  8
0
  5
1EEA3
 10
160.259
 20
116.273
 30
0.000000
  70
    32
  0
VERTEX
  8
0
  5
1EEA4
 10
160.084
 20
116.070
 30
0.000000
  70
    32
  0
VERTEX
  8
0
  5
1EEA5
 10
159.920
 20
115.858
 30
0.000000
  70
    32
  0
VERTEX
  8
0
  5
1EEA6
 10
159.765
 20
115.639
 30
0.000000
  70
    32
  0
VERTEX
  8
0
  5
1EEA7
 10
159.622
 20
115.412
 30
0.000000
  70
    32
  0
VERTEX
  8
0
  5
1EEA8
 10
159.490
 20
115.179
 30
0.000000
  70
    32
  0
VERTEX
  8
0
  5
1EEA9
 10
159.369
 20
114.939
 30
0.000000
  70
    32
  0
VERTEX
  8
0
  5
1EEAA
 10
159.261
 20
114.693
 30
0.000000
  70
    32
  0
VERTEX
  8
0
  5
1EEAB
 10
159.164
 20
114.443
 30
0.000000
  70
    32
  0
VERTEX
  8
0
  5
1EEAC
 10
159.080
 20
114.188
 30
0.000000
  70
    32
  0
VERTEX
  8
0
  5
1EEAD
 10
159.009
 20
113.929
 30
0.000000
  70
    32
  0
VERTEX
  8
0
  5
1EEAE
 10
158.950
 20
113.667
 30
0.000000
  70
    32
  0
VERTEX
  8
0
  5
1EEAF
 10
158.904
 20
113.403
 30
0.000000
  70
    32
  0
VERTEX
  8
0
  5
1EEB0
 10
158.872
 20
113.136
 30
0.000000
  70
    32
  0
VERTEX
  8
0
  5
1EEB1
 10
158.852
 20
112.868
 30
0.000000
  70
    32
  0
VERTEX
  8
0
  5
1EEB2
 10
158.845
 20
112.600
 30
0.000000
  70
    32
  0
VERTEX
  8
0
  5
1EEB3
 10
158.852
 20
112.332
 30
0.000000
  70
    32
  0
VERTEX
  8
0
  5
1EEB4
 10
158.872
 20
112.064
 30
0.000000
  70
    32
  0
VERTEX
  8
0
  5
1EEB5
 10
158.904
 20
111.797
 30
0.000000
  70
    32
  0
VERTEX
  8
0
  5
1EEB6
 10
158.950
 20
111.533
 30
0.000000
  70
    32
  0
VERTEX
  8
0
  5
1EEB7
 10
159.009
 20
111.271
 30
0.000000
  70
    32
  0
VERTEX
  8
0
  5
1EEB8
 10
159.080
 20
111.012
 30
0.000000
  70
    32
  0
VERTEX
  8
0
  5
1EEB9
 10
159.164
 20
110.757
 30
0.000000
  70
    32
  0
VERTEX
  8
0
  5
1EEBA
 10
159.261
 20
110.507
 30
0.000000
  70
    32
  0
VERTEX
  8
0
  5
1EEBB
 10
159.369
 20
110.261
 30
0.000000
  70
    32
  0
VERTEX
  8
0
  5
1EEBC
 10
159.490
 20
110.021
 30
0.000000
  70
    32
  0
VERTEX
  8
0
  5
1EEBD
 10
159.622
 20
109.788
 30
0.000000
  70
    32
  0
VERTEX
  8
0
  5
1EEBE
 10
159.765
 20
109.561
 30
0.000000
  70
    32
  0
VERTEX
  8
0
  5
1EEBF
 10
159.920
 20
109.342
 30
0.000000
  70
    32
  0
VERTEX
  8
0
  5
1EEC0
 10
160.084
 20
109.130
 30
0.000000
  70
    32
  0
VERTEX
  8
0
  5
1EEC1
 10
160.259
 20
108.927
 30
0.000000
  70
    32
  0
VERTEX
  8
0
  5
1EEC2
 10
160.444
 20
108.732
 30
0.000000
  70
    32
  0
VERTEX
  8
0
  5
1EEC3
 10
160.638
 20
108.547
 30
0.000000
  70
    32
  0
VERTEX
  8
0
  5
1EEC4
 10
160.841
 20
108.372
 30
0.000000
  70
    32
  0
VERTEX
  8
0
  5
1EEC5
 10
161.052
 20
108.207
 30
0.000000
  70
    32
  0
VERTEX
  8
0
  5
1EEC6
 10
161.271
 20
108.052
 30
0.000000
  70
    32
  0
VERTEX
  8
0
  5
1EEC7
 10
161.498
 20
107.908
 30
0.000000
  70
    32
  0
VERTEX
  8
0
  5
1EEC8
 10
161.731
 20
107.776
 30
0.000000
  70
    32
  0
VERTEX
  8
0
  5
1EEC9
 10
161.970
 20
107.655
 30
0.000000
  70
    32
  0
VERTEX
  8
0
  5
1EECA
 10
162.215
 20
107.546
 30
0.000000
  70
    32
  0
VERTEX
  8
0
  5
1EECB
 10
162.465
 20
107.450
 30
0.000000
  70
    32
  0
VERTEX
  8
0
  5
1EECC
 10
162.719
 20
107.366
 30
0.000000
  70
    32
  0
VERTEX
  8
0
  5
1EECD
 10
162.977
 20
107.294
 30
0.000000
  70
    32
  0
VERTEX
  8
0
  5
1EECE
 10
163.239
 20
107.235
 30
0.000000
  70
    32
  0
VERTEX
  8
0
  5
1EECF
 10
163.503
 20
107.189
 30
0.000000
  70
    32
  0
VERTEX
  8
0
  5
1EED0
 10
163.769
 20
107.156
 30
0.000000
  70
    32
  0
VERTEX
  8
0
  5
1EED1
 10
164.036
 20
107.137
 30
0.000000
  70
    32
  0
VERTEX
  8
0
  5
1EED2
 10
164.304
 20
107.130
 30
0.000000
  70
    32
  0
SEQEND
  8
0
  5
1EED3
  0
LINE
  5
1E44C
  8
0
 10
164.60000000000051
 20
121.0000000000001
 30
0.0
 11
164.268846710964
 21
121.0000000000001
 31
0.0
  0
ARC
  5
1E44D
  8
0
 10
164.60000000000051
 20
112.60000000000009
 30
0.0
 40
8.4000000000000004
 50
290.435375104603
 51
90.0
  0
POLYLINE
  5
1E44E
  8
0
 66
     1
 10
0.0
 20
0.0
 30
0.0
  0
VERTEX
  5
1EB8E
  8
0
 10
164.268846710964
 20
121.0000000000001
 30
0.0
  0
VERTEX
  5
1EB8F
  8
0
 10
164.0445959480318
 20
120.9970291677126
 30
0.0
  0
VERTEX
  5
1EB90
  8
0
 10
163.341343172932
 20
120.9491215281198
 30
0.0
  0
VERTEX
  5
1EB91
  8
0
 10
162.64442833063461
 20
120.84324020375099
 30
0.0
  0
VERTEX
  5
1EB92
  8
0
 10
161.9391548748419
 20
120.6744687529462
 30
0.0
  0
VERTEX
  5
1EB93
  8
0
 10
161.2506622062144
 20
120.44648732925781
 30
0.0
  0
VERTEX
  5
1EB94
  8
0
 10
160.6489512497383
 20
120.1916780326985
 30
0.0
  0
SEQEND
  5
1EB95
  8
0
  0
POLYLINE
  5
1E44F
  8
0
 66
     1
 10
0.0
 20
0.0
 30
0.0
  0
VERTEX
  5
1EB96
  8
0
 10
130.3510487502619
 20
120.1916780326986
 30
0.0
  0
VERTEX
  5
1EB97
  8
0
 10
130.2684510787893
 20
120.2299090533137
 30
0.0
  0
VERTEX
  5
1EB98
  8
0
 10
129.61055946946249
 20
120.4976697485334
 30
0.0
  0
VERTEX
  5
1EB99
  8
0
 10
128.932799216002
 20
120.70990169004141
 30
0.0
  0
VERTEX
  5
1EB9A
  8
0
 10
128.21944729798739
 20
120.86853339522121
 30
0.0
  0
VERTEX
  5
1EB9B
  8
0
 10
127.4951856812487
 20
120.9655333386401
 30
0.0
  0
VERTEX
  5
1EB9C
  8
0
 10
126.7860734221278
 20
120.9997687631169
 30
0.0
  0
VERTEX
  5
1EB9D
  8
0
 10
126.7308501839305
 20
121.0000000000001
 30
0.0
  0
SEQEND
  5
1EB9E
  8
0
  0
LINE
  5
1E453
  8
0
 10
126.7308501839305
 20
121.0000000000001
 30
0.0
 11
126.40000000000001
 21
121.0000000000001
 31
0.0
  0
ARC
  5
1E454
  8
0
 10
126.40000000000001
 20
112.60000000000009
 30
0.0
 40
8.4000000000000021
 50
90.0
 51
249.56462489539689
  0
ARC
  5
1E459
  8
0
 10
138.0053909923501
 20
162.53048784382889
 30
0.0
 40
64.907051282052691
 50
283.81100397555099
 51
297.05974623365898
  0
ARC
  5
1E45C
  8
0
 10
152.99460900765041
 20
162.53048784382941
 30
0.0
 40
64.907051282053175
 50
242.9402537663409
 51
256.1889960244489
  0
LINE
  5
1E45E
  8
0
 10
146.1500000000002
 20
120.97383381092919
 30
0.0
 11
144.85000000000019
 21
120.97383381092919
 31
0.0
  0
ARC
  5
1E45F
  8
0
 10
145.49999999948949
 20
112.91352114679709
 30
0.0
 40
8.0864788531786171
 50
94.610471236394119
 51
98.58515576474673
  0
ARC
  5
1E460
  8
0
 10
145.49999983198859
 20
112.9135216117926
 30
0.0
 40
8.0864783591097567
 50
108.0617225976391
 51
112.2680043053728
  0
ARC
  5
1E461
  8
0
 10
145.49999999929341
 20
112.9135211423809
 30
0.0
 40
8.0864788573470854
 50
122.6633288407013
 51
135.56350623529349
  0
ARC
  5
1E462
  8
0
 10
145.50000000003229
 20
112.91352114163951
 30
0.0
 40
8.086478858348034
 50
44.436493765108423
 51
57.336671156841831
  0
ARC
  5
1E463
  8
0
 10
145.5002079489808
 20
112.9140874019177
 30
0.0
 40
8.0858760288890821
 50
67.731839035671683
 51
71.938434154616431
  0
ARC
  5
1E464
  8
0
 10
145.50000001747549
 20
112.91352131929629
 30
0.0
 40
8.0864786798740518
 50
81.414844153086307
 51
85.389528785174406
  0
POLYLINE
  5
1E465
  8
0
 66
     1
 10
0.0
 20
0.0
 30
0.0
  0
VERTEX
  5
1EB9F
  8
0
 10
141.13571429516529
 20
119.72117496752981
 30
0.0
  0
VERTEX
  5
1EBA0
  8
0
 10
141.13692396341699
 20
119.72183493582889
 30
0.0
  0
VERTEX
  5
1EBA1
  8
0
 10
141.17680694579661
 20
119.7435584989896
 30
0.0
  0
VERTEX
  5
1EBA2
  8
0
 10
141.2681199834656
 20
119.79303680219169
 30
0.0
  0
VERTEX
  5
1EBA3
  8
0
 10
141.41031463261979
 20
119.8693847709194
 30
0.0
  0
VERTEX
  5
1EBA4
  8
0
 10
141.602800497559
 20
119.9714198248347
 30
0.0
  0
VERTEX
  5
1EBA5
  8
0
 10
141.8342438331205
 20
120.0921858620334
 30
0.0
  0
VERTEX
  5
1EBA6
  8
0
 10
142.07297026065649
 20
120.2146596475319
 30
0.0
  0
VERTEX
  5
1EBA7
  8
0
 10
142.17677230346379
 20
120.2672769418901
 30
0.0
  0
VERTEX
  5
1EBA8
  8
0
 10
142.27151330447779
 20
120.3149746922066
 30
0.0
  0
VERTEX
  5
1EBA9
  8
0
 10
142.3936525288203
 20
120.3760163417176
 30
0.0
  0
VERTEX
  5
1EBAA
  8
0
 10
142.43542342998569
 20
120.3967779682728
 30
0.0
  0
VERTEX
  5
1EBAB
  8
0
 10
142.43571428881339
 20
120.39692233353919
 30
0.0
  0
SEQEND
  5
1EBAC
  8
0
  0
LINE
  5
1E466
  8
0
 10
144.29285714278041
 20
120.9093917289415
 30
0.0
 11
142.9928571450528
 21
120.6015231596394
 31
0.0
  0
POLYLINE
  5
1E467
  8
0
 66
     1
 10
0.0
 20
0.0
 30
0.0
  0
VERTEX
  5
1EBAD
  8
0
 10
148.56428570516991
 20
120.39692233652571
 30
0.0
  0
VERTEX
  5
1EBAE
  8
0
 10
148.57410569980351
 20
120.3920467257533
 30
0.0
  0
VERTEX
  5
1EBAF
  8
0
 10
148.63562186801821
 20
120.36143143002199
 30
0.0
  0
VERTEX
  5
1EBB0
  8
0
 10
148.74908900789629
 20
120.3046285628941
 30
0.0
  0
VERTEX
  5
1EBB1
  8
0
 10
148.9123356599564
 20
120.2221310984137
 30
0.0
  0
VERTEX
  5
1EBB2
  8
0
 10
149.12009659358301
 20
120.1157716627344
 30
0.0
  0
VERTEX
  5
1EBB3
  8
0
 10
149.35553685956029
 20
119.9933112331619
 30
0.0
  0
VERTEX
  5
1EBB4
  8
0
 10
149.58352941225121
 20
119.8726711458724
 30
0.0
  0
VERTEX
  5
1EBB5
  8
0
 10
149.6764826796155
 20
119.8228813722984
 30
0.0
  0
VERTEX
  5
1EBB6
  8
0
 10
149.75745533623399
 20
119.779214670706
 30
0.0
  0
VERTEX
  5
1EBB7
  8
0
 10
149.8480065647914
 20
119.7300511509233
 30
0.0
  0
VERTEX
  5
1EBB8
  8
0
 10
149.8642857049926
 20
119.7211749674439
 30
0.0
  0
SEQEND
  5
1EBB9
  8
0
  0
LINE
  5
1E468
  8
0
 10
148.00714285703239
 20
120.60152315913579
 30
0.0
 11
146.70714285978039
 21
120.9093917283468
 31
0.0
  0
ARC
  5
1E469
  8
0
 10
153.24114583333349
 20
95.166666666666686
 30
0.0
 40
0.6744791666666457
 50
107.9452532297932
 51
126.57391804587979
  0
ARC
  5
1E46A
  8
0
 10
153.24114583333349
 20
95.166666666666643
 30
0.0
 40
0.6744791666666465
 50
233.42608195412021
 51
252.0547467702068
  0
ARC
  5
1E46B
  8
0
 10
137.75885416666691
 20
95.166666666666643
 30
0.0
 40
0.6744791666666741
 50
53.426081954120193
 51
72.054746770206776
  0
ARC
  5
1E46C
  8
0
 10
137.75885416666691
 20
95.166666666666686
 30
0.0
 40
0.6744791666666719
 50
287.9452532297932
 51
306.57391804587979
  0
LINE
  5
1E46E
  8
0
 10
166.57730185998611
 20
95.708333333333343
 30
0.0
 11
138.04166666666691
 21
95.708333333333343
 31
0.0
  0
LINE
  5
1E46F
  8
0
 10
138.04166666666691
 20
94.625
 30
0.0
 11
166.57730185998611
 21
94.625
 31
0.0
  0
ARC
  5
1E470
  8
0
 10
138.04166666666691
 20
95.166666666666643
 30
0.0
 40
0.5416666666666666
 50
90.0
 51
270.0
  0
LINE
  5
1E471
  8
0
 10
153.5000000000002
 20
93.0
 30
0.0
 11
153.5000000000002
 21
94.524999999999977
 31
0.0
  0
LINE
  5
1E472
  8
0
 10
137.5000000000002
 20
94.525000000000006
 30
0.0
 11
137.5000000000002
 21
93.0
 31
0.0
  0
LINE
  5
1E473
  8
0
 10
137.5000000000002
 20
93.0
 30
0.0
 11
153.5000000000002
 21
93.0
 31
0.0
  0
LINE
  5
1E474
  8
0
 10
137.5000000000002
 20
94.525000000000006
 30
0.0
 11
153.5000000000002
 21
94.524999999999977
 31
0.0
  0
LINE
  5
1E476
  8
0
 10
153.5000000000002
 20
95.808333333333337
 30
0.0
 11
153.5000000000002
 21
99.500000000000014
 31
0.0
  0
LINE
  5
1E477
  8
0
 10
137.5000000000002
 20
99.500000000000014
 30
0.0
 11
137.5000000000002
 21
95.808333333333337
 31
0.0
  0
LINE
  5
1E478
  8
0
 10
137.5000000000002
 20
95.808333333333337
 30
0.0
 11
153.5000000000002
 21
95.808333333333337
 31
0.0
  0
POLYLINE
  5
1E47A
  8
0
 10
130.35104875026215
 20
120.19167803269846
 30
0.0
 66
     1
 70
     8
  0
VERTEX
  8
0
  5
1EED4
 10
130.351
 20
120.192
 30
0.000000
  70
    32
  0
VERTEX
  8
0
  5
1EED5
 10
130.394
 20
120.179
 30
0.000000
  70
    32
  0
VERTEX
  8
0
  5
1EED6
 10
130.437
 20
120.167
 30
0.000000
  70
    32
  0
VERTEX
  8
0
  5
1EED7
 10
130.480
 20
120.155
 30
0.000000
  70
    32
  0
VERTEX
  8
0
  5
1EED8
 10
130.523
 20
120.143
 30
0.000000
  70
    32
  0
VERTEX
  8
0
  5
1EED9
 10
130.566
 20
120.131
 30
0.000000
  70
    32
  0
VERTEX
  8
0
  5
1EEDA
 10
130.609
 20
120.119
 30
0.000000
  70
    32
  0
VERTEX
  8
0
  5
1EEDB
 10
130.652
 20
120.107
 30
0.000000
  70
    32
  0
VERTEX
  8
0
  5
1EEDC
 10
130.695
 20
120.095
 30
0.000000
  70
    32
  0
VERTEX
  8
0
  5
1EEDD
 10
130.738
 20
120.083
 30
0.000000
  70
    32
  0
VERTEX
  8
0
  5
1EEDE
 10
130.781
 20
120.071
 30
0.000000
  70
    32
  0
VERTEX
  8
0
  5
1EEDF
 10
130.824
 20
120.059
 30
0.000000
  70
    32
  0
VERTEX
  8
0
  5
1EEE0
 10
130.867
 20
120.047
 30
0.000000
  70
    32
  0
VERTEX
  8
0
  5
1EEE1
 10
130.910
 20
120.035
 30
0.000000
  70
    32
  0
VERTEX
  8
0
  5
1EEE2
 10
130.953
 20
120.023
 30
0.000000
  70
    32
  0
VERTEX
  8
0
  5
1EEE3
 10
130.996
 20
120.011
 30
0.000000
  70
    32
  0
VERTEX
  8
0
  5
1EEE4
 10
131.039
 20
120.000
 30
0.000000
  70
    32
  0
VERTEX
  8
0
  5
1EEE5
 10
131.082
 20
119.988
 30
0.000000
  70
    32
  0
VERTEX
  8
0
  5
1EEE6
 10
131.125
 20
119.976
 30
0.000000
  70
    32
  0
VERTEX
  8
0
  5
1EEE7
 10
131.169
 20
119.965
 30
0.000000
  70
    32
  0
VERTEX
  8
0
  5
1EEE8
 10
131.212
 20
119.953
 30
0.000000
  70
    32
  0
VERTEX
  8
0
  5
1EEE9
 10
131.255
 20
119.942
 30
0.000000
  70
    32
  0
VERTEX
  8
0
  5
1EEEA
 10
131.298
 20
119.930
 30
0.000000
  70
    32
  0
VERTEX
  8
0
  5
1EEEB
 10
131.341
 20
119.919
 30
0.000000
  70
    32
  0
VERTEX
  8
0
  5
1EEEC
 10
131.384
 20
119.907
 30
0.000000
  70
    32
  0
VERTEX
  8
0
  5
1EEED
 10
131.427
 20
119.896
 30
0.000000
  70
    32
  0
VERTEX
  8
0
  5
1EEEE
 10
131.471
 20
119.884
 30
0.000000
  70
    32
  0
VERTEX
  8
0
  5
1EEEF
 10
131.514
 20
119.873
 30
0.000000
  70
    32
  0
VERTEX
  8
0
  5
1EEF0
 10
131.557
 20
119.862
 30
0.000000
  70
    32
  0
VERTEX
  8
0
  5
1EEF1
 10
131.600
 20
119.850
 30
0.000000
  70
    32
  0
VERTEX
  8
0
  5
1EEF2
 10
131.643
 20
119.839
 30
0.000000
  70
    32
  0
VERTEX
  8
0
  5
1EEF3
 10
131.687
 20
119.828
 30
0.000000
  70
    32
  0
VERTEX
  8
0
  5
1EEF4
 10
131.730
 20
119.817
 30
0.000000
  70
    32
  0
VERTEX
  8
0
  5
1EEF5
 10
131.773
 20
119.805
 30
0.000000
  70
    32
  0
VERTEX
  8
0
  5
1EEF6
 10
131.816
 20
119.794
 30
0.000000
  70
    32
  0
VERTEX
  8
0
  5
1EEF7
 10
131.860
 20
119.783
 30
0.000000
  70
    32
  0
VERTEX
  8
0
  5
1EEF8
 10
131.903
 20
119.772
 30
0.000000
  70
    32
  0
VERTEX
  8
0
  5
1EEF9
 10
131.946
 20
119.761
 30
0.000000
  70
    32
  0
VERTEX
  8
0
  5
1EEFA
 10
131.989
 20
119.750
 30
0.000000
  70
    32
  0
VERTEX
  8
0
  5
1EEFB
 10
132.033
 20
119.739
 30
0.000000
  70
    32
  0
VERTEX
  8
0
  5
1EEFC
 10
132.076
 20
119.728
 30
0.000000
  70
    32
  0
VERTEX
  8
0
  5
1EEFD
 10
132.119
 20
119.717
 30
0.000000
  70
    32
  0
VERTEX
  8
0
  5
1EEFE
 10
132.163
 20
119.707
 30
0.000000
  70
    32
  0
VERTEX
  8
0
  5
1EEFF
 10
132.206
 20
119.696
 30
0.000000
  70
    32
  0
VERTEX
  8
0
  5
1EF00
 10
132.249
 20
119.685
 30
0.000000
  70
    32
  0
VERTEX
  8
0
  5
1EF01
 10
132.293
 20
119.674
 30
0.000000
  70
    32
  0
VERTEX
  8
0
  5
1EF02
 10
132.336
 20
119.664
 30
0.000000
  70
    32
  0
VERTEX
  8
0
  5
1EF03
 10
132.379
 20
119.653
 30
0.000000
  70
    32
  0
VERTEX
  8
0
  5
1EF04
 10
132.423
 20
119.642
 30
0.000000
  70
    32
  0
VERTEX
  8
0
  5
1EF05
 10
132.466
 20
119.632
 30
0.000000
  70
    32
  0
VERTEX
  8
0
  5
1EF06
 10
132.509
 20
119.621
 30
0.000000
  70
    32
  0
VERTEX
  8
0
  5
1EF07
 10
132.553
 20
119.611
 30
0.000000
  70
    32
  0
VERTEX
  8
0
  5
1EF08
 10
132.596
 20
119.600
 30
0.000000
  70
    32
  0
VERTEX
  8
0
  5
1EF09
 10
132.640
 20
119.590
 30
0.000000
  70
    32
  0
VERTEX
  8
0
  5
1EF0A
 10
132.683
 20
119.579
 30
0.000000
  70
    32
  0
VERTEX
  8
0
  5
1EF0B
 10
132.726
 20
119.569
 30
0.000000
  70
    32
  0
VERTEX
  8
0
  5
1EF0C
 10
132.770
 20
119.559
 30
0.000000
  70
    32
  0
VERTEX
  8
0
  5
1EF0D
 10
132.813
 20
119.548
 30
0.000000
  70
    32
  0
VERTEX
  8
0
  5
1EF0E
 10
132.857
 20
119.538
 30
0.000000
  70
    32
  0
VERTEX
  8
0
  5
1EF0F
 10
132.900
 20
119.528
 30
0.000000
  70
    32
  0
VERTEX
  8
0
  5
1EF10
 10
132.944
 20
119.518
 30
0.000000
  70
    32
  0
VERTEX
  8
0
  5
1EF11
 10
132.987
 20
119.507
 30
0.000000
  70
    32
  0
VERTEX
  8
0
  5
1EF12
 10
133.031
 20
119.497
 30
0.000000
  70
    32
  0
VERTEX
  8
0
  5
1EF13
 10
133.074
 20
119.487
 30
0.000000
  70
    32
  0
VERTEX
  8
0
  5
1EF14
 10
133.118
 20
119.477
 30
0.000000
  70
    32
  0
VERTEX
  8
0
  5
1EF15
 10
133.161
 20
119.467
 30
0.000000
  70
    32
  0
VERTEX
  8
0
  5
1EF16
 10
133.205
 20
119.457
 30
0.000000
  70
    32
  0
VERTEX
  8
0
  5
1EF17
 10
133.248
 20
119.447
 30
0.000000
  70
    32
  0
VERTEX
  8
0
  5
1EF18
 10
133.292
 20
119.437
 30
0.000000
  70
    32
  0
VERTEX
  8
0
  5
1EF19
 10
133.335
 20
119.427
 30
0.000000
  70
    32
  0
VERTEX
  8
0
  5
1EF1A
 10
133.379
 20
119.417
 30
0.000000
  70
    32
  0
VERTEX
  8
0
  5
1EF1B
 10
133.422
 20
119.407
 30
0.000000
  70
    32
  0
VERTEX
  8
0
  5
1EF1C
 10
133.466
 20
119.398
 30
0.000000
  70
    32
  0
VERTEX
  8
0
  5
1EF1D
 10
133.509
 20
119.388
 30
0.000000
  70
    32
  0
VERTEX
  8
0
  5
1EF1E
 10
133.553
 20
119.378
 30
0.000000
  70
    32
  0
VERTEX
  8
0
  5
1EF1F
 10
133.597
 20
119.369
 30
0.000000
  70
    32
  0
VERTEX
  8
0
  5
1EF20
 10
133.640
 20
119.359
 30
0.000000
  70
    32
  0
VERTEX
  8
0
  5
1EF21
 10
133.684
 20
119.349
 30
0.000000
  70
    32
  0
VERTEX
  8
0
  5
1EF22
 10
133.727
 20
119.340
 30
0.000000
  70
    32
  0
VERTEX
  8
0
  5
1EF23
 10
133.771
 20
119.330
 30
0.000000
  70
    32
  0
VERTEX
  8
0
  5
1EF24
 10
133.815
 20
119.321
 30
0.000000
  70
    32
  0
VERTEX
  8
0
  5
1EF25
 10
133.858
 20
119.311
 30
0.000000
  70
    32
  0
VERTEX
  8
0
  5
1EF26
 10
133.902
 20
119.302
 30
0.000000
  70
    32
  0
VERTEX
  8
0
  5
1EF27
 10
133.946
 20
119.292
 30
0.000000
  70
    32
  0
VERTEX
  8
0
  5
1EF28
 10
133.989
 20
119.283
 30
0.000000
  70
    32
  0
VERTEX
  8
0
  5
1EF29
 10
134.033
 20
119.274
 30
0.000000
  70
    32
  0
VERTEX
  8
0
  5
1EF2A
 10
134.077
 20
119.264
 30
0.000000
  70
    32
  0
VERTEX
  8
0
  5
1EF2B
 10
134.120
 20
119.255
 30
0.000000
  70
    32
  0
VERTEX
  8
0
  5
1EF2C
 10
134.164
 20
119.246
 30
0.000000
  70
    32
  0
VERTEX
  8
0
  5
1EF2D
 10
134.208
 20
119.237
 30
0.000000
  70
    32
  0
VERTEX
  8
0
  5
1EF2E
 10
134.251
 20
119.227
 30
0.000000
  70
    32
  0
VERTEX
  8
0
  5
1EF2F
 10
134.295
 20
119.218
 30
0.000000
  70
    32
  0
VERTEX
  8
0
  5
1EF30
 10
134.339
 20
119.209
 30
0.000000
  70
    32
  0
VERTEX
  8
0
  5
1EF31
 10
134.383
 20
119.200
 30
0.000000
  70
    32
  0
VERTEX
  8
0
  5
1EF32
 10
134.426
 20
119.191
 30
0.000000
  70
    32
  0
VERTEX
  8
0
  5
1EF33
 10
134.470
 20
119.182
 30
0.000000
  70
    32
  0
VERTEX
  8
0
  5
1EF34
 10
134.514
 20
119.173
 30
0.000000
  70
    32
  0
VERTEX
  8
0
  5
1EF35
 10
134.557
 20
119.164
 30
0.000000
  70
    32
  0
VERTEX
  8
0
  5
1EF36
 10
134.601
 20
119.155
 30
0.000000
  70
    32
  0
VERTEX
  8
0
  5
1EF37
 10
134.645
 20
119.147
 30
0.000000
  70
    32
  0
VERTEX
  8
0
  5
1EF38
 10
134.689
 20
119.138
 30
0.000000
  70
    32
  0
VERTEX
  8
0
  5
1EF39
 10
134.733
 20
119.129
 30
0.000000
  70
    32
  0
VERTEX
  8
0
  5
1EF3A
 10
134.776
 20
119.120
 30
0.000000
  70
    32
  0
VERTEX
  8
0
  5
1EF3B
 10
134.820
 20
119.111
 30
0.000000
  70
    32
  0
VERTEX
  8
0
  5
1EF3C
 10
134.864
 20
119.103
 30
0.000000
  70
    32
  0
VERTEX
  8
0
  5
1EF3D
 10
134.908
 20
119.094
 30
0.000000
  70
    32
  0
VERTEX
  8
0
  5
1EF3E
 10
134.952
 20
119.086
 30
0.000000
  70
    32
  0
VERTEX
  8
0
  5
1EF3F
 10
134.995
 20
119.077
 30
0.000000
  70
    32
  0
VERTEX
  8
0
  5
1EF40
 10
135.039
 20
119.068
 30
0.000000
  70
    32
  0
VERTEX
  8
0
  5
1EF41
 10
135.083
 20
119.060
 30
0.000000
  70
    32
  0
VERTEX
  8
0
  5
1EF42
 10
135.127
 20
119.052
 30
0.000000
  70
    32
  0
VERTEX
  8
0
  5
1EF43
 10
135.171
 20
119.043
 30
0.000000
  70
    32
  0
VERTEX
  8
0
  5
1EF44
 10
135.215
 20
119.035
 30
0.000000
  70
    32
  0
VERTEX
  8
0
  5
1EF45
 10
135.258
 20
119.026
 30
0.000000
  70
    32
  0
VERTEX
  8
0
  5
1EF46
 10
135.302
 20
119.018
 30
0.000000
  70
    32
  0
VERTEX
  8
0
  5
1EF47
 10
135.346
 20
119.010
 30
0.000000
  70
    32
  0
VERTEX
  8
0
  5
1EF48
 10
135.390
 20
119.001
 30
0.000000
  70
    32
  0
VERTEX
  8
0
  5
1EF49
 10
135.434
 20
118.993
 30
0.000000
  70
    32
  0
VERTEX
  8
0
  5
1EF4A
 10
135.478
 20
118.985
 30
0.000000
  70
    32
  0
VERTEX
  8
0
  5
1EF4B
 10
135.522
 20
118.977
 30
0.000000
  70
    32
  0
VERTEX
  8
0
  5
1EF4C
 10
135.566
 20
118.969
 30
0.000000
  70
    32
  0
VERTEX
  8
0
  5
1EF4D
 10
135.610
 20
118.961
 30
0.000000
  70
    32
  0
VERTEX
  8
0
  5
1EF4E
 10
135.653
 20
118.953
 30
0.000000
  70
    32
  0
VERTEX
  8
0
  5
1EF4F
 10
135.697
 20
118.945
 30
0.000000
  70
    32
  0
VERTEX
  8
0
  5
1EF50
 10
135.741
 20
118.937
 30
0.000000
  70
    32
  0
VERTEX
  8
0
  5
1EF51
 10
135.785
 20
118.929
 30
0.000000
  70
    32
  0
VERTEX
  8
0
  5
1EF52
 10
135.829
 20
118.921
 30
0.000000
  70
    32
  0
VERTEX
  8
0
  5
1EF53
 10
135.873
 20
118.913
 30
0.000000
  70
    32
  0
VERTEX
  8
0
  5
1EF54
 10
135.917
 20
118.905
 30
0.000000
  70
    32
  0
SEQEND
  8
0
  5
1EF55
  0
POLYLINE
  5
1E47B
  8
0
 66
     1
 10
0.0
 20
0.0
 30
0.0
  0
VERTEX
  5
1EBBA
  8
0
 10
138.8046922831943
 20
118.5750127480169
 30
0.0
  0
VERTEX
  5
1EBBB
  8
0
 10
138.47795693630081
 20
118.5839899841007
 30
0.0
  0
VERTEX
  5
1EBBC
  8
0
 10
138.0873981456773
 20
118.6103900396952
 30
0.0
  0
VERTEX
  5
1EBBD
  8
0
 10
137.64366141629151
 20
118.65363928523119
 30
0.0
  0
VERTEX
  5
1EBBE
  8
0
 10
137.160089184024
 20
118.71222584807271
 30
0.0
  0
VERTEX
  5
1EBBF
  8
0
 10
136.6454463137419
 20
118.785321915613
 30
0.0
  0
VERTEX
  5
1EBC0
  8
0
 10
136.11835450138869
 20
118.87022829554699
 30
0.0
  0
VERTEX
  5
1EBC1
  8
0
 10
135.9171209757377
 20
118.9052550572701
 30
0.0
  0
SEQEND
  5
1EBC2
  8
0
  0
LINE
  5
1E47C
  8
0
 10
138.8046922831943
 20
118.5750127480169
 30
0.0
 11
152.19530765577269
 21
118.575012748017
 31
0.0
  0
POLYLINE
  5
1E47D
  8
0
 66
     1
 10
0.0
 20
0.0
 30
0.0
  0
VERTEX
  5
1EBC3
  8
0
 10
155.0828790242627
 20
118.9052550572703
 30
0.0
  0
VERTEX
  5
1EBC4
  8
0
 10
154.54547126059151
 20
118.81494464072981
 30
0.0
  0
VERTEX
  5
1EBC5
  8
0
 10
154.01557374347209
 20
118.7360113122274
 30
0.0
  0
VERTEX
  5
1EBC6
  8
0
 10
153.50803992241919
 20
118.67087643588999
 30
0.0
  0
VERTEX
  5
1EBC7
  8
0
 10
153.03802042363739
 20
118.62139616520091
 30
0.0
  0
VERTEX
  5
1EBC8
  8
0
 10
152.62590867172179
 20
118.5896863950416
 30
0.0
  0
VERTEX
  5
1EBC9
  8
0
 10
152.27614158021061
 20
118.5756577459082
 30
0.0
  0
VERTEX
  5
1EBCA
  8
0
 10
152.19530765577269
 20
118.575012748017
 30
0.0
  0
SEQEND
  5
1EBCB
  8
0
  0
POLYLINE
  5
1E47E
  8
0
 10
155.08287902426264
 20
118.90525505727025
 30
0.0
 66
     1
 70
     8
  0
VERTEX
  8
0
  5
1EF56
 10
155.083
 20
118.905
 30
0.000000
  70
    32
  0
VERTEX
  8
0
  5
1EF57
 10
155.127
 20
118.913
 30
0.000000
  70
    32
  0
VERTEX
  8
0
  5
1EF58
 10
155.171
 20
118.921
 30
0.000000
  70
    32
  0
VERTEX
  8
0
  5
1EF59
 10
155.215
 20
118.929
 30
0.000000
  70
    32
  0
VERTEX
  8
0
  5
1EF5A
 10
155.259
 20
118.937
 30
0.000000
  70
    32
  0
VERTEX
  8
0
  5
1EF5B
 10
155.303
 20
118.945
 30
0.000000
  70
    32
  0
VERTEX
  8
0
  5
1EF5C
 10
155.347
 20
118.953
 30
0.000000
  70
    32
  0
VERTEX
  8
0
  5
1EF5D
 10
155.390
 20
118.961
 30
0.000000
  70
    32
  0
VERTEX
  8
0
  5
1EF5E
 10
155.434
 20
118.969
 30
0.000000
  70
    32
  0
VERTEX
  8
0
  5
1EF5F
 10
155.478
 20
118.977
 30
0.000000
  70
    32
  0
VERTEX
  8
0
  5
1EF60
 10
155.522
 20
118.985
 30
0.000000
  70
    32
  0
VERTEX
  8
0
  5
1EF61
 10
155.566
 20
118.993
 30
0.000000
  70
    32
  0
VERTEX
  8
0
  5
1EF62
 10
155.610
 20
119.001
 30
0.000000
  70
    32
  0
VERTEX
  8
0
  5
1EF63
 10
155.654
 20
119.010
 30
0.000000
  70
    32
  0
VERTEX
  8
0
  5
1EF64
 10
155.698
 20
119.018
 30
0.000000
  70
    32
  0
VERTEX
  8
0
  5
1EF65
 10
155.742
 20
119.026
 30
0.000000
  70
    32
  0
VERTEX
  8
0
  5
1EF66
 10
155.785
 20
119.035
 30
0.000000
  70
    32
  0
VERTEX
  8
0
  5
1EF67
 10
155.829
 20
119.043
 30
0.000000
  70
    32
  0
VERTEX
  8
0
  5
1EF68
 10
155.873
 20
119.052
 30
0.000000
  70
    32
  0
VERTEX
  8
0
  5
1EF69
 10
155.917
 20
119.060
 30
0.000000
  70
    32
  0
VERTEX
  8
0
  5
1EF6A
 10
155.961
 20
119.068
 30
0.000000
  70
    32
  0
VERTEX
  8
0
  5
1EF6B
 10
156.005
 20
119.077
 30
0.000000
  70
    32
  0
VERTEX
  8
0
  5
1EF6C
 10
156.048
 20
119.086
 30
0.000000
  70
    32
  0
VERTEX
  8
0
  5
1EF6D
 10
156.092
 20
119.094
 30
0.000000
  70
    32
  0
VERTEX
  8
0
  5
1EF6E
 10
156.136
 20
119.103
 30
0.000000
  70
    32
  0
VERTEX
  8
0
  5
1EF6F
 10
156.180
 20
119.111
 30
0.000000
  70
    32
  0
VERTEX
  8
0
  5
1EF70
 10
156.224
 20
119.120
 30
0.000000
  70
    32
  0
VERTEX
  8
0
  5
1EF71
 10
156.267
 20
119.129
 30
0.000000
  70
    32
  0
VERTEX
  8
0
  5
1EF72
 10
156.311
 20
119.138
 30
0.000000
  70
    32
  0
VERTEX
  8
0
  5
1EF73
 10
156.355
 20
119.147
 30
0.000000
  70
    32
  0
VERTEX
  8
0
  5
1EF74
 10
156.399
 20
119.155
 30
0.000000
  70
    32
  0
VERTEX
  8
0
  5
1EF75
 10
156.443
 20
119.164
 30
0.000000
  70
    32
  0
VERTEX
  8
0
  5
1EF76
 10
156.486
 20
119.173
 30
0.000000
  70
    32
  0
VERTEX
  8
0
  5
1EF77
 10
156.530
 20
119.182
 30
0.000000
  70
    32
  0
VERTEX
  8
0
  5
1EF78
 10
156.574
 20
119.191
 30
0.000000
  70
    32
  0
VERTEX
  8
0
  5
1EF79
 10
156.617
 20
119.200
 30
0.000000
  70
    32
  0
VERTEX
  8
0
  5
1EF7A
 10
156.661
 20
119.209
 30
0.000000
  70
    32
  0
VERTEX
  8
0
  5
1EF7B
 10
156.705
 20
119.218
 30
0.000000
  70
    32
  0
VERTEX
  8
0
  5
1EF7C
 10
156.749
 20
119.227
 30
0.000000
  70
    32
  0
VERTEX
  8
0
  5
1EF7D
 10
156.792
 20
119.237
 30
0.000000
  70
    32
  0
VERTEX
  8
0
  5
1EF7E
 10
156.836
 20
119.246
 30
0.000000
  70
    32
  0
VERTEX
  8
0
  5
1EF7F
 10
156.880
 20
119.255
 30
0.000000
  70
    32
  0
VERTEX
  8
0
  5
1EF80
 10
156.923
 20
119.264
 30
0.000000
  70
    32
  0
VERTEX
  8
0
  5
1EF81
 10
156.967
 20
119.274
 30
0.000000
  70
    32
  0
VERTEX
  8
0
  5
1EF82
 10
157.011
 20
119.283
 30
0.000000
  70
    32
  0
VERTEX
  8
0
  5
1EF83
 10
157.054
 20
119.292
 30
0.000000
  70
    32
  0
VERTEX
  8
0
  5
1EF84
 10
157.098
 20
119.302
 30
0.000000
  70
    32
  0
VERTEX
  8
0
  5
1EF85
 10
157.142
 20
119.311
 30
0.000000
  70
    32
  0
VERTEX
  8
0
  5
1EF86
 10
157.185
 20
119.321
 30
0.000000
  70
    32
  0
VERTEX
  8
0
  5
1EF87
 10
157.229
 20
119.330
 30
0.000000
  70
    32
  0
VERTEX
  8
0
  5
1EF88
 10
157.273
 20
119.340
 30
0.000000
  70
    32
  0
VERTEX
  8
0
  5
1EF89
 10
157.316
 20
119.349
 30
0.000000
  70
    32
  0
VERTEX
  8
0
  5
1EF8A
 10
157.360
 20
119.359
 30
0.000000
  70
    32
  0
VERTEX
  8
0
  5
1EF8B
 10
157.403
 20
119.369
 30
0.000000
  70
    32
  0
VERTEX
  8
0
  5
1EF8C
 10
157.447
 20
119.378
 30
0.000000
  70
    32
  0
VERTEX
  8
0
  5
1EF8D
 10
157.491
 20
119.388
 30
0.000000
  70
    32
  0
VERTEX
  8
0
  5
1EF8E
 10
157.534
 20
119.398
 30
0.000000
  70
    32
  0
VERTEX
  8
0
  5
1EF8F
 10
157.578
 20
119.407
 30
0.000000
  70
    32
  0
VERTEX
  8
0
  5
1EF90
 10
157.621
 20
119.417
 30
0.000000
  70
    32
  0
VERTEX
  8
0
  5
1EF91
 10
157.665
 20
119.427
 30
0.000000
  70
    32
  0
VERTEX
  8
0
  5
1EF92
 10
157.708
 20
119.437
 30
0.000000
  70
    32
  0
VERTEX
  8
0
  5
1EF93
 10
157.752
 20
119.447
 30
0.000000
  70
    32
  0
VERTEX
  8
0
  5
1EF94
 10
157.795
 20
119.457
 30
0.000000
  70
    32
  0
VERTEX
  8
0
  5
1EF95
 10
157.839
 20
119.467
 30
0.000000
  70
    32
  0
VERTEX
  8
0
  5
1EF96
 10
157.882
 20
119.477
 30
0.000000
  70
    32
  0
VERTEX
  8
0
  5
1EF97
 10
157.926
 20
119.487
 30
0.000000
  70
    32
  0
VERTEX
  8
0
  5
1EF98
 10
157.969
 20
119.497
 30
0.000000
  70
    32
  0
VERTEX
  8
0
  5
1EF99
 10
158.013
 20
119.507
 30
0.000000
  70
    32
  0
VERTEX
  8
0
  5
1EF9A
 10
158.056
 20
119.518
 30
0.000000
  70
    32
  0
VERTEX
  8
0
  5
1EF9B
 10
158.100
 20
119.528
 30
0.000000
  70
    32
  0
VERTEX
  8
0
  5
1EF9C
 10
158.143
 20
119.538
 30
0.000000
  70
    32
  0
VERTEX
  8
0
  5
1EF9D
 10
158.187
 20
119.548
 30
0.000000
  70
    32
  0
VERTEX
  8
0
  5
1EF9E
 10
158.230
 20
119.559
 30
0.000000
  70
    32
  0
VERTEX
  8
0
  5
1EF9F
 10
158.274
 20
119.569
 30
0.000000
  70
    32
  0
VERTEX
  8
0
  5
1EFA0
 10
158.317
 20
119.579
 30
0.000000
  70
    32
  0
VERTEX
  8
0
  5
1EFA1
 10
158.360
 20
119.590
 30
0.000000
  70
    32
  0
VERTEX
  8
0
  5
1EFA2
 10
158.404
 20
119.600
 30
0.000000
  70
    32
  0
VERTEX
  8
0
  5
1EFA3
 10
158.447
 20
119.611
 30
0.000000
  70
    32
  0
VERTEX
  8
0
  5
1EFA4
 10
158.491
 20
119.621
 30
0.000000
  70
    32
  0
VERTEX
  8
0
  5
1EFA5
 10
158.534
 20
119.632
 30
0.000000
  70
    32
  0
VERTEX
  8
0
  5
1EFA6
 10
158.577
 20
119.642
 30
0.000000
  70
    32
  0
VERTEX
  8
0
  5
1EFA7
 10
158.621
 20
119.653
 30
0.000000
  70
    32
  0
VERTEX
  8
0
  5
1EFA8
 10
158.664
 20
119.664
 30
0.000000
  70
    32
  0
VERTEX
  8
0
  5
1EFA9
 10
158.707
 20
119.674
 30
0.000000
  70
    32
  0
VERTEX
  8
0
  5
1EFAA
 10
158.751
 20
119.685
 30
0.000000
  70
    32
  0
VERTEX
  8
0
  5
1EFAB
 10
158.794
 20
119.696
 30
0.000000
  70
    32
  0
VERTEX
  8
0
  5
1EFAC
 10
158.837
 20
119.707
 30
0.000000
  70
    32
  0
VERTEX
  8
0
  5
1EFAD
 10
158.881
 20
119.717
 30
0.000000
  70
    32
  0
VERTEX
  8
0
  5
1EFAE
 10
158.924
 20
119.728
 30
0.000000
  70
    32
  0
VERTEX
  8
0
  5
1EFAF
 10
158.967
 20
119.739
 30
0.000000
  70
    32
  0
VERTEX
  8
0
  5
1EFB0
 10
159.011
 20
119.750
 30
0.000000
  70
    32
  0
VERTEX
  8
0
  5
1EFB1
 10
159.054
 20
119.761
 30
0.000000
  70
    32
  0
VERTEX
  8
0
  5
1EFB2
 10
159.097
 20
119.772
 30
0.000000
  70
    32
  0
VERTEX
  8
0
  5
1EFB3
 10
159.140
 20
119.783
 30
0.000000
  70
    32
  0
VERTEX
  8
0
  5
1EFB4
 10
159.184
 20
119.794
 30
0.000000
  70
    32
  0
VERTEX
  8
0
  5
1EFB5
 10
159.227
 20
119.805
 30
0.000000
  70
    32
  0
VERTEX
  8
0
  5
1EFB6
 10
159.270
 20
119.817
 30
0.000000
  70
    32
  0
VERTEX
  8
0
  5
1EFB7
 10
159.313
 20
119.828
 30
0.000000
  70
    32
  0
VERTEX
  8
0
  5
1EFB8
 10
159.357
 20
119.839
 30
0.000000
  70
    32
  0
VERTEX
  8
0
  5
1EFB9
 10
159.400
 20
119.850
 30
0.000000
  70
    32
  0
VERTEX
  8
0
  5
1EFBA
 10
159.443
 20
119.862
 30
0.000000
  70
    32
  0
VERTEX
  8
0
  5
1EFBB
 10
159.486
 20
119.873
 30
0.000000
  70
    32
  0
VERTEX
  8
0
  5
1EFBC
 10
159.529
 20
119.884
 30
0.000000
  70
    32
  0
VERTEX
  8
0
  5
1EFBD
 10
159.573
 20
119.896
 30
0.000000
  70
    32
  0
VERTEX
  8
0
  5
1EFBE
 10
159.616
 20
119.907
 30
0.000000
  70
    32
  0
VERTEX
  8
0
  5
1EFBF
 10
159.659
 20
119.919
 30
0.000000
  70
    32
  0
VERTEX
  8
0
  5
1EFC0
 10
159.702
 20
119.930
 30
0.000000
  70
    32
  0
VERTEX
  8
0
  5
1EFC1
 10
159.745
 20
119.942
 30
0.000000
  70
    32
  0
VERTEX
  8
0
  5
1EFC2
 10
159.788
 20
119.953
 30
0.000000
  70
    32
  0
VERTEX
  8
0
  5
1EFC3
 10
159.831
 20
119.965
 30
0.000000
  70
    32
  0
VERTEX
  8
0
  5
1EFC4
 10
159.875
 20
119.976
 30
0.000000
  70
    32
  0
VERTEX
  8
0
  5
1EFC5
 10
159.918
 20
119.988
 30
0.000000
  70
    32
  0
VERTEX
  8
0
  5
1EFC6
 10
159.961
 20
120.000
 30
0.000000
  70
    32
  0
VERTEX
  8
0
  5
1EFC7
 10
160.004
 20
120.011
 30
0.000000
  70
    32
  0
VERTEX
  8
0
  5
1EFC8
 10
160.047
 20
120.023
 30
0.000000
  70
    32
  0
VERTEX
  8
0
  5
1EFC9
 10
160.090
 20
120.035
 30
0.000000
  70
    32
  0
VERTEX
  8
0
  5
1EFCA
 10
160.133
 20
120.047
 30
0.000000
  70
    32
  0
VERTEX
  8
0
  5
1EFCB
 10
160.176
 20
120.059
 30
0.000000
  70
    32
  0
VERTEX
  8
0
  5
1EFCC
 10
160.219
 20
120.071
 30
0.000000
  70
    32
  0
VERTEX
  8
0
  5
1EFCD
 10
160.262
 20
120.083
 30
0.000000
  70
    32
  0
VERTEX
  8
0
  5
1EFCE
 10
160.305
 20
120.095
 30
0.000000
  70
    32
  0
VERTEX
  8
0
  5
1EFCF
 10
160.348
 20
120.107
 30
0.000000
  70
    32
  0
VERTEX
  8
0
  5
1EFD0
 10
160.391
 20
120.119
 30
0.000000
  70
    32
  0
VERTEX
  8
0
  5
1EFD1
 10
160.434
 20
120.131
 30
0.000000
  70
    32
  0
VERTEX
  8
0
  5
1EFD2
 10
160.477
 20
120.143
 30
0.000000
  70
    32
  0
VERTEX
  8
0
  5
1EFD3
 10
160.520
 20
120.155
 30
0.000000
  70
    32
  0
VERTEX
  8
0
  5
1EFD4
 10
160.563
 20
120.167
 30
0.000000
  70
    32
  0
VERTEX
  8
0
  5
1EFD5
 10
160.606
 20
120.179
 30
0.000000
  70
    32
  0
VERTEX
  8
0
  5
1EFD6
 10
160.649
 20
120.192
 30
0.000000
  70
    32
  0
SEQEND
  8
0
  5
1EFD7
  0
LINE
  5
1E519
  8
1
 10
59.5
 20
95.166666666666643
 30
0.0
 11
40.499999999999943
 21
95.166666666666643
 31
0.0
  0
LINE
  5
1E51C
  8
0
 10
46.0
 20
90.166666666666629
 30
0.0
 11
46.0
 21
91.166666666666629
 31
0.0
  0
LINE
  5
1E51E
  8
0
 10
54.0
 20
91.166666666666629
 30
0.0
 11
54.0
 21
90.166666666666629
 31
0.0
  0
LINE
  5
1E526
  8
0
 10
46.0
 20
91.166666666666629
 30
0.0
 11
45.0
 21
91.166666666666629
 31
0.0
  0
LINE
  5
1E527
  8
0
 10
55.0
 20
91.166666666666629
 30
0.0
 11
54.000000000000007
 21
91.166666666666629
 31
0.0
  0
LINE
  5
1E528
  8
0
 10
45.0
 20
91.166666666666629
 30
0.0
 11
45.0
 21
93.0
 31
0.0
  0
LINE
  5
1E52B
  8
0
 10
55.0
 20
93.0
 30
0.0
 11
55.0
 21
91.166666666666629
 31
0.0
  0
LINE
  5
1E58F
  8
2
 10
45.621318075658557
 20
118.575012748017
 30
0.0
 11
45.824255322251751
 21
118.5769727102398
 31
0.0
  0
LINE
  5
1E59E
  8
1
 10
50.0
 20
50.0
 30
0.0
 11
50.0
 21
124.0000000000001
 31
0.0
  0
LINE
  5
1E5A3
  8
1
 10
43.110416666666758
 20
95.1666666666666
 30
0.0
 11
41.972916666666599
 21
95.1666666666666
 31
0.0
  0
ARC
  5
1E5A9
  8
0
 10
50.0
 20
112.9135211416047
 30
0.0
 40
8.0864788583952851
 50
44.436493765121817
 51
61.98360415074297
  0
ARC
  5
1E5AA
  8
0
 10
49.999999999999893
 20
112.9135211416048
 30
0.0
 40
8.0864788583951093
 50
117.9974147057832
 51
135.5635062348781
  0
ARC
  5
1E5AB
  8
0
 10
57.741145833333348
 20
95.166666666666643
 30
0.0
 40
0.6744791666666467
 50
233.42608195412009
 51
252.0547467702068
  0
ARC
  5
1E5AC
  8
0
 10
57.741145833333348
 20
95.166666666666643
 30
0.0
 40
0.6744791666666745
 50
107.9452532297932
 51
126.57391804587979
  0
ARC
  5
1E5AD
  8
0
 10
42.258854166666652
 20
95.166666666666643
 30
0.0
 40
0.6744791666666741
 50
53.426081954120193
 51
72.054746770206776
  0
ARC
  5
1E5AE
  8
0
 10
42.258854166666652
 20
95.166666666666686
 30
0.0
 40
0.6744791666666719
 50
287.9452532297932
 51
306.57391804587979
  0
LINE
  5
1E5AF
  8
0
 10
57.458333333333307
 20
95.708333333333343
 30
0.0
 11
42.541666666666622
 21
95.708333333333343
 31
0.0
  0
LINE
  5
1E5B0
  8
0
 10
42.541666666666622
 20
94.625
 30
0.0
 11
57.458333333333307
 21
94.625
 31
0.0
  0
ARC
  5
1E5B1
  8
0
 10
57.458333333333307
 20
95.166666666666643
 30
0.0
 40
0.5416666666666666
 50
270.0
 51
90.0
  0
ARC
  5
1E5B2
  8
0
 10
42.541666666666622
 20
95.166666666666643
 30
0.0
 40
0.5416666666666666
 50
90.0
 51
270.0
  0
LINE
  5
1E5B3
  8
0
 10
42.0
 20
93.0
 30
0.0
 11
58.0
 21
93.0
 31
0.0
  0
LINE
  5
1E5B4
  8
0
 10
42.0
 20
94.525000000000006
 30
0.0
 11
58.0
 21
94.525000000000006
 31
0.0
  0
LINE
  5
1E5B5
  8
0
 10
58.0
 20
93.0
 30
0.0
 11
58.0
 21
94.525000000000006
 31
0.0
  0
LINE
  5
1E5B6
  8
0
 10
42.0
 20
94.525000000000006
 30
0.0
 11
42.0
 21
93.0
 31
0.0
  0
LINE
  5
1E5B7
  8
0
 10
42.0
 20
95.808333333333337
 30
0.0
 11
58.0
 21
95.808333333333337
 31
0.0
  0
LINE
  5
1E5B8
  8
0
 10
58.0
 20
95.808333333333337
 30
0.0
 11
58.0
 21
118.5750127480169
 31
0.0
  0
LINE
  5
1E5B9
  8
0
 10
42.0
 20
118.575012748017
 30
0.0
 11
42.0
 21
95.808333333333337
 31
0.0
  0
LINE
  5
1E5BA
  8
0
 10
54.378681831017161
 20
118.5750127480169
 30
0.0
 11
54.378681831017161
 21
99.500000000000014
 31
0.0
  0
LINE
  5
1E5BB
  8
0
 10
52.930154694257958
 20
99.975689950083861
 30
0.0
 11
52.937016518701512
 21
100.0319779713984
 31
0.0
  0
LINE
  5
1E5BC
  8
0
 10
45.621318175426367
 20
118.5750127480169
 30
0.0
 11
45.621318175426367
 21
99.500000000000014
 31
0.0
  0
POLYLINE
  5
1E5BD
  8
0
 66
     1
 10
0.0
 20
0.0
 30
0.0
  0
VERTEX
  5
1EBCC
  8
0
 10
46.075181064441153
 20
118.5856078516717
 30
0.0
  0
VERTEX
  5
1EBCD
  8
0
 10
46.017515361522889
 20
118.5829935760744
 30
0.0
  0
VERTEX
  5
1EBCE
  8
0
 10
45.73909358646074
 20
118.5756577459081
 30
0.0
  0
VERTEX
  5
1EBCF
  8
0
 10
45.621318175426367
 20
118.5750127480169
 30
0.0
  0
SEQEND
  5
1EBD0
  8
0
  0
POLYLINE
  5
1E5BE
  8
0
 66
     1
 10
0.0
 20
0.0
 30
0.0
  0
VERTEX
  5
1EBD1
  8
0
 10
47.069845305861229
 20
99.975686207138054
 30
0.0
  0
VERTEX
  5
1EBD2
  8
0
 10
47.069334502918871
 20
99.96090166555669
 30
0.0
  0
VERTEX
  5
1EBD3
  8
0
 10
47.05357684181876
 20
99.892849764150924
 30
0.0
  0
VERTEX
  5
1EBD4
  8
0
 10
47.014138516912453
 20
99.826619179033457
 30
0.0
  0
VERTEX
  5
1EBD5
  8
0
 10
46.951252451932312
 20
99.764783449877683
 30
0.0
  0
VERTEX
  5
1EBD6
  8
0
 10
46.867641460917348
 20
99.709433159720703
 30
0.0
  0
VERTEX
  5
1EBD7
  8
0
 10
46.762346572135009
 20
99.659416403730461
 30
0.0
  0
VERTEX
  5
1EBD8
  8
0
 10
46.631510247590882
 20
99.61404512387341
 30
0.0
  0
VERTEX
  5
1EBD9
  8
0
 10
46.478957533193459
 20
99.575548611407783
 30
0.0
  0
VERTEX
  5
1EBDA
  8
0
 10
46.298912674329813
 20
99.543524325570871
 30
0.0
  0
VERTEX
  5
1EBDB
  8
0
 10
46.098060758509753
 20
99.519997698060479
 30
0.0
  0
VERTEX
  5
1EBDC
  8
0
 10
45.868905091449392
 20
99.505041307846014
 30
0.0
  0
VERTEX
  5
1EBDD
  8
0
 10
45.621318175426367
 20
99.500000000000014
 30
0.0
  0
SEQEND
  5
1EBDE
  8
0
  0
POLYLINE
  5
1E5BF
  8
0
 66
     1
 10
0.0
 20
0.0
 30
0.0
  0
VERTEX
  5
1EBDF
  8
0
 10
54.378681831017161
 20
118.5750127480169
 30
0.0
  0
VERTEX
  5
1EBE0
  8
0
 10
54.09384831152277
 20
118.57902232211261
 30
0.0
  0
VERTEX
  5
1EBE1
  8
0
 10
53.923898154987803
 20
118.5856542366847
 30
0.0
  0
SEQEND
  5
1EBE2
  8
0
  0
LINE
  5
1E5C0
  8
0
 10
54.378681831017161
 20
118.5750127480169
 30
0.0
 11
58.0
 21
118.5750127480169
 31
0.0
  0
LINE
  5
1E5C1
  8
0
 10
42.0
 20
118.5750127480169
 30
0.0
 11
45.621318175426367
 21
118.5750127480169
 31
0.0
  0
POLYLINE
  5
1E5C2
  8
0
 66
     1
 10
0.0
 20
0.0
 30
0.0
  0
VERTEX
  5
1EBE3
  8
0
 10
47.062983481297117
 20
100.0319779713986
 30
0.0
  0
VERTEX
  5
1EBE4
  8
0
 10
46.955811607309613
 20
100.5025651596188
 30
0.0
  0
VERTEX
  5
1EBE5
  8
0
 10
46.849488534640948
 20
101.0171695690784
 30
0.0
  0
VERTEX
  5
1EBE6
  8
0
 10
46.744121619753848
 20
101.5748786718117
 30
0.0
  0
VERTEX
  5
1EBE7
  8
0
 10
46.639089478051851
 20
102.1791870094721
 30
0.0
  0
VERTEX
  5
1EBE8
  8
0
 10
46.535130512472961
 20
102.8261732475388
 30
0.0
  0
VERTEX
  5
1EBE9
  8
0
 10
46.432352935502472
 20
103.51505863446459
 30
0.0
  0
VERTEX
  5
1EBEA
  8
0
 10
46.349385468776738
 20
104.10804059041681
 30
0.0
  0
VERTEX
  5
1EBEB
  8
0
 10
46.26723987205434
 20
104.7286405744572
 30
0.0
  0
SEQEND
  5
1EBEC
  8
0
  0
POLYLINE
  5
1E5C3
  8
0
 66
     1
 10
0.0
 20
0.0
 30
0.0
  0
VERTEX
  5
1EBED
  8
0
 10
53.73276012794566
 20
104.7286405744572
 30
0.0
  0
VERTEX
  5
1EBEE
  8
0
 10
53.637548512616547
 20
104.0124297090828
 30
0.0
  0
VERTEX
  5
1EBEF
  8
0
 10
53.541190363912619
 20
103.33295389551969
 30
0.0
  0
VERTEX
  5
1EBF0
  8
0
 10
53.443496414810561
 20
102.6891094432243
 30
0.0
  0
VERTEX
  5
1EBF1
  8
0
 10
53.344770479795557
 20
102.0831243193509
 30
0.0
  0
VERTEX
  5
1EBF2
  8
0
 10
53.2442929160689
 20
101.511202323644
 30
0.0
  0
VERTEX
  5
1EBF3
  8
0
 10
53.142891434712617
 20
100.97870629503279
 30
0.0
  0
VERTEX
  5
1EBF4
  8
0
 10
53.040356142530868
 20
100.4849216002806
 30
0.0
  0
VERTEX
  5
1EBF5
  8
0
 10
52.937016518702869
 20
100.0319779713986
 30
0.0
  0
SEQEND
  5
1EBF6
  8
0
  0
LINE
  5
1E5C4
  8
0
 10
47.062983481297117
 20
100.0319779713986
 30
0.0
 11
47.069845305861229
 21
99.975686207138054
 31
0.0
  0
LINE
  5
1E5C5
  8
0
 10
45.621318175426367
 20
99.500000000000014
 30
0.0
 11
54.378681831017161
 21
99.500000000000014
 31
0.0
  0
POLYLINE
  5
1E5C6
  8
0
 66
     1
 10
0.0
 20
0.0
 30
0.0
  0
VERTEX
  5
1EBF7
  8
0
 10
54.378681831017161
 20
99.500000000000014
 30
0.0
  0
VERTEX
  5
1EBF8
  8
0
 10
54.100311300329729
 20
99.506519333214044
 30
0.0
  0
VERTEX
  5
1EBF9
  8
0
 10
53.844979963292531
 20
99.525681897745415
 30
0.0
  0
VERTEX
  5
1EBFA
  8
0
 10
53.617431829307797
 20
99.55689455332228
 30
0.0
  0
VERTEX
  5
1EBFB
  8
0
 10
53.4201989146203
 20
99.59966692713202
 30
0.0
  0
VERTEX
  5
1EBFC
  8
0
 10
53.254019281326912
 20
99.653043912736052
 30
0.0
  0
VERTEX
  5
1EBFD
  8
0
 10
53.12140316588318
 20
99.715655424457424
 30
0.0
  0
VERTEX
  5
1EBFE
  8
0
 10
53.021409341798403
 20
99.788570831356225
 30
0.0
  0
VERTEX
  5
1EBFF
  8
0
 10
52.957764498449137
 20
99.869196941614746
 30
0.0
  0
VERTEX
  5
1EC00
  8
0
 10
52.931045663144012
 20
99.955857884444043
 30
0.0
  0
VERTEX
  5
1EC01
  8
0
 10
52.930154694257958
 20
99.975689950083861
 30
0.0
  0
SEQEND
  5
1EC02
  8
0
  0
LINE
  5
1E5C7
  8
0
 10
46.0
 20
117.2478925333197
 30
0.0
 11
46.0
 21
107.9521074666699
 31
0.0
  0
LINE
  5
1E5C8
  8
0
 10
54.0
 20
117.2478925333197
 30
0.0
 11
54.0
 21
107.9521074666804
 31
0.0
  0
POLYLINE
  5
1E5C9
  8
0
 66
     1
 10
0.0
 20
0.0
 30
0.0
  0
VERTEX
  5
1EC03
  8
0
 10
46.0
 20
117.2478925333197
 30
0.0
  0
VERTEX
  5
1EC04
  8
0
 10
46.013050343446139
 20
117.53382405600991
 30
0.0
  0
VERTEX
  5
1EC05
  8
0
 10
46.026866027197343
 20
117.8112358422361
 30
0.0
  0
VERTEX
  5
1EC06
  8
0
 10
46.041527704282771
 20
118.0814857541224
 30
0.0
  0
VERTEX
  5
1EC07
  8
0
 10
46.056915078216093
 20
118.3421481989789
 30
0.0
  0
VERTEX
  5
1EC08
  8
0
 10
46.07336024881954
 20
118.5981182767066
 30
0.0
  0
VERTEX
  5
1EC09
  8
0
 10
46.090504487704152
 20
118.84314818406941
 30
0.0
  0
VERTEX
  5
1EC0A
  8
0
 10
46.108450451646938
 20
119.0784653473581
 30
0.0
  0
VERTEX
  5
1EC0B
  8
0
 10
46.127040407486788
 20
119.30180825863739
 30
0.0
  0
VERTEX
  5
1EC0C
  8
0
 10
46.145555820380139
 20
119.50556466306389
 30
0.0
  0
VERTEX
  5
1EC0D
  8
0
 10
46.164606604635189
 20
119.6974556667702
 30
0.0
  0
VERTEX
  5
1EC0E
  8
0
 10
46.184297268287757
 20
119.8783504318869
 30
0.0
  0
VERTEX
  5
1EC0F
  8
0
 10
46.204463015268679
 20
120.0465856637226
 30
0.0
  0
VERTEX
  5
1EC10
  8
0
 10
46.225519071679621
 20
120.2050795041017
 30
0.0
  0
VERTEX
  5
1EC11
  8
0
 10
46.24699604241794
 20
120.3497911820948
 30
0.0
  0
VERTEX
  5
1EC12
  8
0
 10
46.269015902733138
 20
120.4813579331741
 30
0.0
  0
VERTEX
  5
1EC13
  8
0
 10
46.29138295531618
 20
120.5984590827798
 30
0.0
  0
VERTEX
  5
1EC14
  8
0
 10
46.313339250690433
 20
120.6978845219399
 30
0.0
  0
VERTEX
  5
1EC15
  8
0
 10
46.335545242988928
 20
120.7833919121336
 30
0.0
  0
VERTEX
  5
1EC16
  8
0
 10
46.358118164173561
 20
120.8552778909492
 30
0.0
  0
VERTEX
  5
1EC17
  8
0
 10
46.380866741564198
 20
120.9128054395149
 30
0.0
  0
VERTEX
  5
1EC18
  8
0
 10
46.40424504616476
 20
120.9566416396905
 30
0.0
  0
VERTEX
  5
1EC19
  8
0
 10
46.427723755758507
 20
120.98533931726131
 30
0.0
  0
VERTEX
  5
1EC1A
  8
0
 10
46.4514314147861
 20
120.9988887471028
 30
0.0
  0
VERTEX
  5
1EC1B
  8
0
 10
46.460522449785692
 20
120.9999998710159
 30
0.0
  0
SEQEND
  5
1EC1C
  8
0
  0
POLYLINE
  5
1E5CC
  8
0
 66
     1
 10
0.0
 20
0.0
 30
0.0
  0
VERTEX
  5
1EC1D
  8
0
 10
46.26723987205434
 20
104.7286405744572
 30
0.0
  0
VERTEX
  5
1EC1E
  8
0
 10
46.238885380439228
 20
104.90295095322649
 30
0.0
  0
VERTEX
  5
1EC1F
  8
0
 10
46.211181916908679
 20
105.1010319697364
 30
0.0
  0
VERTEX
  5
1EC20
  8
0
 10
46.184256820902867
 20
105.3220002499413
 30
0.0
  0
VERTEX
  5
1EC21
  8
0
 10
46.157433970763073
 20
105.57282383055821
 30
0.0
  0
VERTEX
  5
1EC22
  8
0
 10
46.13156735953185
 20
105.8467741994355
 30
0.0
  0
VERTEX
  5
1EC23
  8
0
 10
46.106783719231878
 20
106.1425371937686
 30
0.0
  0
VERTEX
  5
1EC24
  8
0
 10
46.077233059444829
 20
106.54471449258931
 30
0.0
  0
VERTEX
  5
1EC25
  8
0
 10
46.04964709357256
 20
106.9782450553342
 30
0.0
  0
VERTEX
  5
1EC26
  8
0
 10
46.023652359922323
 20
107.4512398006709
 30
0.0
  0
VERTEX
  5
1EC27
  8
0
 10
46.0
 20
107.9521074666699
 30
0.0
  0
SEQEND
  5
1EC28
  8
0
  0
POLYLINE
  5
1E5CE
  8
0
 66
     1
 10
0.0
 20
0.0
 30
0.0
  0
VERTEX
  5
1EC29
  8
0
 10
54.0
 20
107.9521074666804
 30
0.0
  0
VERTEX
  5
1EC2A
  8
0
 10
53.982367406724443
 20
107.57155691960639
 30
0.0
  0
VERTEX
  5
1EC2B
  8
0
 10
53.963366225390239
 20
107.2062458856136
 30
0.0
  0
VERTEX
  5
1EC2C
  8
0
 10
53.943084921783907
 20
106.8578518010212
 30
0.0
  0
VERTEX
  5
1EC2D
  8
0
 10
53.92092189596633
 20
106.5178760541672
 30
0.0
  0
VERTEX
  5
1EC2E
  8
0
 10
53.897508486784382
 20
106.1974742009016
 30
0.0
  0
VERTEX
  5
1EC2F
  8
0
 10
53.872959592513212
 20
105.89819174136269
 30
0.0
  0
VERTEX
  5
1EC30
  8
0
 10
53.840442600996198
 20
105.5517647395645
 30
0.0
  0
VERTEX
  5
1EC31
  8
0
 10
53.806383984965692
 20
105.2418362984437
 30
0.0
  0
VERTEX
  5
1EC32
  8
0
 10
53.770186162497218
 20
104.9646753010457
 30
0.0
  0
VERTEX
  5
1EC33
  8
0
 10
53.73276012794566
 20
104.7286405744572
 30
0.0
  0
SEQEND
  5
1EC34
  8
0
  0
LINE
  5
1E5D1
  8
0
 10
53.540208139086701
 20
121.0000000000001
 30
0.0
 11
46.460271491275471
 21
121.0000000000001
 31
0.0
  0
POLYLINE
  5
1E5D2
  8
0
 66
     1
 10
0.0
 20
0.0
 30
0.0
  0
VERTEX
  5
1EC35
  8
0
 10
53.539246912699582
 20
120.999998529675
 30
0.0
  0
VERTEX
  5
1EC36
  8
0
 10
53.559156437655808
 20
120.9947436340513
 30
0.0
  0
VERTEX
  5
1EC37
  8
0
 10
53.5824894961479
 20
120.9747329407291
 30
0.0
  0
VERTEX
  5
1EC38
  8
0
 10
53.606257698980578
 20
120.93884427998201
 30
0.0
  0
VERTEX
  5
1EC39
  8
0
 10
53.629903295540771
 20
120.88741661213081
 30
0.0
  0
VERTEX
  5
1EC3A
  8
0
 10
53.653557194028743
 20
120.8199591105485
 30
0.0
  0
VERTEX
  5
1EC3B
  8
0
 10
53.676997843759409
 20
120.7369252777206
 30
0.0
  0
VERTEX
  5
1EC3C
  8
0
 10
53.699233166683591
 20
120.64279566479701
 30
0.0
  0
VERTEX
  5
1EC3D
  8
0
 10
53.721193162675043
 20
120.5346262775489
 30
0.0
  0
VERTEX
  5
1EC3E
  8
0
 10
53.742989983475582
 20
120.41167656871519
 30
0.0
  0
VERTEX
  5
1EC3F
  8
0
 10
53.76443025516533
 20
120.2748737056651
 30
0.0
  0
VERTEX
  5
1EC40
  8
0
 10
53.78593472783632
 20
120.1209685818994
 30
0.0
  0
VERTEX
  5
1EC41
  8
0
 10
53.806987128025753
 20
119.9531071145412
 30
0.0
  0
VERTEX
  5
1EC42
  8
0
 10
53.827699719773193
 20
119.7701673674683
 30
0.0
  0
VERTEX
  5
1EC43
  8
0
 10
53.847874512484623
 20
119.57369942651199
 30
0.0
  0
VERTEX
  5
1EC44
  8
0
 10
53.866665506491699
 20
119.3730739410053
 30
0.0
  0
VERTEX
  5
1EC45
  8
0
 10
53.884894822046867
 20
119.1606964158061
 30
0.0
  0
VERTEX
  5
1EC46
  8
0
 10
53.902651439129947
 20
118.93531063402639
 30
0.0
  0
VERTEX
  5
1EC47
  8
0
 10
53.919774708097691
 20
118.698761961145
 30
0.0
  0
VERTEX
  5
1EC48
  8
0
 10
53.936587769118432
 20
118.4458956770696
 30
0.0
  0
VERTEX
  5
1EC49
  8
0
 10
53.952676340040632
 20
118.1822569224872
 30
0.0
  0
VERTEX
  5
1EC4A
  8
0
 10
53.968121188291548
 20
117.90623595145171
 30
0.0
  0
VERTEX
  5
1EC4B
  8
0
 10
53.982771133312887
 20
117.62027863680029
 30
0.0
  0
VERTEX
  5
1EC4C
  8
0
 10
54.0
 20
117.2478925333197
 30
0.0
  0
SEQEND
  5
1EC4D
  8
0
  0
LINE
  5
1E5F7
  8
1
 10
179.91666666666529
 20
182.37500000000011
 30
0.0
 11
179.91666666666529
 21
187.62500000000011
 31
0.0
  0
LINE
  5
1E6E4
  8
2
 10
172.9954541697339
 20
185.50000000000011
 30
0.0
 11
164.91666666666529
 21
185.50000000000011
 31
0.0
  0
LINE
  5
1E6E5
  8
2
 10
164.91666666666529
 20
184.50000000000011
 30
0.0
 11
172.9954541697339
 21
184.50000000000011
 31
0.0
  0
ARC
  5
1E6E7
  8
2
 10
164.91666666666529
 20
185.00000000000011
 30
0.0
 40
0.5
 50
90.0
 51
270.0
  0
LINE
  5
1E6EB
  8
0
 10
179.91666666666529
 20
185.50000000000011
 30
0.0
 11
172.9954541697339
 21
185.50000000000011
 31
0.0
  0
LINE
  5
1E6EC
  8
0
 10
172.9954541697339
 20
184.50000000000011
 30
0.0
 11
179.91666666666529
 21
184.50000000000011
 31
0.0
  0
ARC
  5
1E6ED
  8
0
 10
179.91666666666529
 20
185.00000000000011
 30
0.0
 40
0.5
 50
270.0
 51
90.0
  0
ARC
  5
1E6F0
  8
2
 10
163.83318671377631
 20
185.00000000000011
 30
0.0
 40
3.2857923380429011
 50
285.04502229720651
 51
74.954977702794281
  0
ARC
  5
1E6F1
  8
2
 10
163.8331867137764
 20
185.00000000000011
 30
0.0
 40
2.202464146188952
 50
285.11610890099303
 51
74.88389109900757
  0
LINE
  5
1E6F3
  8
2
 10
164.68610604300349
 20
188.17316244566399
 30
0.0
 11
163.49894211242031
 21
188.4890534371556
 31
0.0
  0
LINE
  5
1E6F4
  8
2
 10
160.1191108872448
 20
188.26735932734539
 30
0.0
 11
164.40753638110581
 21
187.12625745733831
 31
0.0
  0
LINE
  5
1E6FB
  8
2
 10
164.40753638110581
 20
182.87374254266189
 30
0.0
 11
160.1191108872448
 21
181.7326406726547
 31
0.0
  0
LINE
  5
1E6FC
  8
2
 10
163.49894211242031
 20
181.51094656284459
 30
0.0
 11
164.68610604300349
 21
181.82683755433609
 31
0.0
  0
LINE
  5
1E711
  8
1
 10
145.49999999999861
 20
174.00000000000011
 30
0.0
 11
145.49999999999861
 21
196.00000000000011
 31
0.0
  0
LINE
  5
1E712
  8
1
 10
258.91666666666708
 20
185.00000000000011
 30
0.0
 11
115.0
 21
185.00000000000011
 31
0.0
  0
LINE
  5
1E715
  8
0
 10
163.49894211242031
 20
188.4890534371556
 30
0.0
 11
147.55712981093541
 21
192.73099068302099
 31
0.0
  0
LINE
  5
1E716
  8
0
 10
151.16330150039281
 20
190.65039964211689
 30
0.0
 11
160.1191108872448
 21
188.26735932734539
 31
0.0
  0
LINE
  5
1E717
  8
0
 10
160.1191108872448
 20
181.7326406726547
 30
0.0
 11
151.16330150039281
 21
179.3496003578833
 31
0.0
  0
LINE
  5
1E718
  8
0
 10
147.55712981093541
 20
177.26900931697921
 30
0.0
 11
163.49894211242031
 21
181.51094656284459
 31
0.0
  0
LINE
  5
1E719
  8
0
 10
155.0828790242611
 20
182.06298348129721
 30
0.0
 11
171.2885633566496
 21
181.00000000000011
 31
0.0
  0
LINE
  5
1E71A
  8
0
 10
135.91712097573611
 20
187.93701651870299
 30
0.0
 11
119.7114366433476
 21
189.00000000000011
 31
0.0
  0
LINE
  5
1E71B
  8
0
 10
119.7114366433476
 20
181.00000000000011
 30
0.0
 11
135.91712097573611
 21
182.06298348129721
 31
0.0
  0
LINE
  5
1E71C
  8
0
 10
171.2885633566496
 20
189.00000000000011
 30
0.0
 11
155.0828790242611
 21
187.93701651870299
 31
0.0
  0
POLYLINE
  5
1E71D
  8
0
 66
     1
 10
0.0
 20
0.0
 30
0.0
  0
VERTEX
  5
1EC4E
  8
0
 10
138.80469228319271
 20
180.6213181689829
 30
0.0
  0
VERTEX
  5
1EC4F
  8
0
 10
138.59472884760731
 20
180.90615168847731
 30
0.0
  0
VERTEX
  5
1EC50
  8
0
 10
138.35409353124339
 20
181.1669064688156
 30
0.0
  0
VERTEX
  5
1EC51
  8
0
 10
138.08739814567571
 20
181.3987087199979
 30
0.0
  0
VERTEX
  5
1EC52
  8
0
 10
137.79697334860819
 20
181.59898148300871
 30
0.0
  0
VERTEX
  5
1EC53
  8
0
 10
137.48592331698481
 20
181.76649646214869
 30
0.0
  0
VERTEX
  5
1EC54
  8
0
 10
137.16008918402241
 20
181.8983493280347
 30
0.0
  0
VERTEX
  5
1EC55
  8
0
 10
136.8194371204626
 20
181.99369404729029
 30
0.0
  0
VERTEX
  5
1EC56
  8
0
 10
136.4700722912323
 20
182.05111850239621
 30
0.0
  0
VERTEX
  5
1EC57
  8
0
 10
136.1183545013871
 20
182.06983476174551
 30
0.0
  0
VERTEX
  5
1EC58
  8
0
 10
135.91712097573611
 20
182.06298348129721
 30
0.0
  0
SEQEND
  5
1EC59
  8
0
  0
ARC
  5
1E71E
  8
0
 10
145.49999999999861
 20
185.00000000000011
 30
0.0
 40
8.0
 50
213.18438991148111
 51
326.81560928988642
  0
POLYLINE
  5
1E71F
  8
0
 66
     1
 10
0.0
 20
0.0
 30
0.0
  0
VERTEX
  5
1EC5A
  8
0
 10
155.0828790242611
 20
182.06298348129721
 30
0.0
  0
VERTEX
  5
1EC5B
  8
0
 10
154.7248867090982
 20
182.06614656272109
 30
0.0
  0
VERTEX
  5
1EC5C
  8
0
 10
154.3668902839207
 20
182.02924831966729
 30
0.0
  0
VERTEX
  5
1EC5D
  8
0
 10
154.0155737434705
 20
181.95271432862049
 30
0.0
  0
VERTEX
  5
1EC5E
  8
0
 10
153.67412573219809
 20
181.8363143480409
 30
0.0
  0
VERTEX
  5
1EC5F
  8
0
 10
153.34612237066719
 20
181.68153581593239
 30
0.0
  0
VERTEX
  5
1EC60
  8
0
 10
153.03802042363591
 20
181.49115586574669
 30
0.0
  0
VERTEX
  5
1EC61
  8
0
 10
152.75718902654131
 20
181.26980330358299
 30
0.0
  0
VERTEX
  5
1EC62
  8
0
 10
152.50155550138851
 20
181.01751536152301
 30
0.0
  0
VERTEX
  5
1EC63
  8
0
 10
152.2761415802091
 20
180.7390935864608
 30
0.0
  0
VERTEX
  5
1EC64
  8
0
 10
152.1953076557711
 20
180.62131807565871
 30
0.0
  0
SEQEND
  5
1EC65
  8
0
  0
POLYLINE
  5
1E720
  8
0
 66
     1
 10
0.0
 20
0.0
 30
0.0
  0
VERTEX
  5
1EC66
  8
0
 10
152.1953076557711
 20
189.37868192434149
 30
0.0
  0
VERTEX
  5
1EC67
  8
0
 10
152.40527108122521
 20
189.09384839777951
 30
0.0
  0
VERTEX
  5
1EC68
  8
0
 10
152.6459063882815
 20
188.83309360922041
 30
0.0
  0
VERTEX
  5
1EC69
  8
0
 10
152.91260176555491
 20
188.6012913488301
 30
0.0
  0
VERTEX
  5
1EC6A
  8
0
 10
153.20302655545629
 20
188.4010185757094
 30
0.0
  0
VERTEX
  5
1EC6B
  8
0
 10
153.51407658107871
 20
188.2335035856882
 30
0.0
  0
VERTEX
  5
1EC6C
  8
0
 10
153.839910709305
 20
188.101650708368
 30
0.0
  0
VERTEX
  5
1EC6D
  8
0
 10
154.18056276915189
 20
188.00630597719311
 30
0.0
  0
VERTEX
  5
1EC6E
  8
0
 10
154.52992759599439
 20
187.9488815097809
 30
0.0
  0
VERTEX
  5
1EC6F
  8
0
 10
154.88164538480669
 20
187.9301652379626
 30
0.0
  0
VERTEX
  5
1EC70
  8
0
 10
155.0828790242611
 20
187.93701651870299
 30
0.0
  0
SEQEND
  5
1EC71
  8
0
  0
ARC
  5
1E721
  8
0
 10
145.49999999999861
 20
185.00000000000011
 30
0.0
 40
8.0000000000000018
 50
33.184390710113362
 51
146.81561014366159
  0
POLYLINE
  5
1E722
  8
0
 66
     1
 10
0.0
 20
0.0
 30
0.0
  0
VERTEX
  5
1EC72
  8
0
 10
135.91712097573611
 20
187.93701651870299
 30
0.0
  0
VERTEX
  5
1EC73
  8
0
 10
136.27511329089899
 20
187.93385343727911
 30
0.0
  0
VERTEX
  5
1EC74
  8
0
 10
136.63310971607649
 20
187.97075168033291
 30
0.0
  0
VERTEX
  5
1EC75
  8
0
 10
136.9844262565268
 20
188.04728567137971
 30
0.0
  0
VERTEX
  5
1EC76
  8
0
 10
137.32587426779921
 20
188.16368565195921
 30
0.0
  0
VERTEX
  5
1EC77
  8
0
 10
137.65387762933
 20
188.31846418406781
 30
0.0
  0
VERTEX
  5
1EC78
  8
0
 10
137.96197957636139
 20
188.50884413425351
 30
0.0
  0
VERTEX
  5
1EC79
  8
0
 10
138.2428109734559
 20
188.73019669641721
 30
0.0
  0
VERTEX
  5
1EC7A
  8
0
 10
138.49844449860871
 20
188.98248463847719
 30
0.0
  0
VERTEX
  5
1EC7B
  8
0
 10
138.7238584197882
 20
189.26090641353929
 30
0.0
  0
VERTEX
  5
1EC7C
  8
0
 10
138.80469227897871
 20
189.3786818245737
 30
0.0
  0
SEQEND
  5
1EC7D
  8
0
  0
POLYLINE
  5
1E723
  8
0
 66
     1
 10
0.0
 20
0.0
 30
0.0
  0
VERTEX
  5
1EC7E
  8
0
 10
149.21428570499859
 20
185.65000000000009
 30
0.0
  0
VERTEX
  5
1EC7F
  8
0
 10
149.09726237466029
 20
185.639317517422
 30
0.0
  0
VERTEX
  5
1EC80
  8
0
 10
148.98253103419319
 20
185.60728063739921
 30
0.0
  0
VERTEX
  5
1EC81
  8
0
 10
148.87331661433609
 20
185.55327924900931
 30
0.0
  0
VERTEX
  5
1EC82
  8
0
 10
148.77420363092881
 20
185.4783594548899
 30
0.0
  0
VERTEX
  5
1EC83
  8
0
 10
148.69590455113709
 20
185.39198587574739
 30
0.0
  0
VERTEX
  5
1EC84
  8
0
 10
148.6332750321987
 20
185.29142168432131
 30
0.0
  0
VERTEX
  5
1EC85
  8
0
 10
148.5928840507039
 20
185.19039824340379
 30
0.0
  0
VERTEX
  5
1EC86
  8
0
 10
148.56963696795609
 20
185.08323464320509
 30
0.0
  0
VERTEX
  5
1EC87
  8
0
 10
148.5646627414491
 20
184.97999493017741
 30
0.0
  0
VERTEX
  5
1EC88
  8
0
 10
148.5759644659326
 20
184.87733787969719
 30
0.0
  0
VERTEX
  5
1EC89
  8
0
 10
148.6026794409824
 20
184.78008840818001
 30
0.0
  0
VERTEX
  5
1EC8A
  8
0
 10
148.64360747504529
 20
184.68883066048011
 30
0.0
  0
VERTEX
  5
1EC8B
  8
0
 10
148.6987246568649
 20
184.60423591760789
 30
0.0
  0
VERTEX
  5
1EC8C
  8
0
 10
148.76518374419919
 20
184.53009849031309
 30
0.0
  0
VERTEX
  5
1EC8D
  8
0
 10
148.84552815080019
 20
184.46478373953909
 30
0.0
  0
VERTEX
  5
1EC8E
  8
0
 10
148.93363363363909
 20
184.41371132124061
 30
0.0
  0
VERTEX
  5
1EC8F
  8
0
 10
149.03512602495471
 20
184.37522523261239
 30
0.0
  0
VERTEX
  5
1EC90
  8
0
 10
149.14003117915769
 20
184.35425526297769
 30
0.0
  0
VERTEX
  5
1EC91
  8
0
 10
149.25556219471491
 20
184.35135810729881
 30
0.0
  0
VERTEX
  5
1EC92
  8
0
 10
149.36915771128201
 20
184.3687198231612
 30
0.0
  0
VERTEX
  5
1EC93
  8
0
 10
149.485123067594
 20
184.4091749368763
 30
0.0
  0
VERTEX
  5
1EC94
  8
0
 10
149.59249256808539
 20
184.4713606439982
 30
0.0
  0
VERTEX
  5
1EC95
  8
0
 10
149.68539311124451
 20
184.55216318621601
 30
0.0
  0
VERTEX
  5
1EC96
  8
0
 10
149.76562936532221
 20
184.6557324177025
 30
0.0
  0
VERTEX
  5
1EC97
  8
0
 10
149.8107718395643
 20
184.74186713283461
 30
0.0
  0
VERTEX
  5
1EC98
  8
0
 10
149.8431353723814
 20
184.8355369469075
 30
0.0
  0
VERTEX
  5
1EC99
  8
0
 10
149.86094070835671
 20
184.93498292326501
 30
0.0
  0
VERTEX
  5
1EC9A
  8
0
 10
149.8632552380169
 20
185.03658613417801
 30
0.0
  0
VERTEX
  5
1EC9B
  8
0
 10
149.8513354048813
 20
185.1288239890639
 30
0.0
  0
VERTEX
  5
1EC9C
  8
0
 10
149.8268051643492
 20
185.2175314044382
 30
0.0
  0
VERTEX
  5
1EC9D
  8
0
 10
149.78998528071551
 20
185.3016997513011
 30
0.0
  0
VERTEX
  5
1EC9E
  8
0
 10
149.7427390296306
 20
185.37846675373859
 30
0.0
  0
VERTEX
  5
1EC9F
  8
0
 10
149.6796390813862
 20
185.4537703198007
 30
0.0
  0
VERTEX
  5
1ECA0
  8
0
 10
149.60744565880421
 20
185.51761496377489
 30
0.0
  0
VERTEX
  5
1ECA1
  8
0
 10
149.51551010701081
 20
185.57595150521169
 30
0.0
  0
VERTEX
  5
1ECA2
  8
0
 10
149.4162972460328
 20
185.61781173288401
 30
0.0
  0
VERTEX
  5
1ECA3
  8
0
 10
149.31665404154759
 20
185.6418604894543
 30
0.0
  0
VERTEX
  5
1ECA4
  8
0
 10
149.21428570499859
 20
185.65000000000009
 30
0.0
  0
SEQEND
  5
1ECA5
  8
0
  0
POLYLINE
  5
1E724
  8
0
 66
     1
 10
0.0
 20
0.0
 30
0.0
  0
VERTEX
  5
1ECA6
  8
0
 10
141.7857142949986
 20
185.65000000000009
 30
0.0
  0
VERTEX
  5
1ECA7
  8
0
 10
141.6629918730269
 20
185.6382517530038
 30
0.0
  0
VERTEX
  5
1ECA8
  8
0
 10
141.54474905747949
 20
185.60368514501141
 30
0.0
  0
VERTEX
  5
1ECA9
  8
0
 10
141.43417668189849
 20
185.54666059085861
 30
0.0
  0
VERTEX
  5
1ECAA
  8
0
 10
141.33490131499511
 20
185.46826024501391
 30
0.0
  0
VERTEX
  5
1ECAB
  8
0
 10
141.2543623562384
 20
185.37420074014759
 30
0.0
  0
VERTEX
  5
1ECAC
  8
0
 10
141.19158132628709
 20
185.26363993530961
 30
0.0
  0
VERTEX
  5
1ECAD
  8
0
 10
141.15539752812489
 20
185.1582763205372
 30
0.0
  0
VERTEX
  5
1ECAE
  8
0
 10
141.1373903283835
 20
185.04664798294041
 30
0.0
  0
VERTEX
  5
1ECAF
  8
0
 10
141.1377155893513
 20
184.94993739894909
 30
0.0
  0
VERTEX
  5
1ECB0
  8
0
 10
141.152153307097
 20
184.8547399758736
 30
0.0
  0
VERTEX
  5
1ECB1
  8
0
 10
141.17877722116339
 20
184.76746519237159
 30
0.0
  0
VERTEX
  5
1ECB2
  8
0
 10
141.21656077407371
 20
184.6860505301506
 30
0.0
  0
VERTEX
  5
1ECB3
  8
0
 10
141.2683668576008
 20
184.6065398816171
 30
0.0
  0
VERTEX
  5
1ECB4
  8
0
 10
141.32979646179911
 20
184.536708591305
 30
0.0
  0
VERTEX
  5
1ECB5
  8
0
 10
141.4096863901496
 20
184.46984596311191
 30
0.0
  0
VERTEX
  5
1ECB6
  8
0
 10
141.4977652174621
 20
184.41726049666619
 30
0.0
  0
VERTEX
  5
1ECB7
  8
0
 10
141.60547848962429
 20
184.37553233053481
 30
0.0
  0
VERTEX
  5
1ECB8
  8
0
 10
141.7185022206836
 20
184.35348431027069
 30
0.0
  0
VERTEX
  5
1ECB9
  8
0
 10
141.84233745316041
 20
184.3525406976274
 30
0.0
  0
VERTEX
  5
1ECBA
  8
0
 10
141.96551269952681
 20
184.37536207789711
 30
0.0
  0
VERTEX
  5
1ECBB
  8
0
 10
142.08134422104081
 20
184.42122795572351
 30
0.0
  0
VERTEX
  5
1ECBC
  8
0
 10
142.1883407559624
 20
184.48971387150769
 30
0.0
  0
VERTEX
  5
1ECBD
  8
0
 10
142.27411408034891
 20
184.57124078523239
 30
0.0
  0
VERTEX
  5
1ECBE
  8
0
 10
142.3449125255855
 20
184.6686431849071
 30
0.0
  0
VERTEX
  5
1ECBF
  8
0
 10
142.39278521531779
 20
184.7679394108437
 30
0.0
  0
VERTEX
  5
1ECC0
  8
0
 10
142.4235618171972
 20
184.8748978880071
 30
0.0
  0
VERTEX
  5
1ECC1
  8
0
 10
142.43528496440919
 20
184.97843899286499
 30
0.0
  0
VERTEX
  5
1ECC2
  8
0
 10
142.4304421878
 20
185.08261927283519
 30
0.0
  0
VERTEX
  5
1ECC3
  8
0
 10
142.4097631471096
 20
185.18161532566691
 30
0.0
  0
VERTEX
  5
1ECC4
  8
0
 10
142.3743893683891
 20
185.27561142568621
 30
0.0
  0
VERTEX
  5
1ECC5
  8
0
 10
142.32468271782329
 20
185.36324080818531
 30
0.0
  0
VERTEX
  5
1ECC6
  8
0
 10
142.2630048128382
 20
185.44124116034271
 30
0.0
  0
VERTEX
  5
1ECC7
  8
0
 10
142.1874103639245
 20
185.51095776426129
 30
0.0
  0
VERTEX
  5
1ECC8
  8
0
 10
142.10328452056319
 20
185.5671412097837
 30
0.0
  0
VERTEX
  5
1ECC9
  8
0
 10
142.0055768698698
 20
185.6116386380223
 30
0.0
  0
VERTEX
  5
1ECCA
  8
0
 10
141.9035206471759
 20
185.63923521757391
 30
0.0
  0
VERTEX
  5
1ECCB
  8
0
 10
141.7857142949986
 20
185.65000000000009
 30
0.0
  0
SEQEND
  5
1ECCC
  8
0
  0
CIRCLE
  5
1E725
  8
0
 10
145.49999999999861
 20
185.00000000000011
 30
0.0
 40
6.0099999999999989
  0
POLYLINE
  5
1E726
  8
0
 66
     1
 10
0.0
 20
0.0
 30
0.0
  0
VERTEX
  5
1ECCD
  8
0
 10
147.35714285714141
 20
184.35000000000011
 30
0.0
  0
VERTEX
  5
1ECCE
  8
0
 10
147.2471298545066
 20
184.35944304497971
 30
0.0
  0
VERTEX
  5
1ECCF
  8
0
 10
147.13983991626051
 20
184.38739945161279
 30
0.0
  0
VERTEX
  5
1ECD0
  8
0
 10
147.0383664492968
 20
184.43361837474001
 30
0.0
  0
VERTEX
  5
1ECD1
  8
0
 10
146.94582762506579
 20
184.49669116850339
 30
0.0
  0
VERTEX
  5
1ECD2
  8
0
 10
146.8665704308838
 20
184.5736832402369
 30
0.0
  0
VERTEX
  5
1ECD3
  8
0
 10
146.80120938655921
 20
184.66319445330231
 30
0.0
  0
VERTEX
  5
1ECD4
  8
0
 10
146.75272087486169
 20
184.76107431535371
 30
0.0
  0
VERTEX
  5
1ECD5
  8
0
 10
146.7211444383598
 20
184.86581352040079
 30
0.0
  0
VERTEX
  5
1ECD6
  8
0
 10
146.70774742240991
 20
184.97355061503919
 30
0.0
  0
VERTEX
  5
1ECD7
  8
0
 10
146.71234061058149
 20
185.08203696015329
 30
0.0
  0
VERTEX
  5
1ECD8
  8
0
 10
146.7349589564889
 20
185.1878890319573
 30
0.0
  0
VERTEX
  5
1ECD9
  8
0
 10
146.77465463141789
 20
185.2884570451445
 30
0.0
  0
VERTEX
  5
1ECDA
  8
0
 10
146.83054316536229
 20
185.38093137713909
 30
0.0
  0
VERTEX
  5
1ECDB
  8
0
 10
146.90068229828739
 20
185.46275669439859
 30
0.0
  0
VERTEX
  5
1ECDC
  8
0
 10
146.98369101203241
 20
185.5319319523326
 30
0.0
  0
VERTEX
  5
1ECDD
  8
0
 10
147.0765647744031
 20
185.58632409082941
 30
0.0
  0
VERTEX
  5
1ECDE
  8
0
 10
147.17810887581089
 20
185.62479413063861
 30
0.0
  0
VERTEX
  5
1ECDF
  8
0
 10
147.2841499481431
 20
185.6458885625525
 30
0.0
  0
VERTEX
  5
1ECE0
  8
0
 10
147.39409431332641
 20
185.6488892888936
 30
0.0
  0
VERTEX
  5
1ECE1
  8
0
 10
147.502699816356
 20
185.6334928347064
 30
0.0
  0
VERTEX
  5
1ECE2
  8
0
 10
147.60925537741869
 20
185.5990485438401
 30
0.0
  0
VERTEX
  5
1ECE3
  8
0
 10
147.70848385167369
 20
185.5468633335316
 30
0.0
  0
VERTEX
  5
1ECE4
  8
0
 10
147.79803334761749
 20
185.47752043187489
 30
0.0
  0
VERTEX
  5
1ECE5
  8
0
 10
147.87465089919419
 20
185.39330068193539
 30
0.0
  0
VERTEX
  5
1ECE6
  8
0
 10
147.93442615339271
 20
185.2985698117771
 30
0.0
  0
VERTEX
  5
1ECE7
  8
0
 10
147.97739475251029
 20
185.19439029371711
 30
0.0
  0
VERTEX
  5
1ECE8
  8
0
 10
148.00097456822581
 20
185.08878923862119
 30
0.0
  0
VERTEX
  5
1ECE9
  8
0
 10
148.0068504479118
 20
184.9805052187651
 30
0.0
  0
VERTEX
  5
1ECEA
  8
0
 10
147.99524472535441
 20
184.87653794877721
 30
0.0
  0
VERTEX
  5
1ECEB
  8
0
 10
147.96733912786311
 20
184.7760345758887
 30
0.0
  0
VERTEX
  5
1ECEC
  8
0
 10
147.92377720390809
 20
184.68163833556781
 30
0.0
  0
VERTEX
  5
1ECED
  8
0
 10
147.8661852077033
 20
184.5958021705471
 30
0.0
  0
VERTEX
  5
1ECEE
  8
0
 10
147.7933833501524
 20
184.51820550601619
 30
0.0
  0
VERTEX
  5
1ECEF
  8
0
 10
147.70939626520521
 20
184.45372393745711
 30
0.0
  0
VERTEX
  5
1ECF0
  8
0
 10
147.6121056953026
 20
184.40215435450861
 30
0.0
  0
VERTEX
  5
1ECF1
  8
0
 10
147.50767074511501
 20
184.36766990033519
 30
0.0
  0
VERTEX
  5
1ECF2
  8
0
 10
147.35714285714141
 20
184.35000000000011
 30
0.0
  0
SEQEND
  5
1ECF3
  8
0
  0
POLYLINE
  5
1E727
  8
0
 66
     1
 10
0.0
 20
0.0
 30
0.0
  0
VERTEX
  5
1ECF4
  8
0
 10
143.6428571428558
 20
184.35000000000011
 30
0.0
  0
VERTEX
  5
1ECF5
  8
0
 10
143.530518615613
 20
184.3598465879758
 30
0.0
  0
VERTEX
  5
1ECF6
  8
0
 10
143.4217082757508
 20
184.38877730852161
 30
0.0
  0
VERTEX
  5
1ECF7
  8
0
 10
143.319527496608
 20
184.43619592677311
 30
0.0
  0
VERTEX
  5
1ECF8
  8
0
 10
143.22675646451509
 20
184.5006401843516
 30
0.0
  0
VERTEX
  5
1ECF9
  8
0
 10
143.14650008729581
 20
184.58043407746351
 30
0.0
  0
VERTEX
  5
1ECFA
  8
0
 10
143.08083490423269
 20
184.67345597036061
 30
0.0
  0
VERTEX
  5
1ECFB
  8
0
 10
143.03358930434501
 20
184.77374411893641
 30
0.0
  0
VERTEX
  5
1ECFC
  8
0
 10
143.00382004660111
 20
184.88112363729309
 30
0.0
  0
VERTEX
  5
1ECFD
  8
0
 10
142.99305255824569
 20
184.98730199360531
 30
0.0
  0
VERTEX
  5
1ECFE
  8
0
 10
142.9996686655108
 20
185.09385404951661
 30
0.0
  0
VERTEX
  5
1ECFF
  8
0
 10
143.0229232340495
 20
185.19520186582201
 30
0.0
  0
VERTEX
  5
1ED00
  8
0
 10
143.06172861634721
 20
185.29118659941349
 30
0.0
  0
VERTEX
  5
1ED01
  8
0
 10
143.11596991632811
 20
185.3805531083168
 30
0.0
  0
VERTEX
  5
1ED02
  8
0
 10
143.18332243261651
 20
185.45970408969831
 30
0.0
  0
VERTEX
  5
1ED03
  8
0
 10
143.26556857481501
 20
185.52922945710111
 30
0.0
  0
VERTEX
  5
1ED04
  8
0
 10
143.35774500711361
 20
185.5841327503681
 30
0.0
  0
VERTEX
  5
1ED05
  8
0
 10
143.46157579857481
 20
185.6241463272348
 30
0.0
  0
VERTEX
  5
1ED06
  8
0
 10
143.57072104657021
 20
185.64598481685931
 30
0.0
  0
VERTEX
  5
1ED07
  8
0
 10
143.68380871418651
 20
185.64863929424411
 30
0.0
  0
VERTEX
  5
1ED08
  8
0
 10
143.79606894181691
 20
185.63168516260811
 30
0.0
  0
VERTEX
  5
1ED09
  8
0
 10
143.90279130336751
 20
185.59568322255879
 30
0.0
  0
VERTEX
  5
1ED0A
  8
0
 10
144.00219498185211
 20
185.54164224121229
 30
0.0
  0
VERTEX
  5
1ED0B
  8
0
 10
144.089055267779
 20
185.47256034786551
 30
0.0
  0
VERTEX
  5
1ED0C
  8
0
 10
144.16323843605679
 20
185.38949109063799
 30
0.0
  0
VERTEX
  5
1ED0D
  8
0
 10
144.2211906191429
 20
185.29654800199259
 30
0.0
  0
VERTEX
  5
1ED0E
  8
0
 10
144.26290402363929
 20
185.19504324041259
 30
0.0
  0
VERTEX
  5
1ED0F
  8
0
 10
144.28667308374619
 20
185.0889633558541
 30
0.0
  0
VERTEX
  5
1ED10
  8
0
 10
144.29256023248979
 20
184.98035578151419
 30
0.0
  0
VERTEX
  5
1ED11
  8
0
 10
144.28021191640761
 20
184.87274528618721
 30
0.0
  0
VERTEX
  5
1ED12
  8
0
 10
144.25031870600171
 20
184.76871997643491
 30
0.0
  0
VERTEX
  5
1ED13
  8
0
 10
144.20353162960279
 20
184.6712755582225
 30
0.0
  0
VERTEX
  5
1ED14
  8
0
 10
144.1414972521043
 20
184.5830371222176
 30
0.0
  0
VERTEX
  5
1ED15
  8
0
 10
144.0655149419843
 20
184.50626164808941
 30
0.0
  0
VERTEX
  5
1ED16
  8
0
 10
143.97827468880331
 20
184.44322799112169
 30
0.0
  0
VERTEX
  5
1ED17
  8
0
 10
143.88109705442551
 20
184.39530029233259
 30
0.0
  0
VERTEX
  5
1ED18
  8
0
 10
143.77780775651769
 20
184.3641632820667
 30
0.0
  0
VERTEX
  5
1ED19
  8
0
 10
143.6428571428558
 20
184.35000000000011
 30
0.0
  0
SEQEND
  5
1ED1A
  8
0
  0
POLYLINE
  5
1E728
  8
0
 66
     1
 10
0.0
 20
0.0
 30
0.0
  0
VERTEX
  5
1ED1B
  8
0
 10
145.49999999999861
 20
184.35000000000011
 30
0.0
  0
VERTEX
  5
1ED1C
  8
0
 10
145.39108210079539
 20
184.35925701269809
 30
0.0
  0
VERTEX
  5
1ED1D
  8
0
 10
145.28523907982651
 20
184.3865036698017
 30
0.0
  0
VERTEX
  5
1ED1E
  8
0
 10
145.1855463976101
 20
184.43119870618261
 30
0.0
  0
VERTEX
  5
1ED1F
  8
0
 10
145.0946958157252
 20
184.49183809842691
 30
0.0
  0
VERTEX
  5
1ED20
  8
0
 10
145.01523238109331
 20
184.56708404804669
 30
0.0
  0
VERTEX
  5
1ED21
  8
0
 10
144.9494133994217
 20
184.65452294538559
 30
0.0
  0
VERTEX
  5
1ED22
  8
0
 10
144.89924749392191
 20
184.75198628450161
 30
0.0
  0
VERTEX
  5
1ED23
  8
0
 10
144.86604239989691
 20
184.8564807982421
 30
0.0
  0
VERTEX
  5
1ED24
  8
0
 10
144.85101614285179
 20
184.96487088706311
 30
0.0
  0
VERTEX
  5
1ED25
  8
0
 10
144.8542553694638
 20
185.07425545189051
 30
0.0
  0
VERTEX
  5
1ED26
  8
0
 10
144.8758526731558
 20
185.18126111427739
 30
0.0
  0
VERTEX
  5
1ED27
  8
0
 10
144.9149220682404
 20
185.28316746594481
 30
0.0
  0
VERTEX
  5
1ED28
  8
0
 10
144.97066017225299
 20
185.37711495385111
 30
0.0
  0
VERTEX
  5
1ED29
  8
0
 10
145.04123499436801
 20
185.46047222457909
 30
0.0
  0
VERTEX
  5
1ED2A
  8
0
 10
145.1251097639705
 20
185.53091682765341
 30
0.0
  0
VERTEX
  5
1ED2B
  8
0
 10
145.21957256253401
 20
185.58639615646521
 30
0.0
  0
VERTEX
  5
1ED2C
  8
0
 10
145.3220955673325
 20
185.6251112448376
 30
0.0
  0
VERTEX
  5
1ED2D
  8
0
 10
145.42966465742401
 20
185.64618336374829
 30
0.0
  0
VERTEX
  5
1ED2E
  8
0
 10
145.53895398373339
 20
185.6487657926059
 30
0.0
  0
VERTEX
  5
1ED2F
  8
0
 10
145.6471428618527
 20
185.6331263524807
 30
0.0
  0
VERTEX
  5
1ED30
  8
0
 10
145.75098501934821
 20
185.59951852044901
 30
0.0
  0
VERTEX
  5
1ED31
  8
0
 10
145.84777620267349
 20
185.54913724409579
 30
0.0
  0
VERTEX
  5
1ED32
  8
0
 10
145.9348592297315
 20
185.48302551351651
 30
0.0
  0
VERTEX
  5
1ED33
  8
0
 10
146.00971862937601
 20
185.4033446651014
 30
0.0
  0
VERTEX
  5
1ED34
  8
0
 10
146.07018392282231
 20
185.31193770110059
 30
0.0
  0
VERTEX
  5
1ED35
  8
0
 10
146.11455915942949
 20
185.21170035323451
 30
0.0
  0
VERTEX
  5
1ED36
  8
0
 10
146.14131433703889
 20
185.10549824834879
 30
0.0
  0
VERTEX
  5
1ED37
  8
0
 10
146.14998949971141
 20
184.99630537375819
 30
0.0
  0
VERTEX
  5
1ED38
  8
0
 10
146.14012872064541
 20
184.8875269618506
 30
0.0
  0
VERTEX
  5
1ED39
  8
0
 10
146.1123239262869
 20
184.78191880114309
 30
0.0
  0
VERTEX
  5
1ED3A
  8
0
 10
146.06712999675699
 20
184.682541621778
 30
0.0
  0
VERTEX
  5
1ED3B
  8
0
 10
146.006062261886
 20
184.59207722900851
 30
0.0
  0
VERTEX
  5
1ED3C
  8
0
 10
145.93040271236811
 20
184.51299964478059
 30
0.0
  0
VERTEX
  5
1ED3D
  8
0
 10
145.84261911420171
 20
184.4476304293477
 30
0.0
  0
VERTEX
  5
1ED3E
  8
0
 10
145.74489734659119
 20
184.39797039597781
 30
0.0
  0
VERTEX
  5
1ED3F
  8
0
 10
145.6402324946076
 20
184.36530728107559
 30
0.0
  0
VERTEX
  5
1ED40
  8
0
 10
145.49999999999861
 20
184.35000000000011
 30
0.0
  0
SEQEND
  5
1ED41
  8
0
  0
POLYLINE
  5
1E729
  8
0
 66
     1
 10
0.0
 20
0.0
 30
0.0
  0
VERTEX
  5
1ED42
  8
0
 10
118.11832076031131
 20
187.54826254826261
 30
0.0
  0
VERTEX
  5
1ED43
  8
0
 10
118.11903500765391
 20
187.5557466874119
 30
0.0
  0
VERTEX
  5
1ED44
  8
0
 10
118.1422980592411
 20
187.71273030171599
 30
0.0
  0
VERTEX
  5
1ED45
  8
0
 10
118.1811322810879
 20
187.86708517301309
 30
0.0
  0
VERTEX
  5
1ED46
  8
0
 10
118.2358975485061
 20
188.01869348188629
 30
0.0
  0
VERTEX
  5
1ED47
  8
0
 10
118.30631728423189
 20
188.1652709236856
 30
0.0
  0
VERTEX
  5
1ED48
  8
0
 10
118.3945147495149
 20
188.3086896082622
 30
0.0
  0
VERTEX
  5
1ED49
  8
0
 10
118.49900380399551
 20
188.4440338165312
 30
0.0
  0
VERTEX
  5
1ED4A
  8
0
 10
118.6209226223765
 20
188.57080546743961
 30
0.0
  0
VERTEX
  5
1ED4B
  8
0
 10
118.75931254534611
 20
188.6858692398549
 30
0.0
  0
VERTEX
  5
1ED4C
  8
0
 10
118.9558367634226
 20
188.8103435118642
 30
0.0
  0
VERTEX
  5
1ED4D
  8
0
 10
119.1788965011971
 20
188.90877466740349
 30
0.0
  0
VERTEX
  5
1ED4E
  8
0
 10
119.431867560578
 20
188.97538602506171
 30
0.0
  0
VERTEX
  5
1ED4F
  8
0
 10
119.568766039572
 20
188.9936296818064
 30
0.0
  0
VERTEX
  5
1ED50
  8
0
 10
119.7114366433476
 20
189.00000000000011
 30
0.0
  0
SEQEND
  5
1ED51
  8
0
  0
POLYLINE
  5
1E72A
  8
0
 66
     1
 10
0.0
 20
0.0
 30
0.0
  0
VERTEX
  5
1ED52
  8
0
 10
119.7114366433476
 20
181.00000000000011
 30
0.0
  0
VERTEX
  5
1ED53
  8
0
 10
119.4940407653487
 20
181.0148211691951
 30
0.0
  0
VERTEX
  5
1ED54
  8
0
 10
119.2907590313504
 20
181.05629330934789
 30
0.0
  0
VERTEX
  5
1ED55
  8
0
 10
119.09890816208561
 20
181.12188025110231
 30
0.0
  0
VERTEX
  5
1ED56
  8
0
 10
118.9234669883314
 20
181.20748291831899
 30
0.0
  0
VERTEX
  5
1ED57
  8
0
 10
118.752072173611
 20
181.31949978196559
 30
0.0
  0
VERTEX
  5
1ED58
  8
0
 10
118.6005994114027
 20
181.4484462764313
 30
0.0
  0
VERTEX
  5
1ED59
  8
0
 10
118.4694470318354
 20
181.5913068826965
 30
0.0
  0
VERTEX
  5
1ED5A
  8
0
 10
118.35588630641421
 20
181.75001371358991
 30
0.0
  0
VERTEX
  5
1ED5B
  8
0
 10
118.2637594207486
 20
181.91866826736961
 30
0.0
  0
VERTEX
  5
1ED5C
  8
0
 10
118.19325397217339
 20
182.09490458629449
 30
0.0
  0
VERTEX
  5
1ED5D
  8
0
 10
118.1463366535196
 20
182.26764172668609
 30
0.0
  0
VERTEX
  5
1ED5E
  8
0
 10
118.11903500765391
 20
182.44425331258839
 30
0.0
  0
VERTEX
  5
1ED5F
  8
0
 10
118.11832076031121
 20
182.4517374517375
 30
0.0
  0
SEQEND
  5
1ED60
  8
0
  0
ARC
  5
1E72B
  8
0
 10
145.49999999999909
 20
185.00000000000011
 30
0.0
 40
27.500000000000789
 50
174.6830486136783
 51
185.3169117680076
  0
POLYLINE
  5
1E72D
  8
0
 66
     1
 10
0.0
 20
0.0
 30
0.0
  0
VERTEX
  5
1ED61
  8
0
 10
172.88167923968589
 20
182.4517374517375
 30
0.0
  0
VERTEX
  5
1ED62
  8
0
 10
172.88096499234339
 20
182.44425331258881
 30
0.0
  0
VERTEX
  5
1ED63
  8
0
 10
172.85770194075641
 20
182.28726969828421
 30
0.0
  0
VERTEX
  5
1ED64
  8
0
 10
172.81886771891089
 20
182.13291482699191
 30
0.0
  0
VERTEX
  5
1ED65
  8
0
 10
172.7641024514941
 20
181.98130651812099
 30
0.0
  0
VERTEX
  5
1ED66
  8
0
 10
172.69368271577031
 20
181.83472907632381
 30
0.0
  0
VERTEX
  5
1ED67
  8
0
 10
172.60548525048981
 20
181.6913103917488
 30
0.0
  0
VERTEX
  5
1ED68
  8
0
 10
172.50099619601221
 20
181.55596618348119
 30
0.0
  0
VERTEX
  5
1ED69
  8
0
 10
172.37907737763479
 20
181.42919453257369
 30
0.0
  0
VERTEX
  5
1ED6A
  8
0
 10
172.24068745466931
 20
181.3141307601588
 30
0.0
  0
VERTEX
  5
1ED6B
  8
0
 10
172.04416323659041
 20
181.18965648814441
 30
0.0
  0
VERTEX
  5
1ED6C
  8
0
 10
171.82110349881219
 20
181.091225332601
 30
0.0
  0
VERTEX
  5
1ED6D
  8
0
 10
171.56813243942591
 20
181.02461397493971
 30
0.0
  0
VERTEX
  5
1ED6E
  8
0
 10
171.4312339604287
 20
181.00637031819409
 30
0.0
  0
VERTEX
  5
1ED6F
  8
0
 10
171.2885633566496
 20
181.00000000000011
 30
0.0
  0
SEQEND
  5
1ED70
  8
0
  0
POLYLINE
  5
1E72E
  8
0
 66
     1
 10
0.0
 20
0.0
 30
0.0
  0
VERTEX
  5
1ED71
  8
0
 10
171.2885633566496
 20
189.00000000000011
 30
0.0
  0
VERTEX
  5
1ED72
  8
0
 10
171.50595923464849
 20
188.9851788308051
 30
0.0
  0
VERTEX
  5
1ED73
  8
0
 10
171.7092409686469
 20
188.94370669065231
 30
0.0
  0
VERTEX
  5
1ED74
  8
0
 10
171.90109183791171
 20
188.8781197488978
 30
0.0
  0
VERTEX
  5
1ED75
  8
0
 10
172.07653301166579
 20
188.79251708168121
 30
0.0
  0
VERTEX
  5
1ED76
  8
0
 10
172.24792782638619
 20
188.68050021803461
 30
0.0
  0
VERTEX
  5
1ED77
  8
0
 10
172.39940058859449
 20
188.55155372356879
 30
0.0
  0
VERTEX
  5
1ED78
  8
0
 10
172.5305529681618
 20
188.4086931173037
 30
0.0
  0
VERTEX
  5
1ED79
  8
0
 10
172.64411369358299
 20
188.24998628641029
 30
0.0
  0
VERTEX
  5
1ED7A
  8
0
 10
172.7362405792486
 20
188.08133173263059
 30
0.0
  0
VERTEX
  5
1ED7B
  8
0
 10
172.80674602782381
 20
187.9050954137056
 30
0.0
  0
VERTEX
  5
1ED7C
  8
0
 10
172.85366334647759
 20
187.73235827331411
 30
0.0
  0
VERTEX
  5
1ED7D
  8
0
 10
172.88096499234339
 20
187.55574668741221
 30
0.0
  0
VERTEX
  5
1ED7E
  8
0
 10
172.88167923968609
 20
187.54826254826261
 30
0.0
  0
SEQEND
  5
1ED7F
  8
0
  0
ARC
  5
1E72F
  8
0
 10
145.4999999999996
 20
185.00000000000011
 30
0.0
 40
27.499999999999311
 50
354.68307904166278
 51
5.3168553520284272
  0
LINE
  5
1E859
  8
1
 10
172.4166666666647
 20
85.666666666666615
 30
0.0
 11
172.4166666666647
 21
104.6666666666666
 31
0.0
  0
ARC
  5
1E85A
  8
0
 10
172.41666666666711
 20
95.166666666666629
 30
0.0
 40
7.9999999999999387
 50
355.33958061588447
 51
4.660419384115448
  0
ARC
  5
1E85B
  8
0
 10
172.416666666667
 20
95.166666666666629
 30
0.0
 40
8.0
 50
183.8823720030293
 51
329.99999999999949
  0
ARC
  5
1E85C
  8
0
 10
172.416666666667
 20
95.166666666666629
 30
0.0
 40
7.9999999999999991
 50
30.000000000000679
 51
176.1176279969699
  0
ARC
  5
1E85D
  8
0
 10
172.41666666666691
 20
95.166666666666629
 30
0.0
 40
7.0
 50
184.43803854664699
 51
325.15009542095339
  0
ARC
  5
1E85E
  8
0
 10
172.41666666666771
 20
95.166666666666629
 30
0.0
 40
6.9999999999992681
 50
354.67200209599793
 51
5.3279979040019549
  0
ARC
  5
1E85F
  8
0
 10
172.41666666666691
 20
95.166666666666629
 30
0.0
 40
6.9999999999999973
 50
34.849904579046601
 51
175.5619614533523
  0
LINE
  5
1E860
  8
0
 10
174.91666666666691
 20
98.566666666709111
 30
0.0
 11
174.91666666666691
 21
96.016666666709156
 31
0.0
  0
LINE
  5
1E861
  8
0
 10
174.91666666666691
 20
94.316666666709096
 30
0.0
 11
174.91666666666691
 21
91.766666666709142
 31
0.0
  0
LINE
  5
1E862
  8
0
 10
236.91666666666711
 20
94.666670618867855
 30
0.0
 11
236.91666666666711
 21
93.148217577669556
 31
0.0
  0
LINE
  5
1E863
  8
0
 10
236.91666666666711
 20
97.185115755663759
 30
0.0
 11
236.91666666666711
 21
95.666622929561385
 31
0.0
  0
ARC
  5
1E864
  8
0
 10
190.41666666666711
 20
95.166666666709119
 30
0.0
 40
2.2500000000000431
 50
65.375681647842001
 51
294.64854223596672
  0
ARC
  5
1E865
  8
0
 10
208.41666666666711
 20
95.166666666709119
 30
0.0
 40
2.2499999999999969
 50
192.83958840690431
 51
347.16041159309719
  0
ARC
  5
1E866
  8
0
 10
232.41666666666711
 20
95.166666666666714
 30
0.0
 40
2.249999999999984
 50
192.83958840690761
 51
347.16041159309549
  0
ARC
  5
1E867
  8
0
 10
226.41666666666711
 20
95.166666666666714
 30
0.0
 40
2.249999999999984
 50
192.83958840690761
 51
347.16041159309549
  0
ARC
  5
1E868
  8
0
 10
202.41666666666711
 20
95.166666666709119
 30
0.0
 40
2.25000000000004
 50
192.83958840690281
 51
347.16041159309719
  0
ARC
  5
1E869
  8
0
 10
214.41666666666711
 20
95.166666666709119
 30
0.0
 40
2.250000000000012
 50
192.83958840690599
 51
286.1681491524804
  0
ARC
  5
1E86A
  8
0
 10
220.41666666666711
 20
95.166666666666714
 30
0.0
 40
2.249999999999984
 50
192.83958840690431
 51
347.16041159309549
  0
ARC
  5
1E86B
  8
0
 10
196.41666666666711
 20
95.166666666709119
 30
0.0
 40
2.2500000000000342
 50
192.83958840690281
 51
347.16041159309719
  0
LINE
  5
1E86C
  8
0
 10
228.6104077635151
 20
94.666666666666714
 30
0.0
 11
230.22292556981901
 21
94.666666666666714
 31
0.0
  0
LINE
  5
1E86D
  8
0
 10
230.22292556981901
 20
95.666666666666714
 30
0.0
 11
228.6104077635151
 21
95.666666666666714
 31
0.0
  0
LINE
  5
1E86E
  8
0
 10
193.88529363326401
 20
94.666666666709119
 30
0.0
 11
194.22292556981901
 21
94.666666666709119
 31
0.0
  0
LINE
  5
1E86F
  8
0
 10
194.22292556981901
 20
95.666666666709105
 30
0.0
 11
193.88529363326381
 21
95.666666666709105
 31
0.0
  0
LINE
  5
1E870
  8
0
 10
217.0380822878177
 20
94.666666666666714
 30
0.0
 11
218.2229255698191
 21
94.666666666666714
 31
0.0
  0
LINE
  5
1E871
  8
0
 10
218.2229255698191
 20
95.666666666666714
 30
0.0
 11
217.81124044885851
 21
95.666666666666714
 31
0.0
  0
LINE
  5
1E872
  8
0
 10
222.6104077635151
 20
94.666666666666714
 30
0.0
 11
224.2229255698191
 21
94.666666666666714
 31
0.0
  0
LINE
  5
1E873
  8
0
 10
224.2229255698191
 20
95.666666666666714
 30
0.0
 11
222.6104077635151
 21
95.666666666666714
 31
0.0
  0
LINE
  5
1E874
  8
0
 10
204.6104077635151
 20
94.666666666709119
 30
0.0
 11
206.22292556981901
 21
94.666666666709119
 31
0.0
  0
LINE
  5
1E875
  8
0
 10
206.22292556981901
 20
95.666666666709105
 30
0.0
 11
204.6104077635151
 21
95.666666666709105
 31
0.0
  0
LINE
  5
1E876
  8
0
 10
198.6104077635151
 20
94.666666666709119
 30
0.0
 11
200.22292556981901
 21
94.666666666709119
 31
0.0
  0
LINE
  5
1E877
  8
0
 10
200.22292556981901
 20
95.666666666709105
 30
0.0
 11
198.6104077635151
 21
95.666666666709105
 31
0.0
  0
LINE
  5
1E878
  8
0
 10
234.6104077635151
 20
94.666666666666714
 30
0.0
 11
236.91666666666711
 21
94.666666666666714
 31
0.0
  0
LINE
  5
1E879
  8
0
 10
236.91666666666711
 20
95.666666666666714
 30
0.0
 11
234.6104077635151
 21
95.666666666666714
 31
0.0
  0
LINE
  5
1E87A
  8
0
 10
210.6104077635151
 20
94.666666666709119
 30
0.0
 11
212.22292556981901
 21
94.666666666709119
 31
0.0
  0
LINE
  5
1E87B
  8
0
 10
212.22292556981901
 20
95.666666666709105
 30
0.0
 11
210.6104077635151
 21
95.666666666709105
 31
0.0
  0
POLYLINE
  5
1E87C
  8
0
 66
     1
 10
0.0
 20
0.0
 30
0.0
 70
   128
  0
VERTEX
  5
1ED80
  8
0
 10
174.91666666666691
 20
98.566666666709111
 30
0.0
  0
VERTEX
  5
1ED81
  8
0
 10
174.91668452386619
 20
98.571295740925606
 30
0.0
  0
VERTEX
  5
1ED82
  8
0
 10
175.14073827821451
 20
99.034296698631223
 30
0.0
  0
VERTEX
  5
1ED83
  8
0
 10
175.51666666666699
 20
99.166666666709133
 30
0.0
  0
SEQEND
  5
1ED84
  8
0
  0
LINE
  5
1E87D
  8
0
 10
180.41666666666711
 20
95.816666666709096
 30
0.0
 11
175.1166666636868
 21
95.816666666709096
 31
0.0
  0
POLYLINE
  5
1E87E
  8
0
 66
     1
 10
0.0
 20
0.0
 30
0.0
 70
   128
  0
VERTEX
  5
1ED85
  8
0
 10
175.1166666636868
 20
95.816666666709096
 30
0.0
  0
VERTEX
  5
1ED86
  8
0
 10
175.020051319494
 20
95.841551062907541
 30
0.0
  0
VERTEX
  5
1ED87
  8
0
 10
174.91668589750719
 20
96.01389322714769
 30
0.0
  0
VERTEX
  5
1ED88
  8
0
 10
174.91666666666691
 20
96.016666666709156
 30
0.0
  0
SEQEND
  5
1ED89
  8
0
  0
LINE
  5
1E87F
  8
0
 10
175.51666666666699
 20
99.166666666709133
 30
0.0
 11
189.91666666666711
 21
99.166666666709133
 31
0.0
  0
POLYLINE
  5
1E880
  8
0
 66
     1
 10
0.0
 20
0.0
 30
0.0
 70
   128
  0
VERTEX
  5
1ED8A
  8
0
 10
174.91666666666691
 20
94.316666666709096
 30
0.0
  0
VERTEX
  5
1ED8B
  8
0
 10
174.91668589750719
 20
94.319440106270534
 30
0.0
  0
VERTEX
  5
1ED8C
  8
0
 10
175.02005132162611
 20
94.491782271687015
 30
0.0
  0
VERTEX
  5
1ED8D
  8
0
 10
175.11666666666699
 20
94.516666666709156
 30
0.0
  0
SEQEND
  5
1ED8E
  8
0
  0
POLYLINE
  5
1E881
  8
0
 66
     1
 10
0.0
 20
0.0
 30
0.0
 70
   128
  0
VERTEX
  5
1ED8F
  8
0
 10
175.51666666666699
 20
91.166666666709006
 30
0.0
  0
VERTEX
  5
1ED90
  8
0
 10
175.14073827821451
 20
91.299036634786916
 30
0.0
  0
VERTEX
  5
1ED91
  8
0
 10
174.91668452386619
 20
91.762037592492646
 30
0.0
  0
VERTEX
  5
1ED92
  8
0
 10
174.91666666666691
 20
91.766666666709142
 30
0.0
  0
SEQEND
  5
1ED93
  8
0
  0
LINE
  5
1E882
  8
0
 10
175.11666666666699
 20
94.516666666709156
 30
0.0
 11
180.71666666666701
 21
94.516666666709156
 31
0.0
  0
LINE
  5
1E883
  8
0
 10
189.91666666666711
 20
91.166666666709006
 30
0.0
 11
175.51666666666699
 21
91.166666666709006
 31
0.0
  0
LINE
  5
1E884
  8
0
 10
180.91666666666711
 20
94.016666666709142
 30
0.0
 11
180.91666666666711
 21
94.316666666709096
 31
0.0
  0
ARC
  5
1E885
  8
0
 10
180.71666666666701
 20
94.316666666709096
 30
0.0
 40
0.1999999999999886
 50
0.0
 51
90.0
  0
ARC
  5
1E886
  8
0
 10
180.41666666666711
 20
96.316666666709096
 30
0.0
 40
0.5
 50
270.0
 51
0.0
  0
ARC
  5
1E887
  8
0
 10
187.13057947251519
 20
91.632870104004468
 30
0.0
 40
1.999999999999994
 50
51.747334162148569
 51
86.500000000000298
  0
ARC
  5
1E888
  8
0
 10
189.91666666666711
 20
95.166666666709119
 30
0.0
 40
2.499999999999996
 50
231.7473341621529
 51
128.25266583785131
  0
ARC
  5
1E889
  8
0
 10
187.13057947251519
 20
98.700463229413771
 30
0.0
 40
2.0000000000000169
 50
273.49999999999972
 51
308.2526658378514
  0
ARC
  5
1E88A
  8
0
 10
189.91666666666711
 20
95.166666666709119
 30
0.0
 40
4.0
 50
0.0
 51
90.0
  0
ARC
  5
1E88B
  8
0
 10
189.91666666666711
 20
95.166666666709119
 30
0.0
 40
4.0000000000000284
 50
270.0
 51
0.0
  0
LINE
  5
1E88C
  8
0
 10
180.91666666666711
 20
94.016666666709142
 30
0.0
 11
187.25267655158501
 21
93.629139700848185
 31
0.0
  0
LINE
  5
1E88D
  8
0
 10
187.25267655158501
 20
96.704193632570053
 30
0.0
 11
180.91666666666711
 21
96.316666666709096
 31
0.0
  0
POLYLINE
  5
1E88E
  8
0
 66
     1
 10
0.0
 20
0.0
 30
0.0
 70
   128
  0
VERTEX
  5
1ED94
  8
0
 10
236.91666666666711
 20
93.148217577669556
 30
0.0
  0
VERTEX
  5
1ED95
  8
0
 10
236.91668405803659
 20
93.143649279803157
 30
0.0
  0
VERTEX
  5
1ED96
  8
0
 10
237.0454548104031
 20
92.776788733183793
 30
0.0
  0
VERTEX
  5
1ED97
  8
0
 10
237.38680289830421
 20
92.562439973397645
 30
0.0
  0
SEQEND
  5
1ED98
  8
0
  0
POLYLINE
  5
1E88F
  8
0
 66
     1
 10
0.0
 20
0.0
 30
0.0
 70
   128
  0
VERTEX
  5
1ED99
  8
0
 10
237.38680289830421
 20
97.770893359935684
 30
0.0
  0
VERTEX
  5
1ED9A
  8
0
 10
237.0454548104031
 20
97.556544600149635
 30
0.0
  0
VERTEX
  5
1ED9B
  8
0
 10
236.91668405803659
 20
97.189684053531977
 30
0.0
  0
VERTEX
  5
1ED9C
  8
0
 10
236.91666666666711
 20
97.185115755663759
 30
0.0
  0
SEQEND
  5
1ED9D
  8
0
  0
ARC
  5
1E890
  8
0
 10
232.9171986361676
 20
95.164687602902262
 30
0.0
 40
4.0308415497430179
 50
0.0281310997347572
 51
7.1532512242516351
  0
ARC
  5
1E891
  8
0
 10
232.91761627817269
 20
95.168579584034958
 30
0.0
 40
4.0304238758512341
 50
352.8463812965631
 51
359.9728063103932
  0
ARC
  5
1E892
  8
0
 10
249.0695804192882
 20
92.166666666667282
 30
0.0
 40
7.9999999999994031
 50
90.0
 51
102.4999999999977
  0
LINE
  5
1E893
  8
0
 10
237.3868028983039
 20
97.770893359935684
 30
0.0
 11
247.33806350778369
 21
99.977034723626133
 31
0.0
  0
CIRCLE
  5
1E894
  8
0
 10
250.91666666666711
 20
95.166666666666714
 30
0.0
 40
4.0
  0
LINE
  5
1E895
  8
0
 10
247.33806350778369
 20
90.356298609707181
 30
0.0
 11
237.38680289830421
 21
92.562439973397645
 31
0.0
  0
LINE
  5
1E896
  8
0
 10
249.0695804192882
 20
90.1666666666666
 30
0.0
 11
250.91666666666711
 21
90.1666666666666
 31
0.0
  0
LINE
  5
1E897
  8
0
 10
200.22292556981901
 20
95.666666666709105
 30
0.0
 11
200.22292556981901
 21
94.666666666709119
 31
0.0
  0
ARC
  5
1E898
  8
0
 10
249.0695804192882
 20
98.166666666664781
 30
0.0
 40
7.9999999999981242
 50
257.49999999999892
 51
270.0
  0
LINE
  5
1E899
  8
0
 10
249.0695804192882
 20
100.1666666666667
 30
0.0
 11
250.91666666666711
 21
100.1666666666667
 31
0.0
  0
LINE
  5
1E89A
  8
0
 10
212.22292556981901
 20
95.666666666709105
 30
0.0
 11
212.22292556981901
 21
94.666666666709119
 31
0.0
  0
ARC
  5
1E89B
  8
0
 10
250.91666666666711
 20
95.166666666666714
 30
0.0
 40
5.0000000000000284
 50
270.0
 51
0.0000000004852763
  0
ARC
  5
1E89C
  8
0
 10
250.91666666666711
 20
95.166666666666714
 30
0.0
 40
5.0
 50
0.0000000004852763
 51
90.0
  0
CIRCLE
  5
1E89D
  8
0
 10
250.91666666666711
 20
95.166666666666714
 30
0.0
 40
2.5
  0
LINE
  5
1E89E
  8
0
 10
210.6104077635151
 20
94.666666666709119
 30
0.0
 11
210.6104077635151
 21
95.666666666709105
 31
0.0
  0
LINE
  5
1E89F
  8
0
 10
206.22292556981901
 20
95.666666666709105
 30
0.0
 11
206.22292556981901
 21
94.666666666709119
 31
0.0
  0
LINE
  5
1E8A0
  8
0
 10
234.6104077635151
 20
94.666666666666714
 30
0.0
 11
234.6104077635151
 21
95.666666666666714
 31
0.0
  0
POLYLINE
  5
1E8A1
  8
4
 66
     1
 10
0.0
 20
0.0
 30
0.0
  0
VERTEX
  5
1E8A2
  8
4
 10
215.67138702465729
 20
92.094778688302625
 30
0.0
 42
-0.0744127175610667
  0
VERTEX
  5
1E8A3
  8
4
 10
215.1468918674681
 20
92.788744682272267
 30
0.0
 42
-0.1536795722212451
  0
VERTEX
  5
1E8A4
  8
4
 10
214.88315909170191
 20
94.133411702606367
 30
0.0
 42
-0.1847247553159499
  0
VERTEX
  5
1E8A5
  8
4
 10
215.4166653273754
 20
95.166666666624295
 30
0.0
 42
0.1729818233278114
  0
VERTEX
  5
1E8A6
  8
4
 10
216.0089343115018
 20
96.252386248805209
 30
0.0
 42
0.1305645647028073
  0
VERTEX
  5
1E8A7
  8
4
 10
215.85352015574119
 20
97.758192680016336
 30
0.0
 42
0.0267269543158863
  0
VERTEX
  5
1E8A8
  8
4
 10
215.7048432771397
 20
98.094778688302625
 30
0.0
  0
SEQEND
  5
1E8A9
  8
4
  0
LINE
  5
1E8AA
  8
0
 10
230.22292556981901
 20
95.666666666666714
 30
0.0
 11
230.22292556981901
 21
94.666666666666714
 31
0.0
  0
ARC
  5
1E8AB
  8
0
 10
202.41666666666711
 20
95.166666666709119
 30
0.0
 40
2.25000000000004
 50
12.839588406901189
 51
167.16041159309879
  0
ARC
  5
1E8AC
  8
0
 10
196.41666666666711
 20
95.166666666709119
 30
0.0
 40
2.2500000000000342
 50
12.839588406901189
 51
167.16041159309879
  0
LINE
  5
1E8AD
  8
0
 10
228.6104077635151
 20
94.666666666666714
 30
0.0
 11
228.6104077635151
 21
95.666666666666714
 31
0.0
  0
LINE
  5
1E8AE
  8
0
 10
224.2229255698191
 20
95.666666666666714
 30
0.0
 11
224.2229255698191
 21
94.666666666666714
 31
0.0
  0
ARC
  5
1E8AF
  8
0
 10
208.41666666666711
 20
95.166666666709119
 30
0.0
 40
2.25000000000004
 50
12.839588406901189
 51
167.16041159309879
  0
LINE
  5
1E8B0
  8
0
 10
204.6104077635151
 20
94.666666666709119
 30
0.0
 11
204.6104077635151
 21
95.666666666709105
 31
0.0
  0
ARC
  5
1E8B1
  8
0
 10
232.41666666666711
 20
95.166666666666714
 30
0.0
 40
2.249999999999984
 50
12.83958840690765
 51
167.16041159309231
  0
ARC
  5
1E8B2
  8
0
 10
226.41666666666711
 20
95.166666666666714
 30
0.0
 40
2.249999999999984
 50
12.83958840690765
 51
167.16041159309231
  0
LINE
  5
1E8B3
  8
0
 10
222.6104077635151
 20
94.666666666666714
 30
0.0
 11
222.6104077635151
 21
95.666666666666714
 31
0.0
  0
LINE
  5
1E8B4
  8
0
 10
218.2229255698191
 20
95.666666666666714
 30
0.0
 11
218.2229255698191
 21
94.666666666666714
 31
0.0
  0
LINE
  5
1E8B5
  8
0
 10
198.6104077635151
 20
94.666666666709119
 30
0.0
 11
198.6104077635151
 21
95.666666666709105
 31
0.0
  0
LINE
  5
1E8B6
  8
0
 10
194.22292556981901
 20
95.666666666709105
 30
0.0
 11
194.22292556981901
 21
94.666666666709119
 31
0.0
  0
POLYLINE
  5
1E8B7
  8
4
 66
     1
 10
0.0
 20
0.0
 30
0.0
  0
VERTEX
  5
1E8B8
  8
4
 10
217.67138702462381
 20
92.094778688302625
 30
0.0
 42
-0.0744127175610667
  0
VERTEX
  5
1E8B9
  8
4
 10
217.14689186743459
 20
92.788744682272267
 30
0.0
 42
-0.1536795722212451
  0
VERTEX
  5
1E8BA
  8
4
 10
216.88315909166849
 20
94.133411702606367
 30
0.0
 42
-0.1847247553159499
  0
VERTEX
  5
1E8BB
  8
4
 10
217.416665327342
 20
95.166666666624295
 30
0.0
 42
0.1729818233278114
  0
VERTEX
  5
1E8BC
  8
4
 10
218.00893431146829
 20
96.252386248805209
 30
0.0
 42
0.1305645647028073
  0
VERTEX
  5
1E8BD
  8
4
 10
217.8535201557078
 20
97.758192680016336
 30
0.0
 42
0.0267269543158863
  0
VERTEX
  5
1E8BE
  8
4
 10
217.70484327710631
 20
98.094778688302625
 30
0.0
  0
SEQEND
  5
1E8BF
  8
4
  0
LINE
  5
1E8C0
  8
2
 10
177.416666666667
 20
97.666666666708892
 30
0.0
 11
177.416666666667
 21
95.816666666709096
 31
0.0
  0
LINE
  5
1E8C1
  8
2
 10
182.41666666666711
 20
96.408410596934786
 30
0.0
 11
182.41666666666711
 21
97.666666666709119
 31
0.0
  0
LINE
  5
1E8C2
  8
2
 10
177.416666666667
 20
94.516666666709156
 30
0.0
 11
177.416666666667
 21
92.666666666709233
 31
0.0
  0
LINE
  5
1E8C3
  8
2
 10
182.41666666666711
 20
92.666666666709119
 30
0.0
 11
182.41666666666711
 21
93.924922736483339
 31
0.0
  0
ARC
  5
1E8C4
  8
0
 10
214.41666666666711
 20
95.166666666709119
 30
0.0
 40
2.25000000000004
 50
43.63520862699734
 51
167.16041159309879
  0
LINE
  5
1E8C5
  8
2
 10
177.41666666666671
 20
97.666666666709119
 30
0.0
 11
175.91666666666671
 21
99.166666666709133
 31
0.0
  0
LINE
  5
1E8C6
  8
1
 10
179.916666666667
 20
100.66666666670911
 30
0.0
 11
179.916666666667
 21
89.666666666709006
 31
0.0
  0
ARC
  5
1E8C7
  8
0
 10
220.41666666666711
 20
95.166666666666714
 30
0.0
 40
2.249999999999984
 50
12.83958840690765
 51
167.16041159309879
  0
LINE
  5
1E8C8
  8
2
 10
177.41666666666561
 20
92.666666666707854
 30
0.0
 11
182.41666666666711
 21
92.666666666710256
 31
0.0
  0
LINE
  5
1E8C9
  8
2
 10
177.41666666666799
 20
97.666666666707854
 30
0.0
 11
182.41666666666589
 21
97.666666666710256
 31
0.0
  0
LINE
  5
1E8CA
  8
2
 10
183.91666666666711
 20
91.166666666709006
 30
0.0
 11
182.41666666666711
 21
92.666666666709119
 31
0.0
  0
LINE
  5
1E8CB
  8
2
 10
182.41666666666711
 20
97.666666666709119
 30
0.0
 11
183.91666666666711
 21
99.166666666709133
 31
0.0
  0
LINE
  5
1E8CC
  8
2
 10
175.91666666666671
 20
91.166666666709006
 30
0.0
 11
177.41666666666671
 21
92.666666666709119
 31
0.0
  0
LINE
  5
1E8CD
  8
1
 10
250.91666666666711
 20
100.6666666666667
 30
0.0
 11
250.91666666666711
 21
89.666666666666586
 31
0.0
  0
LINE
  5
1E8CE
  8
1
 10
190.41666666666711
 20
98.916666666709119
 30
0.0
 11
190.41666666666711
 21
91.416666666709006
 31
0.0
  0
LINE
  5
1E8CF
  8
1
 10
240.41666666666711
 20
99.979017257388676
 30
0.0
 11
240.41666666666711
 21
90.354316075944524
 31
0.0
  0
LINE
  5
1E8D0
  8
0
 10
255.91666666666711
 20
185.85000000000011
 30
0.0
 11
255.91666666666711
 21
188.40000000000009
 31
0.0
  0
LINE
  5
1E8D1
  8
0
 10
255.91666666666711
 20
181.60000000000011
 30
0.0
 11
255.91666666666711
 21
184.1500000000002
 31
0.0
  0
LINE
  5
1E8D2
  8
0
 10
193.9166666666668
 20
185.5000000000002
 30
0.0
 11
193.9166666666668
 21
187.0184490889973
 31
0.0
  0
LINE
  5
1E8D3
  8
0
 10
193.9166666666668
 20
182.98155091100321
 30
0.0
 11
193.9166666666668
 21
184.5000000000002
 31
0.0
  0
ARC
  5
1E8D4
  8
0
 10
226.41666666666711
 20
185.0000000000002
 30
0.0
 40
2.249999999999984
 50
192.83958840690599
 51
347.16041159309549
  0
ARC
  5
1E8D5
  8
0
 10
220.41666666666711
 20
185.0000000000002
 30
0.0
 40
2.25
 50
12.83958840690598
 51
167.16041159309711
  0
ARC
  5
1E8D6
  8
0
 10
220.41666666666711
 20
185.0000000000002
 30
0.0
 40
2.249999999999984
 50
192.83958840690431
 51
347.16041159309549
  0
ARC
  5
1E8D7
  8
0
 10
232.41666666666711
 20
185.0000000000002
 30
0.0
 40
2.249999999999984
 50
192.83958840690599
 51
347.16041159309549
  0
ARC
  5
1E8D8
  8
0
 10
196.4166666666668
 20
185.0000000000002
 30
0.0
 40
2.2500000000000062
 50
12.839588406904509
 51
167.1604115930956
  0
ARC
  5
1E8D9
  8
0
 10
196.4166666666668
 20
185.0000000000002
 30
0.0
 40
2.2500000000000062
 50
192.83958840690281
 51
347.16041159309719
  0
ARC
  5
1E8DA
  8
0
 10
208.41666666666691
 20
185.0000000000002
 30
0.0
 40
2.2500000000000062
 50
192.83958840690431
 51
347.16041159309719
  0
ARC
  5
1E8DB
  8
0
 10
240.41666666666711
 20
185.0000000000002
 30
0.0
 40
2.2500000000000129
 50
245.235739326996
 51
114.62431835217591
  0
ARC
  5
1E8DC
  8
0
 10
202.41666666666691
 20
185.0000000000002
 30
0.0
 40
2.2500000000000062
 50
192.83958840690281
 51
347.16041159309719
  0
ARC
  5
1E8DD
  8
0
 10
214.41666666666691
 20
185.0000000000002
 30
0.0
 40
2.2500000000000342
 50
192.83958840690599
 51
286.1681491524804
  0
ARC
  5
1E8DE
  8
0
 10
214.41666666666691
 20
185.0000000000002
 30
0.0
 40
2.25
 50
43.6352086269872
 51
167.16041159309401
  0
LINE
  5
1E8DF
  8
0
 10
222.6104077635149
 20
184.5000000000002
 30
0.0
 11
224.2229255698191
 21
184.5000000000002
 31
0.0
  0
LINE
  5
1E8E0
  8
0
 10
224.2229255698191
 20
185.5000000000002
 30
0.0
 11
222.6104077635149
 21
185.5000000000002
 31
0.0
  0
LINE
  5
1E8E1
  8
0
 10
234.6104077635149
 20
184.5000000000002
 30
0.0
 11
236.94803970006669
 21
184.5000000000002
 31
0.0
  0
LINE
  5
1E8E2
  8
0
 10
236.94803970006669
 20
185.5000000000002
 30
0.0
 11
234.6104077635149
 21
185.5000000000002
 31
0.0
  0
LINE
  5
1E8E3
  8
0
 10
210.6104077635149
 20
184.5000000000002
 30
0.0
 11
212.22292556981881
 21
184.5000000000002
 31
0.0
  0
LINE
  5
1E8E4
  8
0
 10
212.22292556981881
 20
185.5000000000002
 30
0.0
 11
210.6104077635149
 21
185.5000000000002
 31
0.0
  0
LINE
  5
1E8E5
  8
0
 10
228.6104077635149
 20
184.5000000000002
 30
0.0
 11
230.22292556981901
 21
184.5000000000002
 31
0.0
  0
LINE
  5
1E8E6
  8
0
 10
230.22292556981901
 20
185.5000000000002
 30
0.0
 11
228.6104077635149
 21
185.5000000000002
 31
0.0
  0
LINE
  5
1E8E7
  8
0
 10
204.6104077635149
 20
184.5000000000002
 30
0.0
 11
206.22292556981881
 21
184.5000000000002
 31
0.0
  0
LINE
  5
1E8E8
  8
0
 10
206.22292556981881
 20
185.5000000000002
 30
0.0
 11
204.6104077635149
 21
185.5000000000002
 31
0.0
  0
LINE
  5
1E8E9
  8
0
 10
198.6104077635149
 20
184.5000000000002
 30
0.0
 11
200.22292556981881
 21
184.5000000000002
 31
0.0
  0
LINE
  5
1E8EA
  8
0
 10
200.22292556981881
 20
185.5000000000002
 30
0.0
 11
198.6104077635149
 21
185.5000000000002
 31
0.0
  0
LINE
  5
1E8EB
  8
0
 10
193.9166666666668
 20
184.5000000000002
 30
0.0
 11
194.22292556981881
 21
184.5000000000002
 31
0.0
  0
LINE
  5
1E8EC
  8
0
 10
194.22292556981881
 20
185.5000000000002
 30
0.0
 11
193.9166666666668
 21
185.5000000000002
 31
0.0
  0
LINE
  5
1E8ED
  8
0
 10
217.0380822878177
 20
184.5000000000002
 30
0.0
 11
218.2229255698191
 21
184.5000000000002
 31
0.0
  0
LINE
  5
1E8EE
  8
0
 10
218.2229255698191
 20
185.5000000000002
 30
0.0
 11
217.81124044885851
 21
185.5000000000002
 31
0.0
  0
POLYLINE
  5
1E8EF
  8
0
 66
     1
 10
0.0
 20
0.0
 30
0.0
 70
   128
  0
VERTEX
  5
1ED9E
  8
0
 10
255.91666666666711
 20
185.85000000000011
 30
0.0
  0
VERTEX
  5
1ED9F
  8
0
 10
255.9166474358266
 20
185.8472265604394
 30
0.0
  0
VERTEX
  5
1EDA0
  8
0
 10
255.81328201170811
 20
185.67488439502219
 30
0.0
  0
VERTEX
  5
1EDA1
  8
0
 10
255.71666666666701
 20
185.6500000000002
 30
0.0
  0
SEQEND
  5
1EDA2
  8
0
  0
LINE
  5
1E8F0
  8
0
 10
240.91666666666711
 20
189.0000000000002
 30
0.0
 11
255.31666666666689
 21
189.0000000000002
 31
0.0
  0
POLYLINE
  5
1E8F1
  8
0
 66
     1
 10
0.0
 20
0.0
 30
0.0
 70
   128
  0
VERTEX
  5
1EDA3
  8
0
 10
255.31666666666689
 20
189.0000000000002
 30
0.0
  0
VERTEX
  5
1EDA4
  8
0
 10
255.6925950551196
 20
188.86763003192229
 30
0.0
  0
VERTEX
  5
1EDA5
  8
0
 10
255.916648809468
 20
188.4046290742171
 30
0.0
  0
VERTEX
  5
1EDA6
  8
0
 10
255.91666666666711
 20
188.40000000000009
 30
0.0
  0
SEQEND
  5
1EDA7
  8
0
  0
LINE
  5
1E8F2
  8
0
 10
250.41666666666711
 20
185.6500000000002
 30
0.0
 11
255.71666666666701
 21
185.6500000000002
 31
0.0
  0
ARC
  5
1E8F3
  8
0
 10
250.41666666666711
 20
186.15000000000009
 30
0.0
 40
0.5
 50
179.99999999999349
 51
270.0
  0
POLYLINE
  5
1E8F4
  8
0
 66
     1
 10
0.0
 20
0.0
 30
0.0
 70
   128
  0
VERTEX
  5
1EDA8
  8
0
 10
255.91666666666711
 20
181.60000000000011
 30
0.0
  0
VERTEX
  5
1EDA9
  8
0
 10
255.916648809468
 20
181.59537092578341
 30
0.0
  0
VERTEX
  5
1EDAA
  8
0
 10
255.6925950551196
 20
181.132369968078
 30
0.0
  0
VERTEX
  5
1EDAB
  8
0
 10
255.31666666666689
 20
181.0000000000002
 30
0.0
  0
SEQEND
  5
1EDAC
  8
0
  0
LINE
  5
1E8F5
  8
0
 10
255.31666666666689
 20
181.0000000000002
 30
0.0
 11
240.91666666666711
 21
181.0000000000002
 31
0.0
  0
POLYLINE
  5
1E8F6
  8
0
 66
     1
 10
0.0
 20
0.0
 30
0.0
 70
   128
  0
VERTEX
  5
1EDAD
  8
0
 10
255.71666666666701
 20
184.35000000000011
 30
0.0
  0
VERTEX
  5
1EDAE
  8
0
 10
255.81328201170811
 20
184.32511560497809
 30
0.0
  0
VERTEX
  5
1EDAF
  8
0
 10
255.9166474358266
 20
184.15277343956191
 30
0.0
  0
VERTEX
  5
1EDB0
  8
0
 10
255.91666666666711
 20
184.1500000000002
 30
0.0
  0
SEQEND
  5
1EDB1
  8
0
  0
LINE
  5
1E8F7
  8
0
 10
249.91666666666711
 20
184.1500000000002
 30
0.0
 11
249.91666666666711
 21
183.85000000000011
 31
0.0
  0
ARC
  5
1E8F8
  8
0
 10
250.1166666666669
 20
184.1500000000002
 30
0.0
 40
0.1999999999999815
 50
90.0
 51
180.0
  0
LINE
  5
1E8F9
  8
0
 10
255.71666666666701
 20
184.35000000000011
 30
0.0
 11
250.1166666666669
 21
184.35000000000011
 31
0.0
  0
ARC
  5
1E8FA
  8
0
 10
240.91666666666711
 20
185.0000000000002
 30
0.0
 40
4.0000000000001226
 50
90.0
 51
180.0
  0
ARC
  5
1E8FB
  8
0
 10
243.70275386081849
 20
188.53379656270459
 30
0.0
 40
1.9999999999997899
 50
231.7473341621486
 51
266.50000000000682
  0
ARC
  5
1E8FC
  8
0
 10
240.91666666666711
 20
185.0000000000002
 30
0.0
 40
2.500000000000099
 50
51.747334162152931
 51
308.25266938692192
  0
ARC
  5
1E8FD
  8
0
 10
243.70275386081889
 20
181.46620343729529
 30
0.0
 40
2.000000000000151
 50
93.50000000000621
 51
128.2526614015112
  0
ARC
  5
1E8FE
  8
0
 10
240.91666666666711
 20
185.0000000000002
 30
0.0
 40
4.0000000000001226
 50
180.0
 51
270.0
  0
LINE
  5
1E8FF
  8
0
 10
249.91666666666711
 20
183.85000000000011
 30
0.0
 11
243.5806567817491
 21
183.46247303413921
 31
0.0
  0
LINE
  5
1E900
  8
0
 10
243.5806567817491
 20
186.5375269658611
 30
0.0
 11
249.91666666666711
 21
186.1500000000002
 31
0.0
  0
ARC
  5
1E901
  8
0
 10
181.7637529140458
 20
182.00000000000011
 30
0.0
 40
8.0000000000001137
 50
77.50000000000226
 51
90.0
  0
LINE
  5
1E902
  8
0
 10
193.44653043502981
 20
187.60422669326931
 30
0.0
 11
183.49526982555071
 21
189.81036805695959
 31
0.0
  0
LINE
  5
1E903
  8
0
 10
183.49526982555071
 20
180.18963194304069
 30
0.0
 11
193.44653043503001
 21
182.3957733067312
 31
0.0
  0
ARC
  5
1E904
  8
0
 10
181.7637529140458
 20
188.0000000000004
 30
0.0
 40
8.0000000000002931
 50
270.0
 51
282.50000000000108
  0
LINE
  5
1E905
  8
0
 10
181.7637529140458
 20
180.0000000000002
 30
0.0
 11
179.91666666666691
 21
180.0000000000002
 31
0.0
  0
ARC
  5
1E906
  8
0
 10
179.91666666666691
 20
185.0000000000002
 30
0.0
 40
5.0000000000000302
 50
208.3576365763283
 51
270.0
  0
ARC
  5
1E907
  8
0
 10
179.91666666666691
 20
185.0000000000002
 30
0.0
 40
5.0000000000000302
 50
90.0
 51
151.64236342367161
  0
LINE
  5
1E908
  8
0
 10
181.7637529140458
 20
190.0000000000002
 30
0.0
 11
179.91666666666691
 21
190.0000000000002
 31
0.0
  0
ARC
  5
1E909
  8
0
 10
179.91666666666691
 20
185.0000000000002
 30
0.0
 40
4.0000000000000142
 50
187.18075578145809
 51
172.81924421854171
  0
ARC
  5
1E90A
  8
0
 10
179.91666666666691
 20
185.0000000000002
 30
0.0
 40
2.5000000000000351
 50
191.5369590328165
 51
168.4630409671833
  0
POLYLINE
  5
1E90B
  8
0
 66
     1
 10
0.0
 20
0.0
 30
0.0
 70
   128
  0
VERTEX
  5
1EDB2
  8
0
 10
193.44653043502981
 20
182.39577330673109
 30
0.0
  0
VERTEX
  5
1EDB3
  8
0
 10
193.78787852293101
 20
182.61012206651731
 30
0.0
  0
VERTEX
  5
1EDB4
  8
0
 10
193.91664927529729
 20
182.97698261313499
 30
0.0
  0
VERTEX
  5
1EDB5
  8
0
 10
193.9166666666668
 20
182.98155091100321
 30
0.0
  0
SEQEND
  5
1EDB6
  8
0
  0
POLYLINE
  5
1E90C
  8
0
 66
     1
 10
0.0
 20
0.0
 30
0.0
 70
   128
  0
VERTEX
  5
1EDB7
  8
0
 10
193.9166666666668
 20
187.0184490889973
 30
0.0
  0
VERTEX
  5
1EDB8
  8
0
 10
193.91664927529729
 20
187.02301738686509
 30
0.0
  0
VERTEX
  5
1EDB9
  8
0
 10
193.78787852293101
 20
187.38987793348309
 30
0.0
  0
VERTEX
  5
1EDBA
  8
0
 10
193.44653043502981
 20
187.6042266932692
 30
0.0
  0
SEQEND
  5
1EDBB
  8
0
  0
POLYLINE
  5
1E90D
  8
0
 66
     1
 10
0.0
 20
0.0
 30
0.0
 70
   128
  0
VERTEX
  5
1EDBC
  8
0
 10
193.9166666666668
 20
184.5000000000002
 30
0.0
  0
VERTEX
  5
1EDBD
  8
0
 10
193.91327138493131
 20
184.5279308588218
 30
0.0
  0
VERTEX
  5
1EDBE
  8
0
 10
193.9045611254729
 20
184.60846173293601
 30
0.0
  0
VERTEX
  5
1EDBF
  8
0
 10
193.89424919853931
 20
184.73323643829059
 30
0.0
  0
VERTEX
  5
1EDC0
  8
0
 10
193.88685419047289
 20
184.8886942311222
 30
0.0
  0
VERTEX
  5
1EDC1
  8
0
 10
193.8856891624867
 20
185.05603188666529
 30
0.0
  0
VERTEX
  5
1EDC2
  8
0
 10
193.89117437753529
 20
185.2161285352596
 30
0.0
  0
VERTEX
  5
1EDC3
  8
0
 10
193.90091231513031
 20
185.35243919659851
 30
0.0
  0
VERTEX
  5
1EDC4
  8
0
 10
193.91072647700531
 20
185.45001529814201
 30
0.0
  0
VERTEX
  5
1EDC5
  8
0
 10
193.91627012683449
 20
185.49681771162619
 30
0.0
  0
VERTEX
  5
1EDC6
  8
0
 10
193.9166666666668
 20
185.5000000000002
 30
0.0
  0
SEQEND
  5
1EDC7
  8
0
  0
POLYLINE
  5
1E90E
  8
0
 66
     1
 10
0.0
 20
0.0
 30
0.0
 70
   128
  0
VERTEX
  5
1EDC8
  8
0
 10
175.51666666666691
 20
187.37486841740781
 30
0.0
  0
VERTEX
  5
1EDC9
  8
0
 10
175.1407382782144
 20
186.48003649562219
 30
0.0
  0
VERTEX
  5
1EDCA
  8
0
 10
174.9910247478555
 20
185.5000000000002
 30
0.0
  0
SEQEND
  5
1EDCB
  8
0
  0
POLYLINE
  5
1E90F
  8
0
 66
     1
 10
0.0
 20
0.0
 30
0.0
 70
   128
  0
VERTEX
  5
1EDCC
  8
0
 10
174.9910247478555
 20
184.5000000000002
 30
0.0
  0
VERTEX
  5
1EDCD
  8
0
 10
175.1407382782144
 20
183.5199635043781
 30
0.0
  0
VERTEX
  5
1EDCE
  8
0
 10
175.51666666666691
 20
182.62513158259259
 30
0.0
  0
SEQEND
  5
1EDCF
  8
0
  0
LINE
  5
1E910
  8
0
 10
228.6104077635149
 20
184.5000000000002
 30
0.0
 11
228.6104077635149
 21
185.5000000000002
 31
0.0
  0
LINE
  5
1E911
  8
0
 10
224.2229255698191
 20
185.5000000000002
 30
0.0
 11
224.2229255698191
 21
184.5000000000002
 31
0.0
  0
LINE
  5
1E912
  8
0
 10
222.6104077635149
 20
184.5000000000002
 30
0.0
 11
222.6104077635149
 21
185.5000000000002
 31
0.0
  0
LINE
  5
1E913
  8
0
 10
218.2229255698191
 20
185.5000000000002
 30
0.0
 11
218.2229255698191
 21
184.5000000000002
 31
0.0
  0
LINE
  5
1E914
  8
0
 10
234.6104077635149
 20
184.5000000000002
 30
0.0
 11
234.6104077635149
 21
185.5000000000002
 31
0.0
  0
LINE
  5
1E915
  8
0
 10
230.22292556981901
 20
185.5000000000002
 30
0.0
 11
230.22292556981901
 21
184.5000000000002
 31
0.0
  0
LINE
  5
1E916
  8
0
 10
198.6104077635149
 20
184.5000000000002
 30
0.0
 11
198.6104077635149
 21
185.5000000000002
 31
0.0
  0
LINE
  5
1E917
  8
0
 10
194.22292556981881
 20
185.5000000000002
 30
0.0
 11
194.22292556981881
 21
184.5000000000002
 31
0.0
  0
LINE
  5
1E918
  8
0
 10
210.6104077635149
 20
184.5000000000002
 30
0.0
 11
210.6104077635149
 21
185.5000000000002
 31
0.0
  0
LINE
  5
1E919
  8
0
 10
206.22292556981881
 20
185.5000000000002
 30
0.0
 11
206.22292556981881
 21
184.5000000000002
 31
0.0
  0
LINE
  5
1E91A
  8
0
 10
204.6104077635149
 20
184.5000000000002
 30
0.0
 11
204.6104077635149
 21
185.5000000000002
 31
0.0
  0
LINE
  5
1E91B
  8
0
 10
200.22292556981881
 20
185.5000000000002
 30
0.0
 11
200.22292556981881
 21
184.5000000000002
 31
0.0
  0
LINE
  5
1E91C
  8
0
 10
212.22292556981881
 20
185.5000000000002
 30
0.0
 11
212.22292556981881
 21
184.5000000000002
 31
0.0
  0
POLYLINE
  5
1E91D
  8
4
 66
     1
 10
0.0
 20
0.0
 30
0.0
  0
VERTEX
  5
1E91E
  8
4
 10
217.67138702462381
 20
181.92811202167849
 30
0.0
 42
-0.0744127175610667
  0
VERTEX
  5
1E91F
  8
4
 10
217.14689186743459
 20
182.6220780156481
 30
0.0
 42
-0.1536795722212451
  0
VERTEX
  5
1E920
  8
4
 10
216.88315909166849
 20
183.96674503598231
 30
0.0
 42
-0.1847247553159499
  0
VERTEX
  5
1E921
  8
4
 10
217.4166653273418
 20
185.0000000000002
 30
0.0
 42
0.1729818233278114
  0
VERTEX
  5
1E922
  8
4
 10
218.0089343114681
 20
186.0857195821811
 30
0.0
 42
0.1305645647028073
  0
VERTEX
  5
1E923
  8
4
 10
217.8535201557078
 20
187.59152601339221
 30
0.0
 42
0.0267269543158863
  0
VERTEX
  5
1E924
  8
4
 10
217.70484327710611
 20
187.92811202167849
 30
0.0
  0
SEQEND
  5
1E925
  8
4
  0
POLYLINE
  5
1E926
  8
4
 66
     1
 10
0.0
 20
0.0
 30
0.0
  0
VERTEX
  5
1E927
  8
4
 10
215.67138702465729
 20
181.92811202167849
 30
0.0
 42
-0.0744127175610667
  0
VERTEX
  5
1E928
  8
4
 10
215.1468918674681
 20
182.6220780156481
 30
0.0
 42
-0.1536795722212451
  0
VERTEX
  5
1E929
  8
4
 10
214.88315909170191
 20
183.96674503598231
 30
0.0
 42
-0.1847247553159499
  0
VERTEX
  5
1E92A
  8
4
 10
215.4166653273752
 20
185.0000000000002
 30
0.0
 42
0.1729818233278114
  0
VERTEX
  5
1E92B
  8
4
 10
216.0089343115016
 20
186.0857195821811
 30
0.0
 42
0.1305645647028073
  0
VERTEX
  5
1E92C
  8
4
 10
215.85352015574119
 20
187.59152601339221
 30
0.0
 42
0.0267269543158863
  0
VERTEX
  5
1E92D
  8
4
 10
215.7048432771395
 20
187.92811202167849
 30
0.0
  0
SEQEND
  5
1E92E
  8
4
  0
ARC
  5
1E92F
  8
0
 10
208.41666666666691
 20
185.0000000000002
 30
0.0
 40
2.2500000000000062
 50
12.839588406901189
 51
167.16041159309879
  0
ARC
  5
1E930
  8
0
 10
202.41666666666691
 20
185.0000000000002
 30
0.0
 40
2.2500000000000062
 50
12.839588406901189
 51
167.16041159309879
  0
ARC
  5
1E931
  8
0
 10
226.41666666666711
 20
185.0000000000002
 30
0.0
 40
2.249999999999984
 50
12.83958840690765
 51
167.16041159309231
  0
ARC
  5
1E932
  8
0
 10
232.41666666666711
 20
185.0000000000002
 30
0.0
 40
2.249999999999984
 50
12.83958840690765
 51
167.16041159309231
  0
LINE
  5
1E933
  8
2
 10
253.41666666666711
 20
187.5000000000002
 30
0.0
 11
248.41666666666711
 21
187.5000000000002
 31
0.0
  0
LINE
  5
1E934
  8
2
 10
253.41666666666711
 20
182.5000000000002
 30
0.0
 11
248.41666666666711
 21
182.5000000000002
 31
0.0
  0
LINE
  5
1E935
  8
2
 10
246.91666666666711
 20
189.0000000000002
 30
0.0
 11
248.41666666666711
 21
187.5000000000002
 31
0.0
  0
LINE
  5
1E936
  8
2
 10
253.41666666666711
 20
187.5000000000002
 30
0.0
 11
254.91666666666711
 21
189.0000000000002
 31
0.0
  0
LINE
  5
1E937
  8
2
 10
254.91666666666711
 20
181.0000000000002
 30
0.0
 11
253.41666666666711
 21
182.5000000000002
 31
0.0
  0
LINE
  5
1E938
  8
2
 10
248.41666666666711
 20
182.5000000000002
 30
0.0
 11
246.91666666666711
 21
181.0000000000002
 31
0.0
  0
LINE
  5
1E939
  8
2
 10
253.41666666666711
 20
185.6500000000002
 30
0.0
 11
253.41666666666711
 21
187.5000000000002
 31
0.0
  0
LINE
  5
1E93A
  8
2
 10
248.41666666666711
 20
187.5000000000002
 30
0.0
 11
248.41666666666711
 21
186.24174393022599
 31
0.0
  0
LINE
  5
1E93B
  8
2
 10
253.41666666666711
 20
182.5000000000002
 30
0.0
 11
253.41666666666711
 21
184.35000000000019
 31
0.0
  0
LINE
  5
1E93C
  8
2
 10
248.41666666666711
 20
183.75825606977449
 30
0.0
 11
248.41666666666711
 21
182.5000000000002
 31
0.0
  0
LINE
  5
1E93D
  8
1
 10
190.41666666666711
 20
189.8123505907223
 30
0.0
 11
190.41666666666711
 21
180.18764940927809
 31
0.0
  0
LINE
  5
1E93E
  8
1
 10
240.41666666666711
 20
188.7500000000002
 30
0.0
 11
240.41666666666711
 21
181.2500000000002
 31
0.0
  0
LINE
  5
1E93F
  8
1
 10
250.91666666666711
 20
190.5000000000002
 30
0.0
 11
250.91666666666711
 21
179.5000000000002
 31
0.0
  0
LINE
  5
1E945
  8
1
 10
136.0000000000002
 20
95.166666666666643
 30
0.0
 11
258.91666666666708
 21
95.166666666666643
 31
0.0
  0
LINE
  5
1EA05
  8
0
 10
149.5000000000002
 20
53.766999999999989
 30
0.0
 11
149.5000000000002
 21
93.0
 31
0.0
  0
LINE
  5
1EA06
  8
0
 10
141.5000000000002
 20
93.0
 30
0.0
 11
141.5000000000002
 21
53.766999999999989
 31
0.0
  0
LINE
  5
1EA07
  8
0
 10
148.7330000000002
 20
53.0
 30
0.0
 11
149.5000000000002
 21
53.766999999999989
 31
0.0
  0
LINE
  5
1EA08
  8
0
 10
141.5000000000002
 20
53.766999999999989
 30
0.0
 11
142.26700000000019
 21
53.0
 31
0.0
  0
LINE
  5
1EA09
  8
0
 10
141.5000000000002
 20
53.766999999999989
 30
0.0
 11
149.5000000000002
 21
53.766999999999989
 31
0.0
  0
LINE
  5
1EA0A
  8
0
 10
142.26700000000019
 20
53.0
 30
0.0
 11
148.7330000000002
 21
53.0
 31
0.0
  0
LINE
  5
1EA0B
  8
3
 10
142.26700000000019
 20
53.0
 30
0.0
 11
142.26700000000019
 21
93.0
 31
0.0
  0
LINE
  5
1EA0C
  8
3
 10
148.7330000000002
 20
53.0
 30
0.0
 11
148.7330000000002
 21
93.0
 31
0.0
  0
LINE
  5
1EA20
  8
0
 10
54.0
 20
53.766999999999989
 30
0.0
 11
54.0
 21
93.0
 31
0.0
  0
LINE
  5
1EA21
  8
0
 10
46.0
 20
93.0
 30
0.0
 11
46.0
 21
53.766999999999989
 31
0.0
  0
LINE
  5
1EA22
  8
0
 10
53.232999999999997
 20
53.0
 30
0.0
 11
54.0
 21
53.766999999999989
 31
0.0
  0
LINE
  5
1EA23
  8
0
 10
46.0
 20
53.766999999999989
 30
0.0
 11
46.766999999999989
 21
53.0
 31
0.0
  0
LINE
  5
1EA24
  8
0
 10
46.0
 20
53.766999999999989
 30
0.0
 11
54.0
 21
53.766999999999989
 31
0.0
  0
LINE
  5
1EA25
  8
0
 10
46.766999999999989
 20
53.0
 30
0.0
 11
53.232999999999997
 21
53.0
 31
0.0
  0
LINE
  5
1EA26
  8
3
 10
46.766999999999989
 20
53.0
 30
0.0
 11
46.766999999999989
 21
93.0
 31
0.0
  0
LINE
  5
1EA27
  8
3
 10
53.232999999999997
 20
53.0
 30
0.0
 11
53.232999999999997
 21
93.0
 31
0.0
  0
ENDSEC
  0
EOF
