  0
SECTION
  2
HEADER
  9
$ACADVER
  1
AC1009
  9
$INSBASE
 10
0.0
 20
0.0
 30
0.0
  9
$EXTMIN
 10
0.0
 20
-2.960436562073669
 30
0.0
  9
$EXTMAX
 10
177.49999999999989
 20
166.5
 30
0.0
  9
$LIMMIN
 10
0.0
 20
0.0
  9
$LIMMAX
 10
187.5
 20
135.0
  9
$ORTHOMODE
 70
     1
  9
$REGENMODE
 70
     1
  9
$FILLMODE
 70
     1
  9
$QTEXTMODE
 70
     0
  9
$MIRRTEXT
 70
     0
  9
$DRAGMODE
 70
     2
  9
$LTSCALE
 40
5.0
  9
$OSMODE
 70
    37
  9
$ATTMODE
 70
     1
  9
$TEXTSIZE
 40
0.2
  9
$TRACEWID
 40
0.05
  9
$TEXTSTYLE
  7
STANDARD
  9
$CLAYER
  8
0
  9
$CELTYPE
  6
BYLAYER
  9
$CECOLOR
 62
     4
  9
$DIMSCALE
 40
1.0
  9
$DIMASZ
 40
3.0
  9
$DIMEXO
 40
2.0
  9
$DIMDLI
 40
0.3799999999999999
  9
$DIMRND
 40
0.0
  9
$DIMDLE
 40
0.0
  9
$DIMEXE
 40
2.0
  9
$DIMTP
 40
0.0
  9
$DIMTM
 40
0.0
  9
$DIMTXT
 40
3.2000000000000002
  9
$DIMCEN
 40
0.09
  9
$DIMTSZ
 40
0.0
  9
$DIMTOL
 70
     0
  9
$DIMLIM
 70
     0
  9
$DIMTIH
 70
     0
  9
$DIMTOH
 70
     0
  9
$DIMSE1
 70
     0
  9
$DIMSE2
 70
     0
  9
$DIMTAD
 70
     1
  9
$DIMZIN
 70
     8
  9
$DIMBLK
  1

  9
$DIMASO
 70
     0
  9
$DIMSHO
 70
     0
  9
$DIMPOST
  1

  9
$DIMAPOST
  1

  9
$DIMALT
 70
     0
  9
$DIMALTD
 70
     2
  9
$DIMALTF
 40
25.399999999999999
  9
$DIMLFAC
 40
1.0
  9
$DIMTOFL
 70
     0
  9
$DIMTVP
 40
1.6000000000000001
  9
$DIMTIX
 70
     1
  9
$DIMSOXD
 70
     0
  9
$DIMSAH
 70
     0
  9
$DIMBLK1
  1

  9
$DIMBLK2
  1

  9
$DIMSTYLE
  2
STANDARD
  9
$DIMCLRD
 70
     0
  9
$DIMCLRE
 70
     0
  9
$DIMCLRT
 70
     0
  9
$DIMTFAC
 40
1.0
  9
$DIMGAP
 40
1.0
  9
$LUNITS
 70
     2
  9
$LUPREC
 70
     1
  9
$SKETCHINC
 40
0.1
  9
$FILLETRAD
 40
0.4
  9
$AUNITS
 70
     0
  9
$AUPREC
 70
     1
  9
$MENU
  1
E:\r13\win\SUPPORT\ACAD
  9
$ELEVATION
 40
0.0
  9
$PELEVATION
 40
0.0
  9
$THICKNESS
 40
0.0
  9
$LIMCHECK
 70
     0
  9
$BLIPMODE
 70
     0
  9
$CHAMFERA
 40
0.0
  9
$CHAMFERB
 40
0.0
  9
$SKPOLY
 70
     0
  9
$TDCREATE
 40
2456129.6740617128
  9
$TDUPDATE
 40
2457892.4260601499
  9
$TDINDWG
 40
0.7564358681
  9
$TDUSRTIMER
 40
0.7564356944
  9
$USRTIMER
 70
     1
  9
$ANGBASE
 50
0.0
  9
$ANGDIR
 70
     0
  9
$PDMODE
 70
     0
  9
$PDSIZE
 40
0.0
  9
$PLINEWID
 40
0.0
  9
$COORDS
 70
     1
  9
$SPLFRAME
 70
     0
  9
$SPLINETYPE
 70
     6
  9
$SPLINESEGS
 70
     8
  9
$ATTDIA
 70
     0
  9
$ATTREQ
 70
     1
  9
$HANDLING
 70
     1
  9
$HANDSEED
  5
C1FB
  9
$SURFTAB1
 70
     6
  9
$SURFTAB2
 70
     6
  9
$SURFTYPE
 70
     6
  9
$SURFU
 70
     6
  9
$SURFV
 70
     6
  9
$UCSNAME
  2

  9
$UCSORG
 10
0.0
 20
0.0
 30
0.0
  9
$UCSXDIR
 10
1.0
 20
0.0
 30
0.0
  9
$UCSYDIR
 10
0.0
 20
1.0
 30
0.0
  9
$PUCSNAME
  2

  9
$PUCSORG
 10
0.0
 20
0.0
 30
0.0
  9
$PUCSXDIR
 10
1.0
 20
0.0
 30
0.0
  9
$PUCSYDIR
 10
0.0
 20
1.0
 30
0.0
  9
$USERI1
 70
     0
  9
$USERI2
 70
     1
  9
$USERI3
 70
     0
  9
$USERI4
 70
     0
  9
$USERI5
 70
     0
  9
$USERR1
 40
0.0
  9
$USERR2
 40
0.0
  9
$USERR3
 40
0.0
  9
$USERR4
 40
0.0
  9
$USERR5
 40
0.0
  9
$WORLDVIEW
 70
     1
  9
$SHADEDGE
 70
     3
  9
$SHADEDIF
 70
    70
  9
$TILEMODE
 70
     1
  9
$MAXACTVP
 70
    16
  9
$PLIMCHECK
 70
     0
  9
$PEXTMIN
 10
1.0000000000000000E+020
 20
1.0000000000000000E+020
 30
1.0000000000000000E+020
  9
$PEXTMAX
 10
-1.0000000000000000E+020
 20
-1.0000000000000000E+020
 30
-1.0000000000000000E+020
  9
$PLIMMIN
 10
0.0
 20
0.0
  9
$PLIMMAX
 10
12.0
 20
9.0
  9
$UNITMODE
 70
     0
  9
$VISRETAIN
 70
     0
  9
$PLINEGEN
 70
     0
  9
$PSLTSCALE
 70
     0
  0
ENDSEC
  0
SECTION
  2
TABLES
  0
TABLE
  2
VPORT
 70
     1
  0
VPORT
  2
*ACTIVE
 70
     0
 10
0.0
 20
0.0
 11
1.0
 21
1.0
 12
181.62393162393161
 22
100.0
 13
0.0
 23
0.0
 14
5.0
 24
5.0
 15
5.0
 25
5.0
 16
0.0
 26
0.0
 36
1.0
 17
0.0
 27
0.0
 37
0.0
 40
200.0
 41
1.816239316239316
 42
50.0
 43
0.0
 44
0.0
 50
0.0
 51
0.0
 71
     0
 72
   500
 73
     1
 74
     0
 75
     0
 76
     0
 77
     0
 78
     2
  0
ENDTAB
  0
TABLE
  2
LTYPE
 70
     3
  0
LTYPE
  2
CONTINUOUS
 70
     0
  3
Solid Line
 72
    65
 73
     0
 40
0.0
  0
LTYPE
  2
CENTER
 70
     0
  3
____ _ ____ _ ____ _ ____ _ ____ _ ____ _ ____
 72
    65
 73
     4
 40
2.0
 49
1.25
 49
-0.25
 49
0.25
 49
-0.25
  0
LTYPE
  2
PHANTOM2
 70
     0
  3
___ _ _ ___ _ _ ___ _ _ ___ _ _
 72
    65
 73
     6
 40
1.25
 49
0.625
 49
-0.125
 49
0.125
 49
-0.125
 49
0.125
 49
-0.125
  0
ENDTAB
  0
TABLE
  2
LAYER
 70
     4
  0
LAYER
  2
0
 70
     0
 62
     7
  6
CONTINUOUS
  0
LAYER
  2
1
 70
     0
 62
     1
  6
CENTER
  0
LAYER
  2
DEFPOINTS
 70
     0
 62
     7
  6
CONTINUOUS
  0
LAYER
  2
3
 70
     0
 62
     3
  6
CONTINUOUS
  0
ENDTAB
  0
TABLE
  2
STYLE
 70
     2
  0
STYLE
  2
STANDARD
 70
     0
 40
0.0
 41
1.0
 50
0.0
 71
     0
 42
0.2
  3
TXT
  4
BIGFONT
  0
STYLE
  2
STANDARD1
 70
     0
 40
0.0
 41
1.0
 50
0.0
 71
     0
 42
3.0
  3
txt
  4

  0
ENDTAB
  0
TABLE
  2
VIEW
 70
     0
  0
ENDTAB
  0
TABLE
  2
UCS
 70
     0
  0
ENDTAB
  0
TABLE
  2
APPID
 70
     7
  0
APPID
  2
ACAD
 70
     0
  0
APPID
  2
ACAD_MLEADERVER
 70
     0
  0
APPID
  2
ACAD_PSEXT
 70
     0
  0
APPID
  2
ACAD_EXEMPT_FROM_CAD_STANDARDS
 70
     0
  0
APPID
  2
ACAD_DSTYLE_DIMJAG
 70
     0
  0
APPID
  2
ACAD_DSTYLE_DIMTALN
 70
     0
  0
APPID
  2
ACAD_NAV_VCDISPLAY
 70
     0
  0
ENDTAB
  0
TABLE
  2
DIMSTYLE
 70
     1
  0
DIMSTYLE
  2
STANDARD
 70
     0
  3

  4

  5

  6

  7

 40
1.0
 41
0.18
 42
0.0625
 43
0.38
 44
0.18
 45
0.0
 46
0.0
 47
0.0
 48
0.0
140
0.18
141
0.09
142
0.0
143
25.399999999999999
144
1.0
145
0.0
146
1.0
147
0.09
 71
     0
 72
     0
 73
     1
 74
     1
 75
     0
 76
     0
 77
     0
 78
     0
170
     0
171
     2
172
     0
173
     0
174
     0
175
     0
176
     0
177
     0
178
     0
  0
ENDTAB
  0
ENDSEC
  0
SECTION
  2
BLOCKS
  0
BLOCK
  8
0
  2
$MODEL_SPACE
 70
     0
 10
0.0
 20
0.0
 30
0.0
  3
$MODEL_SPACE
  1

  0
ENDBLK
  5
9
  8
0
  0
BLOCK
 67
     1
  8
0
  2
$PAPER_SPACE
 70
     0
 10
0.0
 20
0.0
 30
0.0
  3
$PAPER_SPACE
  1

  0
ENDBLK
  5
E
 67
     1
  8
0
  0
ENDSEC
  0
SECTION
  2
ENTITIES
  0
TEXT
  5
9FA2
  8
0
 62
     3
 10
0.0
 20
0.0
 30
0.0
 40
10.0
  1
EWN63AX20-LB
  7
STANDARD1
  0
LINE
  5
BA4E
  8
1
 10
141.0
 20
137.5
 30
0.0
 11
141.0
 21
166.5
 31
0.0
  0
LINE
  5
BA4F
  8
1
 10
177.49999999999989
 20
152.0
 30
0.0
 11
104.5
 21
152.0
 31
0.0
  0
LINE
  5
BA54
  8
0
 10
129.6292270875602
 20
155.30770903127939
 30
0.0
 11
111.42298189472091
 21
156.5
 31
0.0
  0
LINE
  5
BA55
  8
0
 10
152.37077291243969
 20
148.69229096872061
 30
0.0
 11
170.57701810527891
 21
147.5
 31
0.0
  0
LINE
  5
BA56
  8
0
 10
111.4229818678989
 20
147.5
 30
0.0
 11
129.6292270875602
 21
148.69229096872061
 31
0.0
  0
LINE
  5
BA57
  8
0
 10
170.57701810527891
 20
156.5
 30
0.0
 11
152.37077291243969
 21
155.30770903127939
 31
0.0
  0
POLYLINE
  5
BA58
  8
0
 66
     1
 10
0.0
 20
0.0
 30
0.0
  0
VERTEX
  5
BEDA
  8
0
 10
132.92462300389661
 20
146.99617282764439
 30
0.0
  0
VERTEX
  5
BEDB
  8
0
 10
132.70102461560691
 20
147.31626887319021
 30
0.0
  0
VERTEX
  5
BEDC
  8
0
 10
132.44370830710611
 20
147.61105623169459
 30
0.0
  0
VERTEX
  5
BEDD
  8
0
 10
132.15773418813279
 20
147.87505079141701
 30
0.0
  0
VERTEX
  5
BEDE
  8
0
 10
131.84588751488511
 20
148.10533787406959
 30
0.0
  0
VERTEX
  5
BEDF
  8
0
 10
131.51148324808801
 20
148.30084355096901
 30
0.0
  0
VERTEX
  5
BEE0
  8
0
 10
131.16080870123071
 20
148.45848730461131
 30
0.0
  0
VERTEX
  5
BEE1
  8
0
 10
130.79003134902501
 20
148.57872719514461
 30
0.0
  0
VERTEX
  5
BEE2
  8
0
 10
130.40928676588851
 20
148.65828085505859
 30
0.0
  0
VERTEX
  5
BEE3
  8
0
 10
130.0252513568287
 20
148.69639414187509
 30
0.0
  0
VERTEX
  5
BEE4
  8
0
 10
129.6292270875602
 20
148.69229096872061
 30
0.0
  0
SEQEND
  5
BEE5
  8
0
  0
ARC
  5
BA59
  8
0
 10
141.0
 20
152.0
 30
0.0
 40
9.5000000000000018
 50
211.7840141265209
 51
328.2159867165455
  0
POLYLINE
  5
BA5A
  8
0
 66
     1
 10
0.0
 20
0.0
 30
0.0
  0
VERTEX
  5
BEE6
  8
0
 10
152.37077291243969
 20
148.69229096872061
 30
0.0
  0
VERTEX
  5
BEE7
  8
0
 10
151.96865886580491
 20
148.6958447152098
 30
0.0
  0
VERTEX
  5
BEE8
  8
0
 10
151.565443054464
 20
148.65428840672649
 30
0.0
  0
VERTEX
  5
BEE9
  8
0
 10
151.1685867706787
 20
148.56769982696471
 30
0.0
  0
VERTEX
  5
BEEA
  8
0
 10
150.7813530600987
 20
148.43523142745951
 30
0.0
  0
VERTEX
  5
BEEB
  8
0
 10
150.408458283285
 20
148.25829225940251
 30
0.0
  0
VERTEX
  5
BEEC
  8
0
 10
150.0577098335672
 20
148.03983365150779
 30
0.0
  0
VERTEX
  5
BEED
  8
0
 10
149.74398025825511
 20
147.79037312171729
 30
0.0
  0
VERTEX
  5
BEEE
  8
0
 10
149.45800843431289
 20
147.5059331063747
 30
0.0
  0
VERTEX
  5
BEEF
  8
0
 10
149.20577467381241
 20
147.19201657934769
 30
0.0
  0
VERTEX
  5
BEF0
  8
0
 10
149.07537706973079
 20
146.9961729464674
 30
0.0
  0
SEQEND
  5
BEF1
  8
0
  0
POLYLINE
  5
BA5B
  8
0
 66
     1
 10
0.0
 20
0.0
 30
0.0
  0
VERTEX
  5
BEF2
  8
0
 10
149.07537711412991
 20
157.0038269818796
 30
0.0
  0
VERTEX
  5
BEF3
  8
0
 10
149.29897552325409
 20
156.6837309490885
 30
0.0
  0
VERTEX
  5
BEF4
  8
0
 10
149.5562918510883
 20
156.38894360581921
 30
0.0
  0
VERTEX
  5
BEF5
  8
0
 10
149.84226598746289
 20
156.12494906347439
 30
0.0
  0
VERTEX
  5
BEF6
  8
0
 10
150.15411267587979
 20
155.8946620001561
 30
0.0
  0
VERTEX
  5
BEF7
  8
0
 10
150.4885169555746
 20
155.69915634423239
 30
0.0
  0
VERTEX
  5
BEF8
  8
0
 10
150.8391915128723
 20
155.54151261274831
 30
0.0
  0
VERTEX
  5
BEF9
  8
0
 10
151.20996887431971
 20
155.42127274543071
 30
0.0
  0
VERTEX
  5
BEFA
  8
0
 10
151.5907134641472
 20
155.34171910971921
 30
0.0
  0
VERTEX
  5
BEFB
  8
0
 10
151.97474887729209
 20
155.3036058476589
 30
0.0
  0
VERTEX
  5
BEFC
  8
0
 10
152.37077291243969
 20
155.30770903127939
 30
0.0
  0
SEQEND
  5
BEFD
  8
0
  0
ARC
  5
BA5C
  8
0
 10
141.0
 20
152.0
 30
0.0
 40
9.5000000000000089
 50
31.784012775070099
 51
148.21598569977459
  0
POLYLINE
  5
BA5D
  8
0
 66
     1
 10
0.0
 20
0.0
 30
0.0
  0
VERTEX
  5
BEFE
  8
0
 10
129.6292270875602
 20
155.30770903127939
 30
0.0
  0
VERTEX
  5
BEFF
  8
0
 10
130.031341134195
 20
155.3041552847902
 30
0.0
  0
VERTEX
  5
BF00
  8
0
 10
130.43455694553589
 20
155.34571159327351
 30
0.0
  0
VERTEX
  5
BF01
  8
0
 10
130.83141322932121
 20
155.43230017303529
 30
0.0
  0
VERTEX
  5
BF02
  8
0
 10
131.21864693990119
 20
155.5647685725404
 30
0.0
  0
VERTEX
  5
BF03
  8
0
 10
131.591541716715
 20
155.74170774059749
 30
0.0
  0
VERTEX
  5
BF04
  8
0
 10
131.94229016643271
 20
155.96016634849221
 30
0.0
  0
VERTEX
  5
BF05
  8
0
 10
132.25601974174481
 20
156.20962687828271
 30
0.0
  0
VERTEX
  5
BF06
  8
0
 10
132.541991565687
 20
156.49406689362519
 30
0.0
  0
VERTEX
  5
BF07
  8
0
 10
132.7942253261875
 20
156.80798342065231
 30
0.0
  0
VERTEX
  5
BF08
  8
0
 10
132.92462301906721
 20
157.00382719683861
 30
0.0
  0
SEQEND
  5
BF09
  8
0
  0
POLYLINE
  5
BA60
  8
0
 66
     1
 10
0.0
 20
0.0
 30
0.0
  0
VERTEX
  5
BF0A
  8
0
 10
172.36956465711401
 20
149.1363636363636
 30
0.0
  0
VERTEX
  5
BF0B
  8
0
 10
172.36882149085159
 20
149.1284172868549
 30
0.0
  0
VERTEX
  5
BF0C
  8
0
 10
172.34278377201599
 20
148.95061252144049
 30
0.0
  0
VERTEX
  5
BF0D
  8
0
 10
172.29890295290829
 20
148.77548825417901
 30
0.0
  0
VERTEX
  5
BF0E
  8
0
 10
172.23692672360079
 20
148.60379358030681
 30
0.0
  0
VERTEX
  5
BF0F
  8
0
 10
172.15693953813701
 20
148.43753361457041
 30
0.0
  0
VERTEX
  5
BF10
  8
0
 10
172.0568350083696
 20
148.27523566937131
 30
0.0
  0
VERTEX
  5
BF11
  8
0
 10
171.93788213456301
 20
148.1218450467783
 30
0.0
  0
VERTEX
  5
BF12
  8
0
 10
171.79932455658141
 20
147.9786495774751
 30
0.0
  0
VERTEX
  5
BF13
  8
0
 10
171.64155656636939
 20
147.84853251333041
 30
0.0
  0
VERTEX
  5
BF14
  8
0
 10
171.42134080215169
 20
147.71030846276841
 30
0.0
  0
VERTEX
  5
BF15
  8
0
 10
171.17173931528919
 20
147.60108661716851
 30
0.0
  0
VERTEX
  5
BF16
  8
0
 10
170.88908746350319
 20
147.52725841825219
 30
0.0
  0
VERTEX
  5
BF17
  8
0
 10
170.73646091394991
 20
147.50707557583621
 30
0.0
  0
VERTEX
  5
BF18
  8
0
 10
170.57701810527891
 20
147.5
 30
0.0
  0
SEQEND
  5
BF19
  8
0
  0
POLYLINE
  5
BA61
  8
0
 66
     1
 10
0.0
 20
0.0
 30
0.0
  0
VERTEX
  5
BF1A
  8
0
 10
170.57701810527891
 20
156.5
 30
0.0
  0
VERTEX
  5
BF1B
  8
0
 10
170.8200827367105
 20
156.4835321449541
 30
0.0
  0
VERTEX
  5
BF1C
  8
0
 10
171.04745115416881
 20
156.43743855906101
 30
0.0
  0
VERTEX
  5
BF1D
  8
0
 10
171.2620511442868
 20
156.3645620243307
 30
0.0
  0
VERTEX
  5
BF1E
  8
0
 10
171.45844678302569
 20
156.2694213857487
 30
0.0
  0
VERTEX
  5
BF1F
  8
0
 10
171.65289799568359
 20
156.1431093402922
 30
0.0
  0
VERTEX
  5
BF20
  8
0
 10
171.8246660709961
 20
155.99746790318761
 30
0.0
  0
VERTEX
  5
BF21
  8
0
 10
171.97329999951839
 20
155.83595636880079
 30
0.0
  0
VERTEX
  5
BF22
  8
0
 10
172.1018870749013
 20
155.65643470245931
 30
0.0
  0
VERTEX
  5
BF23
  8
0
 10
172.20607769929191
 20
155.46559976860101
 30
0.0
  0
VERTEX
  5
BF24
  8
0
 10
172.28566256026849
 20
155.26615733363909
 30
0.0
  0
VERTEX
  5
BF25
  8
0
 10
172.338360111903
 20
155.0710449241011
 30
0.0
  0
VERTEX
  5
BF26
  8
0
 10
172.3688214908517
 20
154.87158271314399
 30
0.0
  0
VERTEX
  5
BF27
  8
0
 10
172.36956465711401
 20
154.86363636363629
 30
0.0
  0
SEQEND
  5
BF28
  8
0
  0
ARC
  5
BA62
  8
0
 10
141.00000000000071
 20
152.0
 30
0.0
 40
31.49999999999919
 50
354.78402617101011
 51
5.2158656981293676
  0
POLYLINE
  5
BA64
  8
0
 66
     1
 10
0.0
 20
0.0
 30
0.0
  0
VERTEX
  5
BF29
  8
0
 10
109.6304353428859
 20
154.86363636363629
 30
0.0
  0
VERTEX
  5
BF2A
  8
0
 10
109.6311785091482
 20
154.87158271314411
 30
0.0
  0
VERTEX
  5
BF2B
  8
0
 10
109.65724690178691
 20
155.0495354098876
 30
0.0
  0
VERTEX
  5
BF2C
  8
0
 10
109.70109704708879
 20
155.22451174581201
 30
0.0
  0
VERTEX
  5
BF2D
  8
0
 10
109.7631385230487
 20
155.39635948309811
 30
0.0
  0
VERTEX
  5
BF2E
  8
0
 10
109.8430604618537
 20
155.56246638541279
 30
0.0
  0
VERTEX
  5
BF2F
  8
0
 10
109.9432824258608
 20
155.72493406590601
 30
0.0
  0
VERTEX
  5
BF30
  8
0
 10
110.0621178654176
 20
155.87815495319941
 30
0.0
  0
VERTEX
  5
BF31
  8
0
 10
110.2008693642847
 20
156.02153307095321
 30
0.0
  0
VERTEX
  5
BF32
  8
0
 10
110.358443433597
 20
156.15146748664509
 30
0.0
  0
VERTEX
  5
BF33
  8
0
 10
110.5786591978173
 20
156.28969153721511
 30
0.0
  0
VERTEX
  5
BF34
  8
0
 10
110.8282606846842
 20
156.3989133828222
 30
0.0
  0
VERTEX
  5
BF35
  8
0
 10
111.1109125364771
 20
156.47274158174429
 30
0.0
  0
VERTEX
  5
BF36
  8
0
 10
111.26374775277461
 20
156.49294666126599
 30
0.0
  0
VERTEX
  5
BF37
  8
0
 10
111.42298189472091
 20
156.5
 30
0.0
  0
SEQEND
  5
BF38
  8
0
  0
POLYLINE
  5
BA65
  8
0
 66
     1
 10
0.0
 20
0.0
 30
0.0
  0
VERTEX
  5
BF39
  8
0
 10
111.4229818678989
 20
147.5
 30
0.0
  0
VERTEX
  5
BF3A
  8
0
 10
111.17991723809951
 20
147.51646785847939
 30
0.0
  0
VERTEX
  5
BF3B
  8
0
 10
110.95254882242099
 20
147.56256144727749
 30
0.0
  0
VERTEX
  5
BF3C
  8
0
 10
110.7379488343024
 20
147.635437984481
 30
0.0
  0
VERTEX
  5
BF3D
  8
0
 10
110.54155319759739
 20
147.73057862513369
 30
0.0
  0
VERTEX
  5
BF3E
  8
0
 10
110.3471019858444
 20
147.85689067347991
 30
0.0
  0
VERTEX
  5
BF3F
  8
0
 10
110.1753339117687
 20
148.00253211338651
 30
0.0
  0
VERTEX
  5
BF40
  8
0
 10
110.0266999848059
 20
148.16404365046719
 30
0.0
  0
VERTEX
  5
BF41
  8
0
 10
109.898112911353
 20
148.3435653194569
 30
0.0
  0
VERTEX
  5
BF42
  8
0
 10
109.7939222892343
 20
148.53440025581429
 30
0.0
  0
VERTEX
  5
BF43
  8
0
 10
109.7143374308725
 20
148.7338426930969
 30
0.0
  0
VERTEX
  5
BF44
  8
0
 10
109.6616398852007
 20
148.92895508964671
 30
0.0
  0
VERTEX
  5
BF45
  8
0
 10
109.6311785091482
 20
149.12841728685589
 30
0.0
  0
VERTEX
  5
BF46
  8
0
 10
109.6304353428859
 20
149.1363636363636
 30
0.0
  0
SEQEND
  5
BF47
  8
0
  0
ARC
  5
BA66
  8
0
 10
140.99999999999869
 20
152.0
 30
0.0
 40
31.499999999998671
 50
174.78413699482101
 51
185.2159727318716
  0
LINE
  5
BAB7
  8
1
 10
140.99999999999989
 20
44.999999999999993
 30
0.0
 11
140.99999999999989
 21
107.0
 31
0.0
  0
POLYLINE
  5
BABA
  8
0
 10
119.4058821529953
 20
86.144002877238492
 30
0.0
 66
     1
 70
     8
  0
VERTEX
  8
0
  5
BFF3
 10
119.406
 20
86.1440
 30
0.000000
  70
    32
  0
VERTEX
  8
0
  5
BFF4
 10
119.712
 20
86.1515
 30
0.000000
  70
    32
  0
VERTEX
  8
0
  5
BFF5
 10
120.018
 20
86.1741
 30
0.000000
  70
    32
  0
VERTEX
  8
0
  5
BFF6
 10
120.322
 20
86.2117
 30
0.000000
  70
    32
  0
VERTEX
  8
0
  5
BFF7
 10
120.624
 20
86.2642
 30
0.000000
  70
    32
  0
VERTEX
  8
0
  5
BFF8
 10
120.923
 20
86.3315
 30
0.000000
  70
    32
  0
VERTEX
  8
0
  5
BFF9
 10
121.218
 20
86.4134
 30
0.000000
  70
    32
  0
VERTEX
  8
0
  5
BFFA
 10
121.509
 20
86.5097
 30
0.000000
  70
    32
  0
VERTEX
  8
0
  5
BFFB
 10
121.795
 20
86.6202
 30
0.000000
  70
    32
  0
VERTEX
  8
0
  5
BFFC
 10
122.075
 20
86.7446
 30
0.000000
  70
    32
  0
VERTEX
  8
0
  5
BFFD
 10
122.349
 20
86.8827
 30
0.000000
  70
    32
  0
VERTEX
  8
0
  5
BFFE
 10
122.615
 20
87.0341
 30
0.000000
  70
    32
  0
VERTEX
  8
0
  5
BFFF
 10
122.874
 20
87.1983
 30
0.000000
  70
    32
  0
VERTEX
  8
0
  5
C000
 10
123.125
 20
87.3751
 30
0.000000
  70
    32
  0
VERTEX
  8
0
  5
C001
 10
123.366
 20
87.5640
 30
0.000000
  70
    32
  0
VERTEX
  8
0
  5
C002
 10
123.598
 20
87.7646
 30
0.000000
  70
    32
  0
VERTEX
  8
0
  5
C003
 10
123.820
 20
87.9763
 30
0.000000
  70
    32
  0
VERTEX
  8
0
  5
C004
 10
124.031
 20
88.1987
 30
0.000000
  70
    32
  0
VERTEX
  8
0
  5
C005
 10
124.231
 20
88.4312
 30
0.000000
  70
    32
  0
VERTEX
  8
0
  5
C006
 10
124.420
 20
88.6733
 30
0.000000
  70
    32
  0
VERTEX
  8
0
  5
C007
 10
124.596
 20
88.9244
 30
0.000000
  70
    32
  0
VERTEX
  8
0
  5
C008
 10
124.760
 20
89.1838
 30
0.000000
  70
    32
  0
VERTEX
  8
0
  5
C009
 10
124.911
 20
89.4509
 30
0.000000
  70
    32
  0
VERTEX
  8
0
  5
C00A
 10
125.049
 20
89.7252
 30
0.000000
  70
    32
  0
VERTEX
  8
0
  5
C00B
 10
125.173
 20
90.0059
 30
0.000000
  70
    32
  0
VERTEX
  8
0
  5
C00C
 10
125.284
 20
90.2924
 30
0.000000
  70
    32
  0
VERTEX
  8
0
  5
C00D
 10
125.380
 20
90.5840
 30
0.000000
  70
    32
  0
VERTEX
  8
0
  5
C00E
 10
125.461
 20
90.8799
 30
0.000000
  70
    32
  0
VERTEX
  8
0
  5
C00F
 10
125.529
 20
91.1795
 30
0.000000
  70
    32
  0
VERTEX
  8
0
  5
C010
 10
125.581
 20
91.4821
 30
0.000000
  70
    32
  0
VERTEX
  8
0
  5
C011
 10
125.618
 20
91.7868
 30
0.000000
  70
    32
  0
VERTEX
  8
0
  5
C012
 10
125.641
 20
92.0930
 30
0.000000
  70
    32
  0
VERTEX
  8
0
  5
C013
 10
125.649
 20
92.4000
 30
0.000000
  70
    32
  0
VERTEX
  8
0
  5
C014
 10
125.641
 20
92.7070
 30
0.000000
  70
    32
  0
VERTEX
  8
0
  5
C015
 10
125.618
 20
93.0132
 30
0.000000
  70
    32
  0
VERTEX
  8
0
  5
C016
 10
125.581
 20
93.3179
 30
0.000000
  70
    32
  0
VERTEX
  8
0
  5
C017
 10
125.529
 20
93.6205
 30
0.000000
  70
    32
  0
VERTEX
  8
0
  5
C018
 10
125.461
 20
93.9201
 30
0.000000
  70
    32
  0
VERTEX
  8
0
  5
C019
 10
125.380
 20
94.2160
 30
0.000000
  70
    32
  0
VERTEX
  8
0
  5
C01A
 10
125.284
 20
94.5076
 30
0.000000
  70
    32
  0
VERTEX
  8
0
  5
C01B
 10
125.173
 20
94.7941
 30
0.000000
  70
    32
  0
VERTEX
  8
0
  5
C01C
 10
125.049
 20
95.0748
 30
0.000000
  70
    32
  0
VERTEX
  8
0
  5
C01D
 10
124.911
 20
95.3491
 30
0.000000
  70
    32
  0
VERTEX
  8
0
  5
C01E
 10
124.760
 20
95.6162
 30
0.000000
  70
    32
  0
VERTEX
  8
0
  5
C01F
 10
124.596
 20
95.8756
 30
0.000000
  70
    32
  0
VERTEX
  8
0
  5
C020
 10
124.420
 20
96.1267
 30
0.000000
  70
    32
  0
VERTEX
  8
0
  5
C021
 10
124.231
 20
96.3688
 30
0.000000
  70
    32
  0
VERTEX
  8
0
  5
C022
 10
124.031
 20
96.6013
 30
0.000000
  70
    32
  0
VERTEX
  8
0
  5
C023
 10
123.820
 20
96.8237
 30
0.000000
  70
    32
  0
VERTEX
  8
0
  5
C024
 10
123.598
 20
97.0354
 30
0.000000
  70
    32
  0
VERTEX
  8
0
  5
C025
 10
123.366
 20
97.2360
 30
0.000000
  70
    32
  0
VERTEX
  8
0
  5
C026
 10
123.125
 20
97.4249
 30
0.000000
  70
    32
  0
VERTEX
  8
0
  5
C027
 10
122.874
 20
97.6017
 30
0.000000
  70
    32
  0
VERTEX
  8
0
  5
C028
 10
122.615
 20
97.7659
 30
0.000000
  70
    32
  0
VERTEX
  8
0
  5
C029
 10
122.349
 20
97.9173
 30
0.000000
  70
    32
  0
VERTEX
  8
0
  5
C02A
 10
122.075
 20
98.0554
 30
0.000000
  70
    32
  0
VERTEX
  8
0
  5
C02B
 10
121.795
 20
98.1798
 30
0.000000
  70
    32
  0
VERTEX
  8
0
  5
C02C
 10
121.509
 20
98.2903
 30
0.000000
  70
    32
  0
VERTEX
  8
0
  5
C02D
 10
121.218
 20
98.3866
 30
0.000000
  70
    32
  0
VERTEX
  8
0
  5
C02E
 10
120.923
 20
98.4685
 30
0.000000
  70
    32
  0
VERTEX
  8
0
  5
C02F
 10
120.624
 20
98.5358
 30
0.000000
  70
    32
  0
VERTEX
  8
0
  5
C030
 10
120.322
 20
98.5883
 30
0.000000
  70
    32
  0
VERTEX
  8
0
  5
C031
 10
120.018
 20
98.6259
 30
0.000000
  70
    32
  0
VERTEX
  8
0
  5
C032
 10
119.712
 20
98.6485
 30
0.000000
  70
    32
  0
VERTEX
  8
0
  5
C033
 10
119.406
 20
98.6560
 30
0.000000
  70
    32
  0
VERTEX
  8
0
  5
C034
 10
119.100
 20
98.6485
 30
0.000000
  70
    32
  0
VERTEX
  8
0
  5
C035
 10
118.794
 20
98.6259
 30
0.000000
  70
    32
  0
VERTEX
  8
0
  5
C036
 10
118.490
 20
98.5883
 30
0.000000
  70
    32
  0
VERTEX
  8
0
  5
C037
 10
118.188
 20
98.5358
 30
0.000000
  70
    32
  0
VERTEX
  8
0
  5
C038
 10
117.889
 20
98.4685
 30
0.000000
  70
    32
  0
VERTEX
  8
0
  5
C039
 10
117.594
 20
98.3866
 30
0.000000
  70
    32
  0
VERTEX
  8
0
  5
C03A
 10
117.303
 20
98.2903
 30
0.000000
  70
    32
  0
VERTEX
  8
0
  5
C03B
 10
117.017
 20
98.1798
 30
0.000000
  70
    32
  0
VERTEX
  8
0
  5
C03C
 10
116.737
 20
98.0554
 30
0.000000
  70
    32
  0
VERTEX
  8
0
  5
C03D
 10
116.463
 20
97.9173
 30
0.000000
  70
    32
  0
VERTEX
  8
0
  5
C03E
 10
116.197
 20
97.7659
 30
0.000000
  70
    32
  0
VERTEX
  8
0
  5
C03F
 10
115.938
 20
97.6017
 30
0.000000
  70
    32
  0
VERTEX
  8
0
  5
C040
 10
115.687
 20
97.4249
 30
0.000000
  70
    32
  0
VERTEX
  8
0
  5
C041
 10
115.446
 20
97.2360
 30
0.000000
  70
    32
  0
VERTEX
  8
0
  5
C042
 10
115.214
 20
97.0354
 30
0.000000
  70
    32
  0
VERTEX
  8
0
  5
C043
 10
114.992
 20
96.8237
 30
0.000000
  70
    32
  0
VERTEX
  8
0
  5
C044
 10
114.780
 20
96.6013
 30
0.000000
  70
    32
  0
VERTEX
  8
0
  5
C045
 10
114.580
 20
96.3688
 30
0.000000
  70
    32
  0
VERTEX
  8
0
  5
C046
 10
114.392
 20
96.1267
 30
0.000000
  70
    32
  0
VERTEX
  8
0
  5
C047
 10
114.215
 20
95.8756
 30
0.000000
  70
    32
  0
VERTEX
  8
0
  5
C048
 10
114.051
 20
95.6162
 30
0.000000
  70
    32
  0
VERTEX
  8
0
  5
C049
 10
113.900
 20
95.3491
 30
0.000000
  70
    32
  0
VERTEX
  8
0
  5
C04A
 10
113.763
 20
95.0748
 30
0.000000
  70
    32
  0
VERTEX
  8
0
  5
C04B
 10
113.638
 20
94.7941
 30
0.000000
  70
    32
  0
VERTEX
  8
0
  5
C04C
 10
113.528
 20
94.5076
 30
0.000000
  70
    32
  0
VERTEX
  8
0
  5
C04D
 10
113.432
 20
94.2160
 30
0.000000
  70
    32
  0
VERTEX
  8
0
  5
C04E
 10
113.350
 20
93.9201
 30
0.000000
  70
    32
  0
VERTEX
  8
0
  5
C04F
 10
113.283
 20
93.6205
 30
0.000000
  70
    32
  0
VERTEX
  8
0
  5
C050
 10
113.231
 20
93.3179
 30
0.000000
  70
    32
  0
VERTEX
  8
0
  5
C051
 10
113.193
 20
93.0132
 30
0.000000
  70
    32
  0
VERTEX
  8
0
  5
C052
 10
113.171
 20
92.7070
 30
0.000000
  70
    32
  0
VERTEX
  8
0
  5
C053
 10
113.163
 20
92.4000
 30
0.000000
  70
    32
  0
VERTEX
  8
0
  5
C054
 10
113.171
 20
92.0930
 30
0.000000
  70
    32
  0
VERTEX
  8
0
  5
C055
 10
113.193
 20
91.7868
 30
0.000000
  70
    32
  0
VERTEX
  8
0
  5
C056
 10
113.231
 20
91.4821
 30
0.000000
  70
    32
  0
VERTEX
  8
0
  5
C057
 10
113.283
 20
91.1795
 30
0.000000
  70
    32
  0
VERTEX
  8
0
  5
C058
 10
113.350
 20
90.8799
 30
0.000000
  70
    32
  0
VERTEX
  8
0
  5
C059
 10
113.432
 20
90.5840
 30
0.000000
  70
    32
  0
VERTEX
  8
0
  5
C05A
 10
113.528
 20
90.2924
 30
0.000000
  70
    32
  0
VERTEX
  8
0
  5
C05B
 10
113.638
 20
90.0059
 30
0.000000
  70
    32
  0
VERTEX
  8
0
  5
C05C
 10
113.763
 20
89.7252
 30
0.000000
  70
    32
  0
VERTEX
  8
0
  5
C05D
 10
113.900
 20
89.4509
 30
0.000000
  70
    32
  0
VERTEX
  8
0
  5
C05E
 10
114.051
 20
89.1838
 30
0.000000
  70
    32
  0
VERTEX
  8
0
  5
C05F
 10
114.215
 20
88.9244
 30
0.000000
  70
    32
  0
VERTEX
  8
0
  5
C060
 10
114.392
 20
88.6733
 30
0.000000
  70
    32
  0
VERTEX
  8
0
  5
C061
 10
114.580
 20
88.4312
 30
0.000000
  70
    32
  0
VERTEX
  8
0
  5
C062
 10
114.780
 20
88.1987
 30
0.000000
  70
    32
  0
VERTEX
  8
0
  5
C063
 10
114.992
 20
87.9763
 30
0.000000
  70
    32
  0
VERTEX
  8
0
  5
C064
 10
115.214
 20
87.7646
 30
0.000000
  70
    32
  0
VERTEX
  8
0
  5
C065
 10
115.446
 20
87.5640
 30
0.000000
  70
    32
  0
VERTEX
  8
0
  5
C066
 10
115.687
 20
87.3751
 30
0.000000
  70
    32
  0
VERTEX
  8
0
  5
C067
 10
115.938
 20
87.1983
 30
0.000000
  70
    32
  0
VERTEX
  8
0
  5
C068
 10
116.197
 20
87.0341
 30
0.000000
  70
    32
  0
VERTEX
  8
0
  5
C069
 10
116.463
 20
86.8827
 30
0.000000
  70
    32
  0
VERTEX
  8
0
  5
C06A
 10
116.737
 20
86.7446
 30
0.000000
  70
    32
  0
VERTEX
  8
0
  5
C06B
 10
117.017
 20
86.6202
 30
0.000000
  70
    32
  0
VERTEX
  8
0
  5
C06C
 10
117.303
 20
86.5097
 30
0.000000
  70
    32
  0
VERTEX
  8
0
  5
C06D
 10
117.594
 20
86.4134
 30
0.000000
  70
    32
  0
VERTEX
  8
0
  5
C06E
 10
117.889
 20
86.3315
 30
0.000000
  70
    32
  0
VERTEX
  8
0
  5
C06F
 10
118.188
 20
86.2642
 30
0.000000
  70
    32
  0
VERTEX
  8
0
  5
C070
 10
118.490
 20
86.2117
 30
0.000000
  70
    32
  0
VERTEX
  8
0
  5
C071
 10
118.794
 20
86.1741
 30
0.000000
  70
    32
  0
VERTEX
  8
0
  5
C072
 10
119.100
 20
86.1515
 30
0.000000
  70
    32
  0
VERTEX
  8
0
  5
C073
 10
119.406
 20
86.1440
 30
0.000000
  70
    32
  0
SEQEND
  8
0
  5
C074
  0
POLYLINE
  5
BABC
  8
0
 10
162.59411784700461
 20
86.144002877238492
 30
0.0
 66
     1
 70
     8
  0
VERTEX
  8
0
  5
C075
 10
162.594
 20
86.1440
 30
0.000000
  70
    32
  0
VERTEX
  8
0
  5
C076
 10
162.900
 20
86.1515
 30
0.000000
  70
    32
  0
VERTEX
  8
0
  5
C077
 10
163.206
 20
86.1741
 30
0.000000
  70
    32
  0
VERTEX
  8
0
  5
C078
 10
163.510
 20
86.2117
 30
0.000000
  70
    32
  0
VERTEX
  8
0
  5
C079
 10
163.812
 20
86.2642
 30
0.000000
  70
    32
  0
VERTEX
  8
0
  5
C07A
 10
164.111
 20
86.3315
 30
0.000000
  70
    32
  0
VERTEX
  8
0
  5
C07B
 10
164.406
 20
86.4134
 30
0.000000
  70
    32
  0
VERTEX
  8
0
  5
C07C
 10
164.697
 20
86.5097
 30
0.000000
  70
    32
  0
VERTEX
  8
0
  5
C07D
 10
164.983
 20
86.6202
 30
0.000000
  70
    32
  0
VERTEX
  8
0
  5
C07E
 10
165.263
 20
86.7446
 30
0.000000
  70
    32
  0
VERTEX
  8
0
  5
C07F
 10
165.537
 20
86.8827
 30
0.000000
  70
    32
  0
VERTEX
  8
0
  5
C080
 10
165.803
 20
87.0341
 30
0.000000
  70
    32
  0
VERTEX
  8
0
  5
C081
 10
166.062
 20
87.1983
 30
0.000000
  70
    32
  0
VERTEX
  8
0
  5
C082
 10
166.313
 20
87.3751
 30
0.000000
  70
    32
  0
VERTEX
  8
0
  5
C083
 10
166.554
 20
87.5640
 30
0.000000
  70
    32
  0
VERTEX
  8
0
  5
C084
 10
166.786
 20
87.7646
 30
0.000000
  70
    32
  0
VERTEX
  8
0
  5
C085
 10
167.008
 20
87.9763
 30
0.000000
  70
    32
  0
VERTEX
  8
0
  5
C086
 10
167.220
 20
88.1987
 30
0.000000
  70
    32
  0
VERTEX
  8
0
  5
C087
 10
167.420
 20
88.4312
 30
0.000000
  70
    32
  0
VERTEX
  8
0
  5
C088
 10
167.608
 20
88.6733
 30
0.000000
  70
    32
  0
VERTEX
  8
0
  5
C089
 10
167.785
 20
88.9244
 30
0.000000
  70
    32
  0
VERTEX
  8
0
  5
C08A
 10
167.949
 20
89.1838
 30
0.000000
  70
    32
  0
VERTEX
  8
0
  5
C08B
 10
168.100
 20
89.4509
 30
0.000000
  70
    32
  0
VERTEX
  8
0
  5
C08C
 10
168.237
 20
89.7252
 30
0.000000
  70
    32
  0
VERTEX
  8
0
  5
C08D
 10
168.362
 20
90.0059
 30
0.000000
  70
    32
  0
VERTEX
  8
0
  5
C08E
 10
168.472
 20
90.2924
 30
0.000000
  70
    32
  0
VERTEX
  8
0
  5
C08F
 10
168.568
 20
90.5840
 30
0.000000
  70
    32
  0
VERTEX
  8
0
  5
C090
 10
168.650
 20
90.8799
 30
0.000000
  70
    32
  0
VERTEX
  8
0
  5
C091
 10
168.717
 20
91.1795
 30
0.000000
  70
    32
  0
VERTEX
  8
0
  5
C092
 10
168.769
 20
91.4821
 30
0.000000
  70
    32
  0
VERTEX
  8
0
  5
C093
 10
168.807
 20
91.7868
 30
0.000000
  70
    32
  0
VERTEX
  8
0
  5
C094
 10
168.829
 20
92.0930
 30
0.000000
  70
    32
  0
VERTEX
  8
0
  5
C095
 10
168.837
 20
92.4000
 30
0.000000
  70
    32
  0
VERTEX
  8
0
  5
C096
 10
168.829
 20
92.7070
 30
0.000000
  70
    32
  0
VERTEX
  8
0
  5
C097
 10
168.807
 20
93.0132
 30
0.000000
  70
    32
  0
VERTEX
  8
0
  5
C098
 10
168.769
 20
93.3179
 30
0.000000
  70
    32
  0
VERTEX
  8
0
  5
C099
 10
168.717
 20
93.6205
 30
0.000000
  70
    32
  0
VERTEX
  8
0
  5
C09A
 10
168.650
 20
93.9201
 30
0.000000
  70
    32
  0
VERTEX
  8
0
  5
C09B
 10
168.568
 20
94.2160
 30
0.000000
  70
    32
  0
VERTEX
  8
0
  5
C09C
 10
168.472
 20
94.5076
 30
0.000000
  70
    32
  0
VERTEX
  8
0
  5
C09D
 10
168.362
 20
94.7941
 30
0.000000
  70
    32
  0
VERTEX
  8
0
  5
C09E
 10
168.237
 20
95.0748
 30
0.000000
  70
    32
  0
VERTEX
  8
0
  5
C09F
 10
168.100
 20
95.3491
 30
0.000000
  70
    32
  0
VERTEX
  8
0
  5
C0A0
 10
167.949
 20
95.6162
 30
0.000000
  70
    32
  0
VERTEX
  8
0
  5
C0A1
 10
167.785
 20
95.8756
 30
0.000000
  70
    32
  0
VERTEX
  8
0
  5
C0A2
 10
167.608
 20
96.1267
 30
0.000000
  70
    32
  0
VERTEX
  8
0
  5
C0A3
 10
167.420
 20
96.3688
 30
0.000000
  70
    32
  0
VERTEX
  8
0
  5
C0A4
 10
167.220
 20
96.6013
 30
0.000000
  70
    32
  0
VERTEX
  8
0
  5
C0A5
 10
167.008
 20
96.8237
 30
0.000000
  70
    32
  0
VERTEX
  8
0
  5
C0A6
 10
166.786
 20
97.0354
 30
0.000000
  70
    32
  0
VERTEX
  8
0
  5
C0A7
 10
166.554
 20
97.2360
 30
0.000000
  70
    32
  0
VERTEX
  8
0
  5
C0A8
 10
166.313
 20
97.4249
 30
0.000000
  70
    32
  0
VERTEX
  8
0
  5
C0A9
 10
166.062
 20
97.6017
 30
0.000000
  70
    32
  0
VERTEX
  8
0
  5
C0AA
 10
165.803
 20
97.7659
 30
0.000000
  70
    32
  0
VERTEX
  8
0
  5
C0AB
 10
165.537
 20
97.9173
 30
0.000000
  70
    32
  0
VERTEX
  8
0
  5
C0AC
 10
165.263
 20
98.0554
 30
0.000000
  70
    32
  0
VERTEX
  8
0
  5
C0AD
 10
164.983
 20
98.1798
 30
0.000000
  70
    32
  0
VERTEX
  8
0
  5
C0AE
 10
164.697
 20
98.2903
 30
0.000000
  70
    32
  0
VERTEX
  8
0
  5
C0AF
 10
164.406
 20
98.3866
 30
0.000000
  70
    32
  0
VERTEX
  8
0
  5
C0B0
 10
164.111
 20
98.4685
 30
0.000000
  70
    32
  0
VERTEX
  8
0
  5
C0B1
 10
163.812
 20
98.5358
 30
0.000000
  70
    32
  0
VERTEX
  8
0
  5
C0B2
 10
163.510
 20
98.5883
 30
0.000000
  70
    32
  0
VERTEX
  8
0
  5
C0B3
 10
163.206
 20
98.6259
 30
0.000000
  70
    32
  0
VERTEX
  8
0
  5
C0B4
 10
162.900
 20
98.6485
 30
0.000000
  70
    32
  0
VERTEX
  8
0
  5
C0B5
 10
162.594
 20
98.6560
 30
0.000000
  70
    32
  0
VERTEX
  8
0
  5
C0B6
 10
162.288
 20
98.6485
 30
0.000000
  70
    32
  0
VERTEX
  8
0
  5
C0B7
 10
161.982
 20
98.6259
 30
0.000000
  70
    32
  0
VERTEX
  8
0
  5
C0B8
 10
161.678
 20
98.5883
 30
0.000000
  70
    32
  0
VERTEX
  8
0
  5
C0B9
 10
161.376
 20
98.5358
 30
0.000000
  70
    32
  0
VERTEX
  8
0
  5
C0BA
 10
161.077
 20
98.4685
 30
0.000000
  70
    32
  0
VERTEX
  8
0
  5
C0BB
 10
160.782
 20
98.3866
 30
0.000000
  70
    32
  0
VERTEX
  8
0
  5
C0BC
 10
160.491
 20
98.2903
 30
0.000000
  70
    32
  0
VERTEX
  8
0
  5
C0BD
 10
160.205
 20
98.1798
 30
0.000000
  70
    32
  0
VERTEX
  8
0
  5
C0BE
 10
159.925
 20
98.0554
 30
0.000000
  70
    32
  0
VERTEX
  8
0
  5
C0BF
 10
159.651
 20
97.9173
 30
0.000000
  70
    32
  0
VERTEX
  8
0
  5
C0C0
 10
159.385
 20
97.7659
 30
0.000000
  70
    32
  0
VERTEX
  8
0
  5
C0C1
 10
159.126
 20
97.6017
 30
0.000000
  70
    32
  0
VERTEX
  8
0
  5
C0C2
 10
158.875
 20
97.4249
 30
0.000000
  70
    32
  0
VERTEX
  8
0
  5
C0C3
 10
158.634
 20
97.2360
 30
0.000000
  70
    32
  0
VERTEX
  8
0
  5
C0C4
 10
158.402
 20
97.0354
 30
0.000000
  70
    32
  0
VERTEX
  8
0
  5
C0C5
 10
158.180
 20
96.8237
 30
0.000000
  70
    32
  0
VERTEX
  8
0
  5
C0C6
 10
157.969
 20
96.6013
 30
0.000000
  70
    32
  0
VERTEX
  8
0
  5
C0C7
 10
157.769
 20
96.3688
 30
0.000000
  70
    32
  0
VERTEX
  8
0
  5
C0C8
 10
157.580
 20
96.1267
 30
0.000000
  70
    32
  0
VERTEX
  8
0
  5
C0C9
 10
157.404
 20
95.8756
 30
0.000000
  70
    32
  0
VERTEX
  8
0
  5
C0CA
 10
157.240
 20
95.6162
 30
0.000000
  70
    32
  0
VERTEX
  8
0
  5
C0CB
 10
157.089
 20
95.3491
 30
0.000000
  70
    32
  0
VERTEX
  8
0
  5
C0CC
 10
156.951
 20
95.0748
 30
0.000000
  70
    32
  0
VERTEX
  8
0
  5
C0CD
 10
156.827
 20
94.7941
 30
0.000000
  70
    32
  0
VERTEX
  8
0
  5
C0CE
 10
156.716
 20
94.5076
 30
0.000000
  70
    32
  0
VERTEX
  8
0
  5
C0CF
 10
156.620
 20
94.2160
 30
0.000000
  70
    32
  0
VERTEX
  8
0
  5
C0D0
 10
156.539
 20
93.9201
 30
0.000000
  70
    32
  0
VERTEX
  8
0
  5
C0D1
 10
156.471
 20
93.6205
 30
0.000000
  70
    32
  0
VERTEX
  8
0
  5
C0D2
 10
156.419
 20
93.3179
 30
0.000000
  70
    32
  0
VERTEX
  8
0
  5
C0D3
 10
156.382
 20
93.0132
 30
0.000000
  70
    32
  0
VERTEX
  8
0
  5
C0D4
 10
156.359
 20
92.7070
 30
0.000000
  70
    32
  0
VERTEX
  8
0
  5
C0D5
 10
156.351
 20
92.4000
 30
0.000000
  70
    32
  0
VERTEX
  8
0
  5
C0D6
 10
156.359
 20
92.0930
 30
0.000000
  70
    32
  0
VERTEX
  8
0
  5
C0D7
 10
156.382
 20
91.7868
 30
0.000000
  70
    32
  0
VERTEX
  8
0
  5
C0D8
 10
156.419
 20
91.4821
 30
0.000000
  70
    32
  0
VERTEX
  8
0
  5
C0D9
 10
156.471
 20
91.1795
 30
0.000000
  70
    32
  0
VERTEX
  8
0
  5
C0DA
 10
156.539
 20
90.8799
 30
0.000000
  70
    32
  0
VERTEX
  8
0
  5
C0DB
 10
156.620
 20
90.5840
 30
0.000000
  70
    32
  0
VERTEX
  8
0
  5
C0DC
 10
156.716
 20
90.2924
 30
0.000000
  70
    32
  0
VERTEX
  8
0
  5
C0DD
 10
156.827
 20
90.0059
 30
0.000000
  70
    32
  0
VERTEX
  8
0
  5
C0DE
 10
156.951
 20
89.7252
 30
0.000000
  70
    32
  0
VERTEX
  8
0
  5
C0DF
 10
157.089
 20
89.4509
 30
0.000000
  70
    32
  0
VERTEX
  8
0
  5
C0E0
 10
157.240
 20
89.1838
 30
0.000000
  70
    32
  0
VERTEX
  8
0
  5
C0E1
 10
157.404
 20
88.9244
 30
0.000000
  70
    32
  0
VERTEX
  8
0
  5
C0E2
 10
157.580
 20
88.6733
 30
0.000000
  70
    32
  0
VERTEX
  8
0
  5
C0E3
 10
157.769
 20
88.4312
 30
0.000000
  70
    32
  0
VERTEX
  8
0
  5
C0E4
 10
157.969
 20
88.1987
 30
0.000000
  70
    32
  0
VERTEX
  8
0
  5
C0E5
 10
158.180
 20
87.9763
 30
0.000000
  70
    32
  0
VERTEX
  8
0
  5
C0E6
 10
158.402
 20
87.7646
 30
0.000000
  70
    32
  0
VERTEX
  8
0
  5
C0E7
 10
158.634
 20
87.5640
 30
0.000000
  70
    32
  0
VERTEX
  8
0
  5
C0E8
 10
158.875
 20
87.3751
 30
0.000000
  70
    32
  0
VERTEX
  8
0
  5
C0E9
 10
159.126
 20
87.1983
 30
0.000000
  70
    32
  0
VERTEX
  8
0
  5
C0EA
 10
159.385
 20
87.0341
 30
0.000000
  70
    32
  0
VERTEX
  8
0
  5
C0EB
 10
159.651
 20
86.8827
 30
0.000000
  70
    32
  0
VERTEX
  8
0
  5
C0EC
 10
159.925
 20
86.7446
 30
0.000000
  70
    32
  0
VERTEX
  8
0
  5
C0ED
 10
160.205
 20
86.6202
 30
0.000000
  70
    32
  0
VERTEX
  8
0
  5
C0EE
 10
160.491
 20
86.5097
 30
0.000000
  70
    32
  0
VERTEX
  8
0
  5
C0EF
 10
160.782
 20
86.4134
 30
0.000000
  70
    32
  0
VERTEX
  8
0
  5
C0F0
 10
161.077
 20
86.3315
 30
0.000000
  70
    32
  0
VERTEX
  8
0
  5
C0F1
 10
161.376
 20
86.2642
 30
0.000000
  70
    32
  0
VERTEX
  8
0
  5
C0F2
 10
161.678
 20
86.2117
 30
0.000000
  70
    32
  0
VERTEX
  8
0
  5
C0F3
 10
161.982
 20
86.1741
 30
0.000000
  70
    32
  0
VERTEX
  8
0
  5
C0F4
 10
162.288
 20
86.1515
 30
0.000000
  70
    32
  0
VERTEX
  8
0
  5
C0F5
 10
162.594
 20
86.1440
 30
0.000000
  70
    32
  0
SEQEND
  8
0
  5
C0F6
  0
LINE
  5
BACA
  8
0
 10
162.89999999999989
 20
102.0
 30
0.0
 11
162.53635336771771
 21
102.0
 31
0.0
  0
ARC
  5
BACB
  8
0
 10
162.89999999999989
 20
92.399999999999977
 30
0.0
 40
9.5999999999999943
 50
290.54711163620237
 51
90.0
  0
POLYLINE
  5
BACC
  8
0
 66
     1
 10
0.0
 20
0.0
 30
0.0
  0
VERTEX
  5
BF48
  8
0
 10
162.53635336771771
 20
102.0
 30
0.0
  0
VERTEX
  5
BF49
  8
0
 10
162.31761804685419
 20
101.9975277468415
 30
0.0
  0
VERTEX
  5
BF4A
  8
0
 10
161.51433676266041
 20
101.9459194492682
 30
0.0
  0
VERTEX
  5
BF4B
  8
0
 10
160.7180418805238
 20
101.8280604925918
 30
0.0
  0
VERTEX
  5
BF4C
  8
0
 10
159.9119165276698
 20
101.63838910377071
 30
0.0
  0
VERTEX
  5
BF4D
  8
0
 10
159.12470956182921
 20
101.3809964384766
 30
0.0
  0
VERTEX
  5
BF4E
  8
0
 10
157.9791640890723
 20
100.8652308249288
 30
0.0
  0
VERTEX
  5
BF4F
  8
0
 10
157.42445346981239
 20
100.5474169440551
 30
0.0
  0
VERTEX
  5
BF50
  8
0
 10
156.89165665545309
 20
100.1939503416299
 30
0.0
  0
SEQEND
  5
BF51
  8
0
  0
POLYLINE
  5
BACD
  8
0
 66
     1
 10
0.0
 20
0.0
 30
0.0
  0
VERTEX
  5
BF52
  8
0
 10
125.1083433445467
 20
100.1939503416299
 30
0.0
  0
VERTEX
  5
BF53
  8
0
 10
124.3218002479957
 20
100.69881178819401
 30
0.0
  0
VERTEX
  5
BF54
  8
0
 10
123.482787565986
 20
101.1296365644246
 30
0.0
  0
VERTEX
  5
BF55
  8
0
 10
122.7311934177096
 20
101.4336537887062
 30
0.0
  0
VERTEX
  5
BF56
  8
0
 10
121.95705468964179
 20
101.6742363590724
 30
0.0
  0
VERTEX
  5
BF57
  8
0
 10
121.14242091746161
 20
101.8535504474883
 30
0.0
  0
VERTEX
  5
BF58
  8
0
 10
120.31548575446131
 20
101.96249519552001
 30
0.0
  0
VERTEX
  5
BF59
  8
0
 10
119.5059910373713
 20
101.9998479939366
 30
0.0
  0
VERTEX
  5
BF5A
  8
0
 10
119.46384182084211
 20
102.0
 30
0.0
  0
SEQEND
  5
BF5B
  8
0
  0
LINE
  5
BAD1
  8
0
 10
119.46384182084211
 20
102.0
 30
0.0
 11
119.09999999999999
 21
102.0
 31
0.0
  0
ARC
  5
BAD2
  8
0
 10
119.09999999999999
 20
92.399999999999977
 30
0.0
 40
9.5999999999999943
 50
90.0
 51
249.4528883637976
  0
ARC
  5
BAD7
  8
0
 10
133.58725783871429
 20
146.6132216644275
 30
0.0
 40
71.152500000003045
 50
283.7506604802175
 51
297.34356279218463
  0
ARC
  5
BADA
  8
0
 10
148.412742161285
 20
146.61322166442591
 30
0.0
 40
71.152500000001311
 50
242.6564372078154
 51
256.2493395197825
  0
ARC
  5
BADC
  8
0
 10
140.99999999999989
 20
93.352993704000255
 30
0.0
 40
8.6470062959997591
 50
32.96756320619096
 51
147.03243679380901
  0
LINE
  5
BAE0
  8
0
 10
150.5
 20
70.0
 30
0.0
 11
150.5
 21
77.5
 31
0.0
  0
LINE
  5
BAE1
  8
0
 10
131.5
 20
77.5
 30
0.0
 11
131.5
 21
70.0
 31
0.0
  0
LINE
  5
BAE3
  8
0
 10
131.5
 20
70.0
 30
0.0
 11
150.5
 21
70.0
 31
0.0
  0
POLYLINE
  5
BAE4
  8
0
 10
125.10834334419192
 20
100.19395034074677
 30
0.0
 66
     1
 70
     8
  0
VERTEX
  8
0
  5
C0F7
 10
125.108
 20
100.194
 30
0.000000
  70
    32
  0
VERTEX
  8
0
  5
C0F8
 10
125.143
 20
100.180
 30
0.000000
  70
    32
  0
VERTEX
  8
0
  5
C0F9
 10
125.178
 20
100.166
 30
0.000000
  70
    32
  0
VERTEX
  8
0
  5
C0FA
 10
125.212
 20
100.152
 30
0.000000
  70
    32
  0
VERTEX
  8
0
  5
C0FB
 10
125.247
 20
100.138
 30
0.000000
  70
    32
  0
VERTEX
  8
0
  5
C0FC
 10
125.282
 20
100.124
 30
0.000000
  70
    32
  0
VERTEX
  8
0
  5
C0FD
 10
125.316
 20
100.111
 30
0.000000
  70
    32
  0
VERTEX
  8
0
  5
C0FE
 10
125.351
 20
100.097
 30
0.000000
  70
    32
  0
VERTEX
  8
0
  5
C0FF
 10
125.386
 20
100.083
 30
0.000000
  70
    32
  0
VERTEX
  8
0
  5
C100
 10
125.420
 20
100.069
 30
0.000000
  70
    32
  0
VERTEX
  8
0
  5
C101
 10
125.455
 20
100.056
 30
0.000000
  70
    32
  0
VERTEX
  8
0
  5
C102
 10
125.490
 20
100.042
 30
0.000000
  70
    32
  0
VERTEX
  8
0
  5
C103
 10
125.525
 20
100.029
 30
0.000000
  70
    32
  0
VERTEX
  8
0
  5
C104
 10
125.559
 20
100.015
 30
0.000000
  70
    32
  0
VERTEX
  8
0
  5
C105
 10
125.594
 20
100.001
 30
0.000000
  70
    32
  0
VERTEX
  8
0
  5
C106
 10
125.629
 20
99.9878
 30
0.000000
  70
    32
  0
VERTEX
  8
0
  5
C107
 10
125.664
 20
99.9743
 30
0.000000
  70
    32
  0
VERTEX
  8
0
  5
C108
 10
125.699
 20
99.9609
 30
0.000000
  70
    32
  0
VERTEX
  8
0
  5
C109
 10
125.733
 20
99.9474
 30
0.000000
  70
    32
  0
VERTEX
  8
0
  5
C10A
 10
125.768
 20
99.9340
 30
0.000000
  70
    32
  0
VERTEX
  8
0
  5
C10B
 10
125.803
 20
99.9206
 30
0.000000
  70
    32
  0
VERTEX
  8
0
  5
C10C
 10
125.838
 20
99.9073
 30
0.000000
  70
    32
  0
VERTEX
  8
0
  5
C10D
 10
125.873
 20
99.8940
 30
0.000000
  70
    32
  0
VERTEX
  8
0
  5
C10E
 10
125.908
 20
99.8807
 30
0.000000
  70
    32
  0
VERTEX
  8
0
  5
C10F
 10
125.943
 20
99.8674
 30
0.000000
  70
    32
  0
VERTEX
  8
0
  5
C110
 10
125.977
 20
99.8542
 30
0.000000
  70
    32
  0
VERTEX
  8
0
  5
C111
 10
126.012
 20
99.8410
 30
0.000000
  70
    32
  0
VERTEX
  8
0
  5
C112
 10
126.047
 20
99.8278
 30
0.000000
  70
    32
  0
VERTEX
  8
0
  5
C113
 10
126.082
 20
99.8147
 30
0.000000
  70
    32
  0
VERTEX
  8
0
  5
C114
 10
126.117
 20
99.8016
 30
0.000000
  70
    32
  0
VERTEX
  8
0
  5
C115
 10
126.152
 20
99.7885
 30
0.000000
  70
    32
  0
VERTEX
  8
0
  5
C116
 10
126.187
 20
99.7755
 30
0.000000
  70
    32
  0
VERTEX
  8
0
  5
C117
 10
126.222
 20
99.7625
 30
0.000000
  70
    32
  0
VERTEX
  8
0
  5
C118
 10
126.257
 20
99.7495
 30
0.000000
  70
    32
  0
VERTEX
  8
0
  5
C119
 10
126.292
 20
99.7365
 30
0.000000
  70
    32
  0
VERTEX
  8
0
  5
C11A
 10
126.327
 20
99.7236
 30
0.000000
  70
    32
  0
VERTEX
  8
0
  5
C11B
 10
126.362
 20
99.7107
 30
0.000000
  70
    32
  0
VERTEX
  8
0
  5
C11C
 10
126.397
 20
99.6979
 30
0.000000
  70
    32
  0
VERTEX
  8
0
  5
C11D
 10
126.432
 20
99.6850
 30
0.000000
  70
    32
  0
VERTEX
  8
0
  5
C11E
 10
126.467
 20
99.6722
 30
0.000000
  70
    32
  0
VERTEX
  8
0
  5
C11F
 10
126.502
 20
99.6594
 30
0.000000
  70
    32
  0
VERTEX
  8
0
  5
C120
 10
126.538
 20
99.6467
 30
0.000000
  70
    32
  0
VERTEX
  8
0
  5
C121
 10
126.573
 20
99.6340
 30
0.000000
  70
    32
  0
VERTEX
  8
0
  5
C122
 10
126.608
 20
99.6213
 30
0.000000
  70
    32
  0
VERTEX
  8
0
  5
C123
 10
126.643
 20
99.6087
 30
0.000000
  70
    32
  0
VERTEX
  8
0
  5
C124
 10
126.678
 20
99.5961
 30
0.000000
  70
    32
  0
VERTEX
  8
0
  5
C125
 10
126.713
 20
99.5835
 30
0.000000
  70
    32
  0
VERTEX
  8
0
  5
C126
 10
126.748
 20
99.5709
 30
0.000000
  70
    32
  0
VERTEX
  8
0
  5
C127
 10
126.783
 20
99.5584
 30
0.000000
  70
    32
  0
VERTEX
  8
0
  5
C128
 10
126.819
 20
99.5459
 30
0.000000
  70
    32
  0
VERTEX
  8
0
  5
C129
 10
126.854
 20
99.5334
 30
0.000000
  70
    32
  0
VERTEX
  8
0
  5
C12A
 10
126.889
 20
99.5210
 30
0.000000
  70
    32
  0
VERTEX
  8
0
  5
C12B
 10
126.924
 20
99.5086
 30
0.000000
  70
    32
  0
VERTEX
  8
0
  5
C12C
 10
126.959
 20
99.4962
 30
0.000000
  70
    32
  0
VERTEX
  8
0
  5
C12D
 10
126.995
 20
99.4839
 30
0.000000
  70
    32
  0
VERTEX
  8
0
  5
C12E
 10
127.030
 20
99.4716
 30
0.000000
  70
    32
  0
VERTEX
  8
0
  5
C12F
 10
127.065
 20
99.4593
 30
0.000000
  70
    32
  0
VERTEX
  8
0
  5
C130
 10
127.100
 20
99.4470
 30
0.000000
  70
    32
  0
VERTEX
  8
0
  5
C131
 10
127.136
 20
99.4348
 30
0.000000
  70
    32
  0
VERTEX
  8
0
  5
C132
 10
127.171
 20
99.4226
 30
0.000000
  70
    32
  0
VERTEX
  8
0
  5
C133
 10
127.206
 20
99.4105
 30
0.000000
  70
    32
  0
VERTEX
  8
0
  5
C134
 10
127.242
 20
99.3983
 30
0.000000
  70
    32
  0
VERTEX
  8
0
  5
C135
 10
127.277
 20
99.3862
 30
0.000000
  70
    32
  0
VERTEX
  8
0
  5
C136
 10
127.312
 20
99.3742
 30
0.000000
  70
    32
  0
VERTEX
  8
0
  5
C137
 10
127.347
 20
99.3621
 30
0.000000
  70
    32
  0
VERTEX
  8
0
  5
C138
 10
127.383
 20
99.3501
 30
0.000000
  70
    32
  0
VERTEX
  8
0
  5
C139
 10
127.418
 20
99.3382
 30
0.000000
  70
    32
  0
VERTEX
  8
0
  5
C13A
 10
127.454
 20
99.3262
 30
0.000000
  70
    32
  0
VERTEX
  8
0
  5
C13B
 10
127.489
 20
99.3143
 30
0.000000
  70
    32
  0
VERTEX
  8
0
  5
C13C
 10
127.524
 20
99.3024
 30
0.000000
  70
    32
  0
VERTEX
  8
0
  5
C13D
 10
127.560
 20
99.2906
 30
0.000000
  70
    32
  0
VERTEX
  8
0
  5
C13E
 10
127.595
 20
99.2788
 30
0.000000
  70
    32
  0
VERTEX
  8
0
  5
C13F
 10
127.631
 20
99.2670
 30
0.000000
  70
    32
  0
VERTEX
  8
0
  5
C140
 10
127.666
 20
99.2552
 30
0.000000
  70
    32
  0
VERTEX
  8
0
  5
C141
 10
127.701
 20
99.2435
 30
0.000000
  70
    32
  0
VERTEX
  8
0
  5
C142
 10
127.737
 20
99.2318
 30
0.000000
  70
    32
  0
VERTEX
  8
0
  5
C143
 10
127.772
 20
99.2201
 30
0.000000
  70
    32
  0
VERTEX
  8
0
  5
C144
 10
127.808
 20
99.2085
 30
0.000000
  70
    32
  0
VERTEX
  8
0
  5
C145
 10
127.843
 20
99.1969
 30
0.000000
  70
    32
  0
VERTEX
  8
0
  5
C146
 10
127.879
 20
99.1853
 30
0.000000
  70
    32
  0
VERTEX
  8
0
  5
C147
 10
127.914
 20
99.1738
 30
0.000000
  70
    32
  0
VERTEX
  8
0
  5
C148
 10
127.950
 20
99.1622
 30
0.000000
  70
    32
  0
VERTEX
  8
0
  5
C149
 10
127.985
 20
99.1508
 30
0.000000
  70
    32
  0
VERTEX
  8
0
  5
C14A
 10
128.021
 20
99.1393
 30
0.000000
  70
    32
  0
VERTEX
  8
0
  5
C14B
 10
128.056
 20
99.1279
 30
0.000000
  70
    32
  0
VERTEX
  8
0
  5
C14C
 10
128.092
 20
99.1165
 30
0.000000
  70
    32
  0
VERTEX
  8
0
  5
C14D
 10
128.127
 20
99.1052
 30
0.000000
  70
    32
  0
VERTEX
  8
0
  5
C14E
 10
128.163
 20
99.0938
 30
0.000000
  70
    32
  0
VERTEX
  8
0
  5
C14F
 10
128.199
 20
99.0825
 30
0.000000
  70
    32
  0
VERTEX
  8
0
  5
C150
 10
128.234
 20
99.0713
 30
0.000000
  70
    32
  0
VERTEX
  8
0
  5
C151
 10
128.270
 20
99.0600
 30
0.000000
  70
    32
  0
VERTEX
  8
0
  5
C152
 10
128.305
 20
99.0488
 30
0.000000
  70
    32
  0
VERTEX
  8
0
  5
C153
 10
128.341
 20
99.0377
 30
0.000000
  70
    32
  0
VERTEX
  8
0
  5
C154
 10
128.377
 20
99.0265
 30
0.000000
  70
    32
  0
VERTEX
  8
0
  5
C155
 10
128.412
 20
99.0154
 30
0.000000
  70
    32
  0
VERTEX
  8
0
  5
C156
 10
128.448
 20
99.0043
 30
0.000000
  70
    32
  0
VERTEX
  8
0
  5
C157
 10
128.483
 20
98.9933
 30
0.000000
  70
    32
  0
VERTEX
  8
0
  5
C158
 10
128.519
 20
98.9823
 30
0.000000
  70
    32
  0
VERTEX
  8
0
  5
C159
 10
128.555
 20
98.9713
 30
0.000000
  70
    32
  0
VERTEX
  8
0
  5
C15A
 10
128.590
 20
98.9603
 30
0.000000
  70
    32
  0
VERTEX
  8
0
  5
C15B
 10
128.626
 20
98.9494
 30
0.000000
  70
    32
  0
VERTEX
  8
0
  5
C15C
 10
128.662
 20
98.9385
 30
0.000000
  70
    32
  0
VERTEX
  8
0
  5
C15D
 10
128.698
 20
98.9277
 30
0.000000
  70
    32
  0
VERTEX
  8
0
  5
C15E
 10
128.733
 20
98.9168
 30
0.000000
  70
    32
  0
VERTEX
  8
0
  5
C15F
 10
128.769
 20
98.9060
 30
0.000000
  70
    32
  0
VERTEX
  8
0
  5
C160
 10
128.805
 20
98.8953
 30
0.000000
  70
    32
  0
VERTEX
  8
0
  5
C161
 10
128.841
 20
98.8845
 30
0.000000
  70
    32
  0
VERTEX
  8
0
  5
C162
 10
128.876
 20
98.8738
 30
0.000000
  70
    32
  0
VERTEX
  8
0
  5
C163
 10
128.912
 20
98.8631
 30
0.000000
  70
    32
  0
VERTEX
  8
0
  5
C164
 10
128.948
 20
98.8525
 30
0.000000
  70
    32
  0
VERTEX
  8
0
  5
C165
 10
128.984
 20
98.8419
 30
0.000000
  70
    32
  0
VERTEX
  8
0
  5
C166
 10
129.019
 20
98.8313
 30
0.000000
  70
    32
  0
VERTEX
  8
0
  5
C167
 10
129.055
 20
98.8207
 30
0.000000
  70
    32
  0
VERTEX
  8
0
  5
C168
 10
129.091
 20
98.8102
 30
0.000000
  70
    32
  0
VERTEX
  8
0
  5
C169
 10
129.127
 20
98.7997
 30
0.000000
  70
    32
  0
VERTEX
  8
0
  5
C16A
 10
129.163
 20
98.7893
 30
0.000000
  70
    32
  0
VERTEX
  8
0
  5
C16B
 10
129.198
 20
98.7789
 30
0.000000
  70
    32
  0
VERTEX
  8
0
  5
C16C
 10
129.234
 20
98.7685
 30
0.000000
  70
    32
  0
VERTEX
  8
0
  5
C16D
 10
129.270
 20
98.7581
 30
0.000000
  70
    32
  0
VERTEX
  8
0
  5
C16E
 10
129.306
 20
98.7478
 30
0.000000
  70
    32
  0
VERTEX
  8
0
  5
C16F
 10
129.342
 20
98.7375
 30
0.000000
  70
    32
  0
VERTEX
  8
0
  5
C170
 10
129.378
 20
98.7272
 30
0.000000
  70
    32
  0
VERTEX
  8
0
  5
C171
 10
129.414
 20
98.7170
 30
0.000000
  70
    32
  0
VERTEX
  8
0
  5
C172
 10
129.450
 20
98.7068
 30
0.000000
  70
    32
  0
VERTEX
  8
0
  5
C173
 10
129.486
 20
98.6966
 30
0.000000
  70
    32
  0
VERTEX
  8
0
  5
C174
 10
129.521
 20
98.6864
 30
0.000000
  70
    32
  0
VERTEX
  8
0
  5
C175
 10
129.557
 20
98.6763
 30
0.000000
  70
    32
  0
VERTEX
  8
0
  5
C176
 10
129.593
 20
98.6662
 30
0.000000
  70
    32
  0
VERTEX
  8
0
  5
C177
 10
129.629
 20
98.6562
 30
0.000000
  70
    32
  0
SEQEND
  8
0
  5
C178
  0
POLYLINE
  5
BAE5
  8
0
 66
     1
 10
0.0
 20
0.0
 30
0.0
  0
VERTEX
  5
BF5C
  8
0
 10
132.92462300389661
 20
98.058384553756426
 30
0.0
  0
VERTEX
  5
BF5D
  8
0
 10
132.5762649445243
 20
98.073329561329672
 30
0.0
  0
VERTEX
  5
BF5E
  8
0
 10
132.15773418813279
 20
98.117215459714942
 30
0.0
  0
VERTEX
  5
BF5F
  8
0
 10
131.6811121235871
 20
98.188923804068224
 30
0.0
  0
VERTEX
  5
BF60
  8
0
 10
131.16080870123071
 20
98.285828181222939
 30
0.0
  0
VERTEX
  5
BF61
  8
0
 10
130.60048768601021
 20
98.407784924242335
 30
0.0
  0
VERTEX
  5
BF62
  8
0
 10
130.0252513568287
 20
98.549401117427351
 30
0.0
  0
VERTEX
  5
BF63
  8
0
 10
129.6292270875602
 20
98.656186984811313
 30
0.0
  0
SEQEND
  5
BF64
  8
0
  0
LINE
  5
BAE6
  8
0
 10
132.92462300389661
 20
98.058384553756426
 30
0.0
 11
149.07537706973079
 21
98.058384553756426
 31
0.0
  0
POLYLINE
  5
BAE7
  8
0
 66
     1
 10
0.0
 20
0.0
 30
0.0
  0
VERTEX
  5
BF65
  8
0
 10
152.37077291243961
 20
98.656186984811313
 30
0.0
  0
VERTEX
  5
BF66
  8
0
 10
151.7667223499563
 20
98.496375934753644
 30
0.0
  0
VERTEX
  5
BF67
  8
0
 10
151.1685867706787
 20
98.355477426204985
 30
0.0
  0
VERTEX
  5
BF68
  8
0
 10
150.59262534288791
 20
98.237816976403835
 30
0.0
  0
VERTEX
  5
BF69
  8
0
 10
150.0577098335672
 20
98.147241541074891
 30
0.0
  0
VERTEX
  5
BF6A
  8
0
 10
149.59715085785831
 20
98.088881475257153
 30
0.0
  0
VERTEX
  5
BF6B
  8
0
 10
149.20577467381241
 20
98.060776679719325
 30
0.0
  0
VERTEX
  5
BF6C
  8
0
 10
149.07537706973079
 20
98.058384553756426
 30
0.0
  0
SEQEND
  5
BF6D
  8
0
  0
POLYLINE
  5
BAE8
  8
0
 10
152.37077291243963
 20
98.656186984811242
 30
0.0
 66
     1
 70
     8
  0
VERTEX
  8
0
  5
C179
 10
152.371
 20
98.6562
 30
0.000000
  70
    32
  0
VERTEX
  8
0
  5
C17A
 10
152.407
 20
98.6662
 30
0.000000
  70
    32
  0
VERTEX
  8
0
  5
C17B
 10
152.443
 20
98.6763
 30
0.000000
  70
    32
  0
VERTEX
  8
0
  5
C17C
 10
152.479
 20
98.6864
 30
0.000000
  70
    32
  0
VERTEX
  8
0
  5
C17D
 10
152.514
 20
98.6966
 30
0.000000
  70
    32
  0
VERTEX
  8
0
  5
C17E
 10
152.550
 20
98.7068
 30
0.000000
  70
    32
  0
VERTEX
  8
0
  5
C17F
 10
152.586
 20
98.7170
 30
0.000000
  70
    32
  0
VERTEX
  8
0
  5
C180
 10
152.622
 20
98.7272
 30
0.000000
  70
    32
  0
VERTEX
  8
0
  5
C181
 10
152.658
 20
98.7375
 30
0.000000
  70
    32
  0
VERTEX
  8
0
  5
C182
 10
152.694
 20
98.7478
 30
0.000000
  70
    32
  0
VERTEX
  8
0
  5
C183
 10
152.730
 20
98.7581
 30
0.000000
  70
    32
  0
VERTEX
  8
0
  5
C184
 10
152.766
 20
98.7685
 30
0.000000
  70
    32
  0
VERTEX
  8
0
  5
C185
 10
152.802
 20
98.7789
 30
0.000000
  70
    32
  0
VERTEX
  8
0
  5
C186
 10
152.837
 20
98.7893
 30
0.000000
  70
    32
  0
VERTEX
  8
0
  5
C187
 10
152.873
 20
98.7997
 30
0.000000
  70
    32
  0
VERTEX
  8
0
  5
C188
 10
152.909
 20
98.8102
 30
0.000000
  70
    32
  0
VERTEX
  8
0
  5
C189
 10
152.945
 20
98.8207
 30
0.000000
  70
    32
  0
VERTEX
  8
0
  5
C18A
 10
152.981
 20
98.8313
 30
0.000000
  70
    32
  0
VERTEX
  8
0
  5
C18B
 10
153.016
 20
98.8419
 30
0.000000
  70
    32
  0
VERTEX
  8
0
  5
C18C
 10
153.052
 20
98.8525
 30
0.000000
  70
    32
  0
VERTEX
  8
0
  5
C18D
 10
153.088
 20
98.8631
 30
0.000000
  70
    32
  0
VERTEX
  8
0
  5
C18E
 10
153.124
 20
98.8738
 30
0.000000
  70
    32
  0
VERTEX
  8
0
  5
C18F
 10
153.159
 20
98.8845
 30
0.000000
  70
    32
  0
VERTEX
  8
0
  5
C190
 10
153.195
 20
98.8953
 30
0.000000
  70
    32
  0
VERTEX
  8
0
  5
C191
 10
153.231
 20
98.9060
 30
0.000000
  70
    32
  0
VERTEX
  8
0
  5
C192
 10
153.267
 20
98.9168
 30
0.000000
  70
    32
  0
VERTEX
  8
0
  5
C193
 10
153.302
 20
98.9277
 30
0.000000
  70
    32
  0
VERTEX
  8
0
  5
C194
 10
153.338
 20
98.9385
 30
0.000000
  70
    32
  0
VERTEX
  8
0
  5
C195
 10
153.374
 20
98.9494
 30
0.000000
  70
    32
  0
VERTEX
  8
0
  5
C196
 10
153.410
 20
98.9603
 30
0.000000
  70
    32
  0
VERTEX
  8
0
  5
C197
 10
153.445
 20
98.9713
 30
0.000000
  70
    32
  0
VERTEX
  8
0
  5
C198
 10
153.481
 20
98.9823
 30
0.000000
  70
    32
  0
VERTEX
  8
0
  5
C199
 10
153.517
 20
98.9933
 30
0.000000
  70
    32
  0
VERTEX
  8
0
  5
C19A
 10
153.552
 20
99.0043
 30
0.000000
  70
    32
  0
VERTEX
  8
0
  5
C19B
 10
153.588
 20
99.0154
 30
0.000000
  70
    32
  0
VERTEX
  8
0
  5
C19C
 10
153.623
 20
99.0265
 30
0.000000
  70
    32
  0
VERTEX
  8
0
  5
C19D
 10
153.659
 20
99.0377
 30
0.000000
  70
    32
  0
VERTEX
  8
0
  5
C19E
 10
153.695
 20
99.0488
 30
0.000000
  70
    32
  0
VERTEX
  8
0
  5
C19F
 10
153.730
 20
99.0600
 30
0.000000
  70
    32
  0
VERTEX
  8
0
  5
C1A0
 10
153.766
 20
99.0713
 30
0.000000
  70
    32
  0
VERTEX
  8
0
  5
C1A1
 10
153.801
 20
99.0825
 30
0.000000
  70
    32
  0
VERTEX
  8
0
  5
C1A2
 10
153.837
 20
99.0938
 30
0.000000
  70
    32
  0
VERTEX
  8
0
  5
C1A3
 10
153.873
 20
99.1052
 30
0.000000
  70
    32
  0
VERTEX
  8
0
  5
C1A4
 10
153.908
 20
99.1165
 30
0.000000
  70
    32
  0
VERTEX
  8
0
  5
C1A5
 10
153.944
 20
99.1279
 30
0.000000
  70
    32
  0
VERTEX
  8
0
  5
C1A6
 10
153.979
 20
99.1393
 30
0.000000
  70
    32
  0
VERTEX
  8
0
  5
C1A7
 10
154.015
 20
99.1508
 30
0.000000
  70
    32
  0
VERTEX
  8
0
  5
C1A8
 10
154.050
 20
99.1622
 30
0.000000
  70
    32
  0
VERTEX
  8
0
  5
C1A9
 10
154.086
 20
99.1738
 30
0.000000
  70
    32
  0
VERTEX
  8
0
  5
C1AA
 10
154.121
 20
99.1853
 30
0.000000
  70
    32
  0
VERTEX
  8
0
  5
C1AB
 10
154.157
 20
99.1969
 30
0.000000
  70
    32
  0
VERTEX
  8
0
  5
C1AC
 10
154.192
 20
99.2085
 30
0.000000
  70
    32
  0
VERTEX
  8
0
  5
C1AD
 10
154.228
 20
99.2201
 30
0.000000
  70
    32
  0
VERTEX
  8
0
  5
C1AE
 10
154.263
 20
99.2318
 30
0.000000
  70
    32
  0
VERTEX
  8
0
  5
C1AF
 10
154.299
 20
99.2435
 30
0.000000
  70
    32
  0
VERTEX
  8
0
  5
C1B0
 10
154.334
 20
99.2552
 30
0.000000
  70
    32
  0
VERTEX
  8
0
  5
C1B1
 10
154.369
 20
99.2670
 30
0.000000
  70
    32
  0
VERTEX
  8
0
  5
C1B2
 10
154.405
 20
99.2788
 30
0.000000
  70
    32
  0
VERTEX
  8
0
  5
C1B3
 10
154.440
 20
99.2906
 30
0.000000
  70
    32
  0
VERTEX
  8
0
  5
C1B4
 10
154.476
 20
99.3024
 30
0.000000
  70
    32
  0
VERTEX
  8
0
  5
C1B5
 10
154.511
 20
99.3143
 30
0.000000
  70
    32
  0
VERTEX
  8
0
  5
C1B6
 10
154.546
 20
99.3262
 30
0.000000
  70
    32
  0
VERTEX
  8
0
  5
C1B7
 10
154.582
 20
99.3382
 30
0.000000
  70
    32
  0
VERTEX
  8
0
  5
C1B8
 10
154.617
 20
99.3501
 30
0.000000
  70
    32
  0
VERTEX
  8
0
  5
C1B9
 10
154.653
 20
99.3621
 30
0.000000
  70
    32
  0
VERTEX
  8
0
  5
C1BA
 10
154.688
 20
99.3742
 30
0.000000
  70
    32
  0
VERTEX
  8
0
  5
C1BB
 10
154.723
 20
99.3862
 30
0.000000
  70
    32
  0
VERTEX
  8
0
  5
C1BC
 10
154.758
 20
99.3983
 30
0.000000
  70
    32
  0
VERTEX
  8
0
  5
C1BD
 10
154.794
 20
99.4105
 30
0.000000
  70
    32
  0
VERTEX
  8
0
  5
C1BE
 10
154.829
 20
99.4226
 30
0.000000
  70
    32
  0
VERTEX
  8
0
  5
C1BF
 10
154.864
 20
99.4348
 30
0.000000
  70
    32
  0
VERTEX
  8
0
  5
C1C0
 10
154.900
 20
99.4470
 30
0.000000
  70
    32
  0
VERTEX
  8
0
  5
C1C1
 10
154.935
 20
99.4593
 30
0.000000
  70
    32
  0
VERTEX
  8
0
  5
C1C2
 10
154.970
 20
99.4716
 30
0.000000
  70
    32
  0
VERTEX
  8
0
  5
C1C3
 10
155.005
 20
99.4839
 30
0.000000
  70
    32
  0
VERTEX
  8
0
  5
C1C4
 10
155.041
 20
99.4962
 30
0.000000
  70
    32
  0
VERTEX
  8
0
  5
C1C5
 10
155.076
 20
99.5086
 30
0.000000
  70
    32
  0
VERTEX
  8
0
  5
C1C6
 10
155.111
 20
99.5210
 30
0.000000
  70
    32
  0
VERTEX
  8
0
  5
C1C7
 10
155.146
 20
99.5334
 30
0.000000
  70
    32
  0
VERTEX
  8
0
  5
C1C8
 10
155.181
 20
99.5459
 30
0.000000
  70
    32
  0
VERTEX
  8
0
  5
C1C9
 10
155.217
 20
99.5584
 30
0.000000
  70
    32
  0
VERTEX
  8
0
  5
C1CA
 10
155.252
 20
99.5709
 30
0.000000
  70
    32
  0
VERTEX
  8
0
  5
C1CB
 10
155.287
 20
99.5835
 30
0.000000
  70
    32
  0
VERTEX
  8
0
  5
C1CC
 10
155.322
 20
99.5961
 30
0.000000
  70
    32
  0
VERTEX
  8
0
  5
C1CD
 10
155.357
 20
99.6087
 30
0.000000
  70
    32
  0
VERTEX
  8
0
  5
C1CE
 10
155.392
 20
99.6213
 30
0.000000
  70
    32
  0
VERTEX
  8
0
  5
C1CF
 10
155.427
 20
99.6340
 30
0.000000
  70
    32
  0
VERTEX
  8
0
  5
C1D0
 10
155.462
 20
99.6467
 30
0.000000
  70
    32
  0
VERTEX
  8
0
  5
C1D1
 10
155.498
 20
99.6594
 30
0.000000
  70
    32
  0
VERTEX
  8
0
  5
C1D2
 10
155.533
 20
99.6722
 30
0.000000
  70
    32
  0
VERTEX
  8
0
  5
C1D3
 10
155.568
 20
99.6850
 30
0.000000
  70
    32
  0
VERTEX
  8
0
  5
C1D4
 10
155.603
 20
99.6979
 30
0.000000
  70
    32
  0
VERTEX
  8
0
  5
C1D5
 10
155.638
 20
99.7107
 30
0.000000
  70
    32
  0
VERTEX
  8
0
  5
C1D6
 10
155.673
 20
99.7236
 30
0.000000
  70
    32
  0
VERTEX
  8
0
  5
C1D7
 10
155.708
 20
99.7365
 30
0.000000
  70
    32
  0
VERTEX
  8
0
  5
C1D8
 10
155.743
 20
99.7495
 30
0.000000
  70
    32
  0
VERTEX
  8
0
  5
C1D9
 10
155.778
 20
99.7625
 30
0.000000
  70
    32
  0
VERTEX
  8
0
  5
C1DA
 10
155.813
 20
99.7755
 30
0.000000
  70
    32
  0
VERTEX
  8
0
  5
C1DB
 10
155.848
 20
99.7885
 30
0.000000
  70
    32
  0
VERTEX
  8
0
  5
C1DC
 10
155.883
 20
99.8016
 30
0.000000
  70
    32
  0
VERTEX
  8
0
  5
C1DD
 10
155.918
 20
99.8147
 30
0.000000
  70
    32
  0
VERTEX
  8
0
  5
C1DE
 10
155.953
 20
99.8278
 30
0.000000
  70
    32
  0
VERTEX
  8
0
  5
C1DF
 10
155.988
 20
99.8410
 30
0.000000
  70
    32
  0
VERTEX
  8
0
  5
C1E0
 10
156.023
 20
99.8542
 30
0.000000
  70
    32
  0
VERTEX
  8
0
  5
C1E1
 10
156.057
 20
99.8674
 30
0.000000
  70
    32
  0
VERTEX
  8
0
  5
C1E2
 10
156.092
 20
99.8807
 30
0.000000
  70
    32
  0
VERTEX
  8
0
  5
C1E3
 10
156.127
 20
99.8940
 30
0.000000
  70
    32
  0
VERTEX
  8
0
  5
C1E4
 10
156.162
 20
99.9073
 30
0.000000
  70
    32
  0
VERTEX
  8
0
  5
C1E5
 10
156.197
 20
99.9206
 30
0.000000
  70
    32
  0
VERTEX
  8
0
  5
C1E6
 10
156.232
 20
99.9340
 30
0.000000
  70
    32
  0
VERTEX
  8
0
  5
C1E7
 10
156.267
 20
99.9474
 30
0.000000
  70
    32
  0
VERTEX
  8
0
  5
C1E8
 10
156.301
 20
99.9609
 30
0.000000
  70
    32
  0
VERTEX
  8
0
  5
C1E9
 10
156.336
 20
99.9743
 30
0.000000
  70
    32
  0
VERTEX
  8
0
  5
C1EA
 10
156.371
 20
99.9878
 30
0.000000
  70
    32
  0
VERTEX
  8
0
  5
C1EB
 10
156.406
 20
100.001
 30
0.000000
  70
    32
  0
VERTEX
  8
0
  5
C1EC
 10
156.441
 20
100.015
 30
0.000000
  70
    32
  0
VERTEX
  8
0
  5
C1ED
 10
156.475
 20
100.029
 30
0.000000
  70
    32
  0
VERTEX
  8
0
  5
C1EE
 10
156.510
 20
100.042
 30
0.000000
  70
    32
  0
VERTEX
  8
0
  5
C1EF
 10
156.545
 20
100.056
 30
0.000000
  70
    32
  0
VERTEX
  8
0
  5
C1F0
 10
156.580
 20
100.069
 30
0.000000
  70
    32
  0
VERTEX
  8
0
  5
C1F1
 10
156.614
 20
100.083
 30
0.000000
  70
    32
  0
VERTEX
  8
0
  5
C1F2
 10
156.649
 20
100.097
 30
0.000000
  70
    32
  0
VERTEX
  8
0
  5
C1F3
 10
156.684
 20
100.111
 30
0.000000
  70
    32
  0
VERTEX
  8
0
  5
C1F4
 10
156.718
 20
100.124
 30
0.000000
  70
    32
  0
VERTEX
  8
0
  5
C1F5
 10
156.753
 20
100.138
 30
0.000000
  70
    32
  0
VERTEX
  8
0
  5
C1F6
 10
156.788
 20
100.152
 30
0.000000
  70
    32
  0
VERTEX
  8
0
  5
C1F7
 10
156.822
 20
100.166
 30
0.000000
  70
    32
  0
VERTEX
  8
0
  5
C1F8
 10
156.857
 20
100.180
 30
0.000000
  70
    32
  0
VERTEX
  8
0
  5
C1F9
 10
156.892
 20
100.194
 30
0.000000
  70
    32
  0
SEQEND
  8
0
  5
C1FA
  0
LINE
  5
BB58
  8
1
 10
59.5
 20
44.999999999999993
 30
0.0
 11
59.5
 21
107.0
 31
0.0
  0
ARC
  5
BB5F
  8
0
 10
59.5
 20
93.352993704000198
 30
0.0
 40
8.6470062959998391
 50
119.6042404769495
 51
147.0324367938104
  0
ARC
  5
BB60
  8
0
 10
59.5
 20
93.352993704000255
 30
0.0
 40
8.6470062959997023
 50
32.967563206189588
 51
60.371601596729072
  0
LINE
  5
BB61
  8
0
 10
69.0
 20
70.0
 30
0.0
 11
69.0
 21
98.058384553756426
 31
0.0
  0
LINE
  5
BB62
  8
0
 10
50.0
 20
98.058384553756426
 30
0.0
 11
50.0
 21
70.0
 31
0.0
  0
LINE
  5
BB63
  8
0
 10
50.0
 20
70.0
 30
0.0
 11
69.0
 21
70.0
 31
0.0
  0
LINE
  5
BB64
  8
0
 10
54.496172946467368
 20
98.058384553756426
 30
0.0
 11
54.496172946467368
 21
77.5
 31
0.0
  0
POLYLINE
  5
BB65
  8
0
 66
     1
 10
0.0
 20
0.0
 30
0.0
  0
VERTEX
  5
BF6E
  8
0
 10
55.019089168898518
 20
98.076914411745292
 30
0.0
  0
VERTEX
  5
BF6F
  8
0
 10
55.005933106374762
 20
98.07604270051371
 30
0.0
  0
VERTEX
  5
BF70
  8
0
 10
54.692016579347637
 20
98.060776679719325
 30
0.0
  0
VERTEX
  5
BF71
  8
0
 10
54.496172946467603
 20
98.058384553756355
 30
0.0
  0
SEQEND
  5
BF72
  8
0
  0
POLYLINE
  5
BB66
  8
0
 66
     1
 10
0.0
 20
0.0
 30
0.0
  0
VERTEX
  5
BF73
  8
0
 10
56.199985852431382
 20
78.051916892230565
 30
0.0
  0
VERTEX
  5
BF74
  8
0
 10
56.199396335149231
 20
78.03494349419725
 30
0.0
  0
VERTEX
  5
BF75
  8
0
 10
56.181554414210837
 20
77.95766177028554
 30
0.0
  0
VERTEX
  5
BF76
  8
0
 10
56.136991922591392
 20
77.882328321408124
 30
0.0
  0
VERTEX
  5
BF77
  8
0
 10
56.065978071473978
 20
77.811843341755775
 30
0.0
  0
VERTEX
  5
BF78
  8
0
 10
55.97159686456007
 20
77.748572121138295
 30
0.0
  0
VERTEX
  5
BF79
  8
0
 10
55.852764865892262
 20
77.691170716623446
 30
0.0
  0
VERTEX
  5
BF7A
  8
0
 10
55.705140520003233
 20
77.638802543077588
 30
0.0
  0
VERTEX
  5
BF7B
  8
0
 10
55.533034238764337
 20
77.593983924212068
 30
0.0
  0
VERTEX
  5
BF7C
  8
0
 10
55.350867972215042
 20
77.559466523534638
 30
0.0
  0
VERTEX
  5
BF7D
  8
0
 10
55.149448540251228
 20
77.532507347929652
 30
0.0
  0
VERTEX
  5
BF7E
  8
0
 10
54.922838760600712
 20
77.513027840931386
 30
0.0
  0
VERTEX
  5
BF7F
  8
0
 10
54.67891776946567
 20
77.502251899832345
 30
0.0
  0
VERTEX
  5
BF80
  8
0
 10
54.496172946467482
 20
77.499999999999943
 30
0.0
  0
SEQEND
  5
BF81
  8
0
  0
LINE
  5
BB67
  8
0
 10
64.50382698187957
 20
98.058384553756426
 30
0.0
 11
64.50382698187957
 21
77.5
 31
0.0
  0
LINE
  5
BB68
  8
0
 10
62.800014150193192
 20
78.05194812056169
 30
0.0
 11
62.807709031279387
 21
78.115563498401457
 31
0.0
  0
POLYLINE
  5
BB69
  8
0
 66
     1
 10
0.0
 20
0.0
 30
0.0
  0
VERTEX
  5
BF82
  8
0
 10
64.50382698187957
 20
98.058384553756426
 30
0.0
  0
VERTEX
  5
BF83
  8
0
 10
64.183730949088499
 20
98.065061938653912
 30
0.0
  0
VERTEX
  5
BF84
  8
0
 10
63.978368361659697
 20
98.077108544808667
 30
0.0
  0
SEQEND
  5
BF85
  8
0
  0
LINE
  5
BB6A
  8
0
 10
64.50382698187957
 20
98.058384553756426
 30
0.0
 11
69.0
 21
98.058384553756426
 31
0.0
  0
LINE
  5
BB6B
  8
0
 10
50.0
 20
98.058384553756426
 30
0.0
 11
54.496172946467368
 21
98.058384553756426
 31
0.0
  0
POLYLINE
  5
BB6C
  8
0
 66
     1
 10
0.0
 20
0.0
 30
0.0
  0
VERTEX
  5
BF86
  8
0
 10
56.192290968720613
 20
78.115563498401457
 30
0.0
  0
VERTEX
  5
BF87
  8
0
 10
56.0974998834198
 20
78.530710683916368
 30
0.0
  0
VERTEX
  5
BF88
  8
0
 10
56.003318272523749
 20
78.977166000701914
 30
0.0
  0
VERTEX
  5
BF89
  8
0
 10
55.909612641253261
 20
79.455470750248708
 30
0.0
  0
VERTEX
  5
BF8A
  8
0
 10
55.816600479587457
 20
79.964488277139992
 30
0.0
  0
VERTEX
  5
BF8B
  8
0
 10
55.72380743823782
 20
80.507020749989977
 30
0.0
  0
VERTEX
  5
BF8C
  8
0
 10
55.63179887784554
 20
81.079987829646555
 30
0.0
  0
VERTEX
  5
BF8D
  8
0
 10
55.540448020038859
 20
81.684235880592666
 30
0.0
  0
VERTEX
  5
BF8E
  8
0
 10
55.449967663486397
 20
82.318414147378618
 30
0.0
  0
VERTEX
  5
BF8F
  8
0
 10
55.377202954621573
 20
82.854897284187984
 30
0.0
  0
VERTEX
  5
BF90
  8
0
 10
55.305060598644332
 20
83.410714430302903
 30
0.0
  0
SEQEND
  5
BF91
  8
0
  0
POLYLINE
  5
BB6D
  8
0
 66
     1
 10
0.0
 20
0.0
 30
0.0
  0
VERTEX
  5
BF92
  8
0
 10
63.694939401355548
 20
83.410714430302903
 30
0.0
  0
VERTEX
  5
BF93
  8
0
 10
63.588922190373289
 20
82.602168446379778
 30
0.0
  0
VERTEX
  5
BF94
  8
0
 10
63.481588389884671
 20
81.835377941999809
 30
0.0
  0
VERTEX
  5
BF95
  8
0
 10
63.372719288196322
 20
81.109040664509834
 30
0.0
  0
VERTEX
  5
BF96
  8
0
 10
63.262666609723219
 20
80.425749075056444
 30
0.0
  0
VERTEX
  5
BF97
  8
0
 10
63.150598855274673
 20
79.781047540178633
 30
0.0
  0
VERTEX
  5
BF98
  8
0
 10
63.037473405307018
 20
79.181164856777514
 30
0.0
  0
VERTEX
  5
BF99
  8
0
 10
62.923049548628107
 20
78.625216796209145
 30
0.0
  0
VERTEX
  5
BF9A
  8
0
 10
62.807709031279387
 20
78.115563498401457
 30
0.0
  0
SEQEND
  5
BF9B
  8
0
  0
LINE
  5
BB6E
  8
0
 10
54.496172946467368
 20
77.5
 30
0.0
 11
64.50382698187957
 21
77.5
 31
0.0
  0
POLYLINE
  5
BB6F
  8
0
 66
     1
 10
0.0
 20
0.0
 30
0.0
  0
VERTEX
  5
BF9C
  8
0
 10
64.50382698187957
 20
77.5
 30
0.0
  0
VERTEX
  5
BF9D
  8
0
 10
64.184796851565807
 20
77.507204571642262
 30
0.0
  0
VERTEX
  5
BF9E
  8
0
 10
63.89092547798316
 20
77.528401157770531
 30
0.0
  0
VERTEX
  5
BF9F
  8
0
 10
63.627681320624099
 20
77.562964074383103
 30
0.0
  0
VERTEX
  5
BFA0
  8
0
 10
63.39798965012438
 20
77.6103932699545
 30
0.0
  0
VERTEX
  5
BFA1
  8
0
 10
63.202784576100051
 20
77.669680179599823
 30
0.0
  0
VERTEX
  5
BFA2
  8
0
 10
63.045062739930408
 20
77.739350487772455
 30
0.0
  0
VERTEX
  5
BFA3
  8
0
 10
62.923754789844111
 20
77.820545318130584
 30
0.0
  0
VERTEX
  5
BFA4
  8
0
 10
62.843134798544838
 20
77.910492942069538
 30
0.0
  0
VERTEX
  5
BFA5
  8
0
 10
62.804008817656502
 20
78.007350550764329
 30
0.0
  0
VERTEX
  5
BFA6
  8
0
 10
62.800014150193192
 20
78.05194812056169
 30
0.0
  0
SEQEND
  5
BFA7
  8
0
  0
LINE
  5
BB70
  8
0
 10
56.192290968720613
 20
78.115563498401457
 30
0.0
 11
56.199985852431382
 21
78.051916892230565
 31
0.0
  0
LINE
  5
BB71
  8
0
 10
55.0
 20
97.680295231048035
 30
0.0
 11
55.0
 21
87.119704768950157
 31
0.0
  0
LINE
  5
BB72
  8
0
 10
64.0
 20
97.680295231026605
 30
0.0
 11
64.0
 21
87.119704768952033
 31
0.0
  0
POLYLINE
  5
BB73
  8
0
 66
     1
 10
0.0
 20
0.0
 30
0.0
  0
VERTEX
  5
BFA8
  8
0
 10
55.000000000000632
 20
97.680295231041498
 30
0.0
  0
VERTEX
  5
BFA9
  8
0
 10
55.014788302018701
 20
98.007671239978094
 30
0.0
  0
VERTEX
  5
BFAA
  8
0
 10
55.030478860813218
 20
98.325920507311366
 30
0.0
  0
VERTEX
  5
BFAB
  8
0
 10
55.047108194886619
 20
98.635507275202045
 30
0.0
  0
VERTEX
  5
BFAC
  8
0
 10
55.064598431335178
 20
98.934718333085087
 30
0.0
  0
VERTEX
  5
BFAD
  8
0
 10
55.083264123181941
 20
99.228120533565175
 30
0.0
  0
VERTEX
  5
BFAE
  8
0
 10
55.102765747884519
 20
99.509589633740404
 30
0.0
  0
VERTEX
  5
BFAF
  8
0
 10
55.123148104122031
 20
99.779519196768945
 30
0.0
  0
VERTEX
  5
BFB0
  8
0
 10
55.144307458136829
 20
100.0362908233097
 30
0.0
  0
VERTEX
  5
BFB1
  8
0
 10
55.165349876054449
 20
100.2702421476294
 30
0.0
  0
VERTEX
  5
BFB2
  8
0
 10
55.187043588367601
 20
100.4910556472325
 30
0.0
  0
VERTEX
  5
BFB3
  8
0
 10
55.209432584472999
 20
100.6989855595442
 30
0.0
  0
VERTEX
  5
BFB4
  8
0
 10
55.232407035194001
 20
100.8928225870322
 30
0.0
  0
VERTEX
  5
BFB5
  8
0
 10
55.256358783267039
 20
101.0752649754205
 30
0.0
  0
VERTEX
  5
BFB6
  8
0
 10
55.280838908507008
 20
101.2422920219506
 30
0.0
  0
VERTEX
  5
BFB7
  8
0
 10
55.30589753174069
 20
101.39405107905721
 30
0.0
  0
VERTEX
  5
BFB8
  8
0
 10
55.331403043156222
 20
101.5295529825281
 30
0.0
  0
VERTEX
  5
BFB9
  8
0
 10
55.356394407512653
 20
101.6445793277118
 30
0.0
  0
VERTEX
  5
BFBA
  8
0
 10
55.38171780291804
 20
101.7438953334477
 30
0.0
  0
VERTEX
  5
BFBB
  8
0
 10
55.407420119302166
 20
101.8275219041308
 30
0.0
  0
VERTEX
  5
BFBC
  8
0
 10
55.433371706535688
 20
101.8948749217266
 30
0.0
  0
VERTEX
  5
BFBD
  8
0
 10
55.459999818938627
 20
101.9465280835598
 30
0.0
  0
VERTEX
  5
BFBE
  8
0
 10
55.486794894359043
 20
101.98095487302589
 30
0.0
  0
VERTEX
  5
BFBF
  8
0
 10
55.51380727555113
 20
101.9980442387709
 30
0.0
  0
VERTEX
  5
BFC0
  8
0
 10
55.526954240528987
 20
101.9999980943066
 30
0.0
  0
SEQEND
  5
BFC1
  8
0
  0
POLYLINE
  5
BB76
  8
0
 66
     1
 10
0.0
 20
0.0
 30
0.0
  0
VERTEX
  5
BFC2
  8
0
 10
55.305060598644332
 20
83.410714430302903
 30
0.0
  0
VERTEX
  5
BFC3
  8
0
 10
55.27274131768911
 20
83.610902814240376
 30
0.0
  0
VERTEX
  5
BFC4
  8
0
 10
55.241168544294283
 20
83.838234110279515
 30
0.0
  0
VERTEX
  5
BFC5
  8
0
 10
55.210487413138139
 20
84.091692354208305
 30
0.0
  0
VERTEX
  5
BFC6
  8
0
 10
55.179927454257829
 20
84.379264484434771
 30
0.0
  0
VERTEX
  5
BFC7
  8
0
 10
55.150462025595289
 20
84.69322805194696
 30
0.0
  0
VERTEX
  5
BFC8
  8
0
 10
55.122235441212297
 20
85.032075399762846
 30
0.0
  0
VERTEX
  5
BFC9
  8
0
 10
55.088366720631598
 20
85.495931913612935
 30
0.0
  0
VERTEX
  5
BFCA
  8
0
 10
55.056775585491152
 20
85.996006153335031
 30
0.0
  0
VERTEX
  5
BFCB
  8
0
 10
55.027029316974669
 20
86.541782971880536
 30
0.0
  0
VERTEX
  5
BFCC
  8
0
 10
55.0
 20
87.119704768950157
 30
0.0
  0
SEQEND
  5
BFCD
  8
0
  0
POLYLINE
  5
BB78
  8
0
 66
     1
 10
0.0
 20
0.0
 30
0.0
  0
VERTEX
  5
BFCE
  8
0
 10
64.0
 20
87.119704768952033
 30
0.0
  0
VERTEX
  5
BFCF
  8
0
 10
63.979999495230857
 20
86.683608619490954
 30
0.0
  0
VERTEX
  5
BFD0
  8
0
 10
63.958433240308523
 20
86.264826503349468
 30
0.0
  0
VERTEX
  5
BFD1
  8
0
 10
63.935401568664822
 20
85.865281666914925
 30
0.0
  0
VERTEX
  5
BFD2
  8
0
 10
63.910220797526677
 20
85.475222430290259
 30
0.0
  0
VERTEX
  5
BFD3
  8
0
 10
63.883607607751109
 20
85.107439837912182
 30
0.0
  0
VERTEX
  5
BFD4
  8
0
 10
63.855692541863107
 20
84.763709176690199
 30
0.0
  0
VERTEX
  5
BFD5
  8
0
 10
63.81844974882199
 20
84.363037646766657
 30
0.0
  0
VERTEX
  5
BFD6
  8
0
 10
63.779414649181717
 20
84.004533819653659
 30
0.0
  0
VERTEX
  5
BFD7
  8
0
 10
63.737891576491961
 20
83.68382234464309
 30
0.0
  0
VERTEX
  5
BFD8
  8
0
 10
63.694939401355548
 20
83.410714430302903
 30
0.0
  0
SEQEND
  5
BFD9
  8
0
  0
LINE
  5
BB7B
  8
0
 10
63.474206519697411
 20
102.0
 30
0.0
 11
55.525809549939481
 21
102.0
 31
0.0
  0
POLYLINE
  5
BB7C
  8
0
 66
     1
 10
0.0
 20
0.0
 30
0.0
  0
VERTEX
  5
BFDA
  8
0
 10
63.472989183781067
 20
101.9999975140251
 30
0.0
  0
VERTEX
  5
BFDB
  8
0
 10
63.497080156219063
 20
101.9932751758533
 30
0.0
  0
VERTEX
  5
BFDC
  8
0
 10
63.52369100108001
 20
101.9695641614519
 30
0.0
  0
VERTEX
  5
BFDD
  8
0
 10
63.55074666278653
 20
101.9277890062547
 30
0.0
  0
VERTEX
  5
BFDE
  8
0
 10
63.577709940865468
 20
101.8681884661045
 30
0.0
  0
VERTEX
  5
BFDF
  8
0
 10
63.604630202505398
 20
101.79043694780211
 30
0.0
  0
VERTEX
  5
BFE0
  8
0
 10
63.631355418419503
 20
101.6947533787426
 30
0.0
  0
VERTEX
  5
BFE1
  8
0
 10
63.65666914216456
 20
101.5865994181854
 30
0.0
  0
VERTEX
  5
BFE2
  8
0
 10
63.681710419409342
 20
101.4622195478823
 30
0.0
  0
VERTEX
  5
BFE3
  8
0
 10
63.706520196018062
 20
101.3212125541655
 30
0.0
  0
VERTEX
  5
BFE4
  8
0
 10
63.730964784671869
 20
101.16413590829799
 30
0.0
  0
VERTEX
  5
BFE5
  8
0
 10
63.755436042352748
 20
100.9878469187645
 30
0.0
  0
VERTEX
  5
BFE6
  8
0
 10
63.779434619772587
 20
100.7952974863706
 30
0.0
  0
VERTEX
  5
BFE7
  8
0
 10
63.802999868833119
 20
100.5859335092817
 30
0.0
  0
VERTEX
  5
BFE8
  8
0
 10
63.825993877371438
 20
100.360734220691
 30
0.0
  0
VERTEX
  5
BFE9
  8
0
 10
63.847379850906577
 20
100.13114996874729
 30
0.0
  0
VERTEX
  5
BFEA
  8
0
 10
63.868159900649118
 20
99.887747192103234
 30
0.0
  0
VERTEX
  5
BFEB
  8
0
 10
63.888363789295681
 20
99.629946097445156
 30
0.0
  0
VERTEX
  5
BFEC
  8
0
 10
63.907878590078433
 20
99.358946967788313
 30
0.0
  0
VERTEX
  5
BFED
  8
0
 10
63.927003082030922
 20
99.069834934559594
 30
0.0
  0
VERTEX
  5
BFEE
  8
0
 10
63.945334202042773
 20
98.767895548081114
 30
0.0
  0
VERTEX
  5
BFEF
  8
0
 10
63.962896949996662
 20
98.452415742162827
 30
0.0
  0
VERTEX
  5
BFF0
  8
0
 10
63.979583791000778
 20
98.125008680803319
 30
0.0
  0
VERTEX
  5
BFF1
  8
0
 10
64.0
 20
97.680295231026676
 30
0.0
  0
SEQEND
  5
BFF2
  8
0
  0
LINE
  5
BC41
  8
1
 10
177.49999999999989
 20
152.0
 30
0.0
 11
104.5
 21
152.0
 31
0.0
  0
CIRCLE
  5
BCE2
  8
0
 10
141.0
 20
152.0
 30
0.0
 40
7.5
  0
CIRCLE
  5
BCE3
  8
0
 10
146.0
 20
152.0
 30
0.0
 40
0.75
  0
CIRCLE
  5
BCE4
  8
0
 10
141.0
 20
152.0
 30
0.0
 40
0.75
  0
CIRCLE
  5
BCE5
  8
0
 10
136.0
 20
152.0
 30
0.0
 40
0.75
  0
CIRCLE
  5
BCE6
  8
0
 10
138.5
 20
152.0
 30
0.0
 40
0.75
  0
CIRCLE
  5
BCE7
  8
0
 10
143.5000000000002
 20
152.0
 30
0.0
 40
0.75
  0
LINE
  5
BD53
  8
0
 10
146.0
 20
70.0
 30
0.0
 11
146.0
 21
52.598076211353373
 31
0.0
  0
LINE
  5
BD54
  8
3
 10
144.86546260206779
 20
68.0
 30
0.0
 11
144.86546260206779
 21
50.632999795048022
 31
0.0
  0
LINE
  5
BD55
  8
3
 10
137.13453739793209
 20
68.0
 30
0.0
 11
137.13453739793209
 21
50.632999795048022
 31
0.0
  0
LINE
  5
BD56
  8
0
 10
136.0
 20
70.0
 30
0.0
 11
136.0
 21
52.598076211353479
 31
0.0
  0
LINE
  5
BD57
  8
0
 10
137.5
 20
50.0
 30
0.0
 11
136.0
 21
52.598076211353373
 31
0.0
  0
LINE
  5
BD58
  8
0
 10
137.5
 20
50.0
 30
0.0
 11
144.49999999999989
 21
50.0
 31
0.0
  0
LINE
  5
BD59
  8
0
 10
136.0
 20
52.598076211353373
 30
0.0
 11
146.0
 21
52.598076211353373
 31
0.0
  0
LINE
  5
BD5A
  8
0
 10
144.49999999999989
 20
50.0
 30
0.0
 11
146.0
 21
52.598076211353373
 31
0.0
  0
LINE
  5
BD5B
  8
0
 10
146.0
 20
68.000000000000028
 30
0.0
 11
136.0
 21
68.0
 31
0.0
  0
LINE
  5
BD5C
  8
3
 10
137.13453739793209
 20
68.0
 30
0.0
 11
136.0
 21
69.134537397932149
 31
0.0
  0
LINE
  5
BD5D
  8
3
 10
144.86546260206779
 20
68.0
 30
0.0
 11
146.0
 21
69.134537397932149
 31
0.0
  0
LINE
  5
BD5E
  8
0
 10
64.5
 20
70.0
 30
0.0
 11
64.5
 21
52.598076211353373
 31
0.0
  0
LINE
  5
BD5F
  8
3
 10
63.365462602067851
 20
68.0
 30
0.0
 11
63.365462602067851
 21
50.632999795048022
 31
0.0
  0
LINE
  5
BD60
  8
3
 10
55.634537397932149
 20
68.0
 30
0.0
 11
55.634537397932149
 21
50.632999795048022
 31
0.0
  0
LINE
  5
BD61
  8
0
 10
54.5
 20
70.0
 30
0.0
 11
54.5
 21
52.598076211353479
 31
0.0
  0
LINE
  5
BD62
  8
0
 10
56.0
 20
50.0
 30
0.0
 11
54.5
 21
52.598076211353373
 31
0.0
  0
LINE
  5
BD63
  8
0
 10
56.0
 20
50.0
 30
0.0
 11
62.999999999999893
 21
50.0
 31
0.0
  0
LINE
  5
BD64
  8
0
 10
54.5
 20
52.598076211353373
 30
0.0
 11
64.5
 21
52.598076211353373
 31
0.0
  0
LINE
  5
BD65
  8
0
 10
62.999999999999893
 20
50.0
 30
0.0
 11
64.5
 21
52.598076211353373
 31
0.0
  0
LINE
  5
BD66
  8
0
 10
64.5
 20
68.000000000000028
 30
0.0
 11
54.5
 21
68.0
 31
0.0
  0
LINE
  5
BD67
  8
3
 10
55.634537397932149
 20
68.0
 30
0.0
 11
54.5
 21
69.134537397932149
 31
0.0
  0
LINE
  5
BD68
  8
3
 10
63.365462602067851
 20
68.0
 30
0.0
 11
64.5
 21
69.134537397932149
 31
0.0
  0
ENDSEC
  0
EOF
