  0
SECTION
  2
HEADER
  9
$ACADVER
  1
AC1009
  9
$INSBASE
 10
0.0
 20
0.0
 30
0.0
  9
$EXTMIN
 10
0.0
 20
-2.960436562073669
 30
0.0
  9
$EXTMAX
 10
177.49999999999989
 20
166.5
 30
0.0
  9
$LIMMIN
 10
0.0
 20
0.0
  9
$LIMMAX
 10
187.5
 20
135.0
  9
$ORTHOMODE
 70
     1
  9
$REGENMODE
 70
     1
  9
$FILLMODE
 70
     1
  9
$QTEXTMODE
 70
     0
  9
$MIRRTEXT
 70
     0
  9
$DRAGMODE
 70
     2
  9
$LTSCALE
 40
5.0
  9
$OSMODE
 70
    37
  9
$ATTMODE
 70
     1
  9
$TEXTSIZE
 40
0.2
  9
$TRACEWID
 40
0.05
  9
$TEXTSTYLE
  7
STANDARD
  9
$CLAYER
  8
0
  9
$CELTYPE
  6
BYLAYER
  9
$CECOLOR
 62
     4
  9
$DIMSCALE
 40
1.0
  9
$DIMASZ
 40
3.0
  9
$DIMEXO
 40
2.0
  9
$DIMDLI
 40
0.3799999999999999
  9
$DIMRND
 40
0.0
  9
$DIMDLE
 40
0.0
  9
$DIMEXE
 40
2.0
  9
$DIMTP
 40
0.0
  9
$DIMTM
 40
0.0
  9
$DIMTXT
 40
3.2000000000000002
  9
$DIMCEN
 40
0.09
  9
$DIMTSZ
 40
0.0
  9
$DIMTOL
 70
     0
  9
$DIMLIM
 70
     0
  9
$DIMTIH
 70
     0
  9
$DIMTOH
 70
     0
  9
$DIMSE1
 70
     0
  9
$DIMSE2
 70
     0
  9
$DIMTAD
 70
     1
  9
$DIMZIN
 70
     8
  9
$DIMBLK
  1

  9
$DIMASO
 70
     0
  9
$DIMSHO
 70
     0
  9
$DIMPOST
  1

  9
$DIMAPOST
  1

  9
$DIMALT
 70
     0
  9
$DIMALTD
 70
     2
  9
$DIMALTF
 40
25.399999999999999
  9
$DIMLFAC
 40
1.0
  9
$DIMTOFL
 70
     0
  9
$DIMTVP
 40
1.6000000000000001
  9
$DIMTIX
 70
     1
  9
$DIMSOXD
 70
     0
  9
$DIMSAH
 70
     0
  9
$DIMBLK1
  1

  9
$DIMBLK2
  1

  9
$DIMSTYLE
  2
STANDARD
  9
$DIMCLRD
 70
     0
  9
$DIMCLRE
 70
     0
  9
$DIMCLRT
 70
     0
  9
$DIMTFAC
 40
1.0
  9
$DIMGAP
 40
1.0
  9
$LUNITS
 70
     2
  9
$LUPREC
 70
     1
  9
$SKETCHINC
 40
0.1
  9
$FILLETRAD
 40
0.4
  9
$AUNITS
 70
     0
  9
$AUPREC
 70
     1
  9
$MENU
  1
E:\r13\win\SUPPORT\ACAD
  9
$ELEVATION
 40
0.0
  9
$PELEVATION
 40
0.0
  9
$THICKNESS
 40
0.0
  9
$LIMCHECK
 70
     0
  9
$BLIPMODE
 70
     0
  9
$CHAMFERA
 40
0.0
  9
$CHAMFERB
 40
0.0
  9
$SKPOLY
 70
     0
  9
$TDCREATE
 40
2456129.6740617128
  9
$TDUPDATE
 40
2457892.4262108449
  9
$TDINDWG
 40
0.7360862384
  9
$TDUSRTIMER
 40
0.7360860648000001
  9
$USRTIMER
 70
     1
  9
$ANGBASE
 50
0.0
  9
$ANGDIR
 70
     0
  9
$PDMODE
 70
     0
  9
$PDSIZE
 40
0.0
  9
$PLINEWID
 40
0.0
  9
$COORDS
 70
     1
  9
$SPLFRAME
 70
     0
  9
$SPLINETYPE
 70
     6
  9
$SPLINESEGS
 70
     8
  9
$ATTDIA
 70
     0
  9
$ATTREQ
 70
     1
  9
$HANDLING
 70
     1
  9
$HANDSEED
  5
BD26
  9
$SURFTAB1
 70
     6
  9
$SURFTAB2
 70
     6
  9
$SURFTYPE
 70
     6
  9
$SURFU
 70
     6
  9
$SURFV
 70
     6
  9
$UCSNAME
  2

  9
$UCSORG
 10
0.0
 20
0.0
 30
0.0
  9
$UCSXDIR
 10
1.0
 20
0.0
 30
0.0
  9
$UCSYDIR
 10
0.0
 20
1.0
 30
0.0
  9
$PUCSNAME
  2

  9
$PUCSORG
 10
0.0
 20
0.0
 30
0.0
  9
$PUCSXDIR
 10
1.0
 20
0.0
 30
0.0
  9
$PUCSYDIR
 10
0.0
 20
1.0
 30
0.0
  9
$USERI1
 70
     0
  9
$USERI2
 70
     1
  9
$USERI3
 70
     0
  9
$USERI4
 70
     0
  9
$USERI5
 70
     0
  9
$USERR1
 40
0.0
  9
$USERR2
 40
0.0
  9
$USERR3
 40
0.0
  9
$USERR4
 40
0.0
  9
$USERR5
 40
0.0
  9
$WORLDVIEW
 70
     1
  9
$SHADEDGE
 70
     3
  9
$SHADEDIF
 70
    70
  9
$TILEMODE
 70
     1
  9
$MAXACTVP
 70
    16
  9
$PLIMCHECK
 70
     0
  9
$PEXTMIN
 10
1.0000000000000000E+020
 20
1.0000000000000000E+020
 30
1.0000000000000000E+020
  9
$PEXTMAX
 10
-1.0000000000000000E+020
 20
-1.0000000000000000E+020
 30
-1.0000000000000000E+020
  9
$PLIMMIN
 10
0.0
 20
0.0
  9
$PLIMMAX
 10
12.0
 20
9.0
  9
$UNITMODE
 70
     0
  9
$VISRETAIN
 70
     0
  9
$PLINEGEN
 70
     0
  9
$PSLTSCALE
 70
     0
  0
ENDSEC
  0
SECTION
  2
TABLES
  0
TABLE
  2
VPORT
 70
     1
  0
VPORT
  2
*ACTIVE
 70
     0
 10
0.0
 20
0.0
 11
1.0
 21
1.0
 12
181.62393162393161
 22
100.0
 13
0.0
 23
0.0
 14
5.0
 24
5.0
 15
5.0
 25
5.0
 16
0.0
 26
0.0
 36
1.0
 17
0.0
 27
0.0
 37
0.0
 40
200.0
 41
1.816239316239316
 42
50.0
 43
0.0
 44
0.0
 50
0.0
 51
0.0
 71
     0
 72
   500
 73
     1
 74
     0
 75
     0
 76
     0
 77
     0
 78
     2
  0
ENDTAB
  0
TABLE
  2
LTYPE
 70
     3
  0
LTYPE
  2
CONTINUOUS
 70
     0
  3
Solid Line
 72
    65
 73
     0
 40
0.0
  0
LTYPE
  2
CENTER
 70
     0
  3
____ _ ____ _ ____ _ ____ _ ____ _ ____ _ ____
 72
    65
 73
     4
 40
2.0
 49
1.25
 49
-0.25
 49
0.25
 49
-0.25
  0
LTYPE
  2
PHANTOM2
 70
     0
  3
___ _ _ ___ _ _ ___ _ _ ___ _ _
 72
    65
 73
     6
 40
1.25
 49
0.625
 49
-0.125
 49
0.125
 49
-0.125
 49
0.125
 49
-0.125
  0
ENDTAB
  0
TABLE
  2
LAYER
 70
     4
  0
LAYER
  2
0
 70
     0
 62
     7
  6
CONTINUOUS
  0
LAYER
  2
1
 70
     0
 62
     1
  6
CENTER
  0
LAYER
  2
DEFPOINTS
 70
     0
 62
     7
  6
CONTINUOUS
  0
LAYER
  2
3
 70
     0
 62
     3
  6
CONTINUOUS
  0
ENDTAB
  0
TABLE
  2
STYLE
 70
     2
  0
STYLE
  2
STANDARD
 70
     0
 40
0.0
 41
1.0
 50
0.0
 71
     0
 42
0.2
  3
TXT
  4
BIGFONT
  0
STYLE
  2
STANDARD1
 70
     0
 40
0.0
 41
1.0
 50
0.0
 71
     0
 42
3.0
  3
txt
  4

  0
ENDTAB
  0
TABLE
  2
VIEW
 70
     0
  0
ENDTAB
  0
TABLE
  2
UCS
 70
     0
  0
ENDTAB
  0
TABLE
  2
APPID
 70
     7
  0
APPID
  2
ACAD
 70
     0
  0
APPID
  2
ACAD_MLEADERVER
 70
     0
  0
APPID
  2
ACAD_PSEXT
 70
     0
  0
APPID
  2
ACAD_EXEMPT_FROM_CAD_STANDARDS
 70
     0
  0
APPID
  2
ACAD_DSTYLE_DIMJAG
 70
     0
  0
APPID
  2
ACAD_DSTYLE_DIMTALN
 70
     0
  0
APPID
  2
ACAD_NAV_VCDISPLAY
 70
     0
  0
ENDTAB
  0
TABLE
  2
DIMSTYLE
 70
     1
  0
DIMSTYLE
  2
STANDARD
 70
     0
  3

  4

  5

  6

  7

 40
1.0
 41
0.18
 42
0.0625
 43
0.38
 44
0.18
 45
0.0
 46
0.0
 47
0.0
 48
0.0
140
0.18
141
0.09
142
0.0
143
25.399999999999999
144
1.0
145
0.0
146
1.0
147
0.09
 71
     0
 72
     0
 73
     1
 74
     1
 75
     0
 76
     0
 77
     0
 78
     0
170
     0
171
     2
172
     0
173
     0
174
     0
175
     0
176
     0
177
     0
178
     0
  0
ENDTAB
  0
ENDSEC
  0
SECTION
  2
BLOCKS
  0
BLOCK
  8
0
  2
$MODEL_SPACE
 70
     0
 10
0.0
 20
0.0
 30
0.0
  3
$MODEL_SPACE
  1

  0
ENDBLK
  5
9
  8
0
  0
BLOCK
 67
     1
  8
0
  2
$PAPER_SPACE
 70
     0
 10
0.0
 20
0.0
 30
0.0
  3
$PAPER_SPACE
  1

  0
ENDBLK
  5
E
 67
     1
  8
0
  0
ENDSEC
  0
SECTION
  2
ENTITIES
  0
TEXT
  5
9FA2
  8
0
 62
     3
 10
0.0
 20
0.0
 30
0.0
 40
10.0
  1
EWN63X30-OG
  7
STANDARD1
  0
LINE
  5
B536
  8
1
 10
141.0
 20
137.5
 30
0.0
 11
141.0
 21
166.5
 31
0.0
  0
LINE
  5
B537
  8
1
 10
177.49999999999989
 20
152.0
 30
0.0
 11
104.5
 21
152.0
 31
0.0
  0
LINE
  5
B53C
  8
0
 10
129.6292270875602
 20
155.30770903127939
 30
0.0
 11
111.42298189472091
 21
156.5
 31
0.0
  0
LINE
  5
B53D
  8
0
 10
152.37077291243961
 20
148.69229096872061
 30
0.0
 11
170.57701810527891
 21
147.5
 31
0.0
  0
LINE
  5
B53E
  8
0
 10
111.4229818678989
 20
147.5
 30
0.0
 11
129.6292270875602
 21
148.69229096872061
 31
0.0
  0
LINE
  5
B53F
  8
0
 10
170.57701810527891
 20
156.5
 30
0.0
 11
152.37077291243961
 21
155.30770903127939
 31
0.0
  0
POLYLINE
  5
B540
  8
0
 66
     1
 10
0.0
 20
0.0
 30
0.0
  0
VERTEX
  5
BA05
  8
0
 10
132.92462300389661
 20
146.99617282764439
 30
0.0
  0
VERTEX
  5
BA06
  8
0
 10
132.70102461560691
 20
147.31626887319021
 30
0.0
  0
VERTEX
  5
BA07
  8
0
 10
132.44370830710611
 20
147.61105623169459
 30
0.0
  0
VERTEX
  5
BA08
  8
0
 10
132.15773418813279
 20
147.87505079141701
 30
0.0
  0
VERTEX
  5
BA09
  8
0
 10
131.84588751488511
 20
148.10533787406959
 30
0.0
  0
VERTEX
  5
BA0A
  8
0
 10
131.51148324808801
 20
148.30084355096901
 30
0.0
  0
VERTEX
  5
BA0B
  8
0
 10
131.16080870123071
 20
148.45848730461131
 30
0.0
  0
VERTEX
  5
BA0C
  8
0
 10
130.79003134902501
 20
148.57872719514461
 30
0.0
  0
VERTEX
  5
BA0D
  8
0
 10
130.40928676588851
 20
148.65828085505859
 30
0.0
  0
VERTEX
  5
BA0E
  8
0
 10
130.0252513568287
 20
148.69639414187509
 30
0.0
  0
VERTEX
  5
BA0F
  8
0
 10
129.6292270875602
 20
148.69229096872061
 30
0.0
  0
SEQEND
  5
BA10
  8
0
  0
ARC
  5
B541
  8
0
 10
141.0
 20
152.0
 30
0.0
 40
9.5000000000000018
 50
211.7840141265209
 51
328.21598671654561
  0
POLYLINE
  5
B542
  8
0
 66
     1
 10
0.0
 20
0.0
 30
0.0
  0
VERTEX
  5
BA11
  8
0
 10
152.37077291243961
 20
148.69229096872061
 30
0.0
  0
VERTEX
  5
BA12
  8
0
 10
151.96865886580491
 20
148.6958447152098
 30
0.0
  0
VERTEX
  5
BA13
  8
0
 10
151.565443054464
 20
148.65428840672649
 30
0.0
  0
VERTEX
  5
BA14
  8
0
 10
151.1685867706787
 20
148.56769982696471
 30
0.0
  0
VERTEX
  5
BA15
  8
0
 10
150.7813530600987
 20
148.43523142745951
 30
0.0
  0
VERTEX
  5
BA16
  8
0
 10
150.408458283285
 20
148.25829225940251
 30
0.0
  0
VERTEX
  5
BA17
  8
0
 10
150.0577098335672
 20
148.03983365150779
 30
0.0
  0
VERTEX
  5
BA18
  8
0
 10
149.74398025825511
 20
147.79037312171729
 30
0.0
  0
VERTEX
  5
BA19
  8
0
 10
149.45800843431289
 20
147.5059331063747
 30
0.0
  0
VERTEX
  5
BA1A
  8
0
 10
149.20577467381241
 20
147.19201657934769
 30
0.0
  0
VERTEX
  5
BA1B
  8
0
 10
149.07537706973079
 20
146.9961729464674
 30
0.0
  0
SEQEND
  5
BA1C
  8
0
  0
POLYLINE
  5
B543
  8
0
 66
     1
 10
0.0
 20
0.0
 30
0.0
  0
VERTEX
  5
BA1D
  8
0
 10
149.07537711412991
 20
157.0038269818796
 30
0.0
  0
VERTEX
  5
BA1E
  8
0
 10
149.29897552325409
 20
156.6837309490885
 30
0.0
  0
VERTEX
  5
BA1F
  8
0
 10
149.5562918510883
 20
156.38894360581921
 30
0.0
  0
VERTEX
  5
BA20
  8
0
 10
149.84226598746289
 20
156.12494906347439
 30
0.0
  0
VERTEX
  5
BA21
  8
0
 10
150.15411267587979
 20
155.8946620001561
 30
0.0
  0
VERTEX
  5
BA22
  8
0
 10
150.4885169555746
 20
155.69915634423239
 30
0.0
  0
VERTEX
  5
BA23
  8
0
 10
150.8391915128723
 20
155.54151261274831
 30
0.0
  0
VERTEX
  5
BA24
  8
0
 10
151.20996887431971
 20
155.42127274543071
 30
0.0
  0
VERTEX
  5
BA25
  8
0
 10
151.5907134641472
 20
155.34171910971921
 30
0.0
  0
VERTEX
  5
BA26
  8
0
 10
151.974748877292
 20
155.3036058476589
 30
0.0
  0
VERTEX
  5
BA27
  8
0
 10
152.37077291243961
 20
155.30770903127939
 30
0.0
  0
SEQEND
  5
BA28
  8
0
  0
ARC
  5
B544
  8
0
 10
141.0
 20
152.0
 30
0.0
 40
9.5000000000000089
 50
31.784012775067009
 51
148.21598569976931
  0
POLYLINE
  5
B545
  8
0
 66
     1
 10
0.0
 20
0.0
 30
0.0
  0
VERTEX
  5
BA29
  8
0
 10
129.6292270875602
 20
155.30770903127939
 30
0.0
  0
VERTEX
  5
BA2A
  8
0
 10
130.031341134195
 20
155.3041552847902
 30
0.0
  0
VERTEX
  5
BA2B
  8
0
 10
130.43455694553589
 20
155.34571159327351
 30
0.0
  0
VERTEX
  5
BA2C
  8
0
 10
130.83141322932121
 20
155.43230017303529
 30
0.0
  0
VERTEX
  5
BA2D
  8
0
 10
131.21864693990119
 20
155.5647685725404
 30
0.0
  0
VERTEX
  5
BA2E
  8
0
 10
131.591541716715
 20
155.74170774059749
 30
0.0
  0
VERTEX
  5
BA2F
  8
0
 10
131.94229016643271
 20
155.96016634849221
 30
0.0
  0
VERTEX
  5
BA30
  8
0
 10
132.25601974174481
 20
156.20962687828271
 30
0.0
  0
VERTEX
  5
BA31
  8
0
 10
132.541991565687
 20
156.49406689362519
 30
0.0
  0
VERTEX
  5
BA32
  8
0
 10
132.7942253261875
 20
156.80798342065231
 30
0.0
  0
VERTEX
  5
BA33
  8
0
 10
132.92462301906721
 20
157.00382719683861
 30
0.0
  0
SEQEND
  5
BA34
  8
0
  0
CIRCLE
  5
B546
  8
0
 10
141.0
 20
152.0
 30
0.0
 40
7.5
  0
POLYLINE
  5
B548
  8
0
 66
     1
 10
0.0
 20
0.0
 30
0.0
  0
VERTEX
  5
BA35
  8
0
 10
172.36956465711401
 20
149.1363636363636
 30
0.0
  0
VERTEX
  5
BA36
  8
0
 10
172.36882149085159
 20
149.1284172868549
 30
0.0
  0
VERTEX
  5
BA37
  8
0
 10
172.34278377201599
 20
148.95061252144049
 30
0.0
  0
VERTEX
  5
BA38
  8
0
 10
172.29890295290829
 20
148.77548825417901
 30
0.0
  0
VERTEX
  5
BA39
  8
0
 10
172.23692672360079
 20
148.60379358030681
 30
0.0
  0
VERTEX
  5
BA3A
  8
0
 10
172.15693953813701
 20
148.43753361457041
 30
0.0
  0
VERTEX
  5
BA3B
  8
0
 10
172.05683500836949
 20
148.27523566937131
 30
0.0
  0
VERTEX
  5
BA3C
  8
0
 10
171.93788213456301
 20
148.1218450467783
 30
0.0
  0
VERTEX
  5
BA3D
  8
0
 10
171.79932455658141
 20
147.9786495774751
 30
0.0
  0
VERTEX
  5
BA3E
  8
0
 10
171.64155656636939
 20
147.84853251333041
 30
0.0
  0
VERTEX
  5
BA3F
  8
0
 10
171.42134080215169
 20
147.71030846276841
 30
0.0
  0
VERTEX
  5
BA40
  8
0
 10
171.17173931528919
 20
147.60108661716851
 30
0.0
  0
VERTEX
  5
BA41
  8
0
 10
170.88908746350319
 20
147.52725841825219
 30
0.0
  0
VERTEX
  5
BA42
  8
0
 10
170.73646091394991
 20
147.50707557583621
 30
0.0
  0
VERTEX
  5
BA43
  8
0
 10
170.57701810527891
 20
147.5
 30
0.0
  0
SEQEND
  5
BA44
  8
0
  0
POLYLINE
  5
B549
  8
0
 66
     1
 10
0.0
 20
0.0
 30
0.0
  0
VERTEX
  5
BA45
  8
0
 10
170.57701810527891
 20
156.5
 30
0.0
  0
VERTEX
  5
BA46
  8
0
 10
170.8200827367105
 20
156.4835321449541
 30
0.0
  0
VERTEX
  5
BA47
  8
0
 10
171.04745115416881
 20
156.43743855906101
 30
0.0
  0
VERTEX
  5
BA48
  8
0
 10
171.2620511442868
 20
156.3645620243307
 30
0.0
  0
VERTEX
  5
BA49
  8
0
 10
171.45844678302569
 20
156.2694213857487
 30
0.0
  0
VERTEX
  5
BA4A
  8
0
 10
171.65289799568359
 20
156.1431093402922
 30
0.0
  0
VERTEX
  5
BA4B
  8
0
 10
171.8246660709961
 20
155.99746790318761
 30
0.0
  0
VERTEX
  5
BA4C
  8
0
 10
171.97329999951839
 20
155.83595636880079
 30
0.0
  0
VERTEX
  5
BA4D
  8
0
 10
172.1018870749013
 20
155.65643470245931
 30
0.0
  0
VERTEX
  5
BA4E
  8
0
 10
172.20607769929191
 20
155.46559976860101
 30
0.0
  0
VERTEX
  5
BA4F
  8
0
 10
172.28566256026849
 20
155.26615733363909
 30
0.0
  0
VERTEX
  5
BA50
  8
0
 10
172.338360111903
 20
155.0710449241011
 30
0.0
  0
VERTEX
  5
BA51
  8
0
 10
172.3688214908517
 20
154.87158271314399
 30
0.0
  0
VERTEX
  5
BA52
  8
0
 10
172.36956465711401
 20
154.86363636363629
 30
0.0
  0
SEQEND
  5
BA53
  8
0
  0
ARC
  5
B54A
  8
0
 10
141.00000000000071
 20
152.0
 30
0.0
 40
31.49999999999919
 50
354.78402617101011
 51
5.2158656981293676
  0
POLYLINE
  5
B54C
  8
0
 66
     1
 10
0.0
 20
0.0
 30
0.0
  0
VERTEX
  5
BA54
  8
0
 10
109.6304353428859
 20
154.86363636363629
 30
0.0
  0
VERTEX
  5
BA55
  8
0
 10
109.6311785091482
 20
154.87158271314411
 30
0.0
  0
VERTEX
  5
BA56
  8
0
 10
109.65724690178691
 20
155.0495354098876
 30
0.0
  0
VERTEX
  5
BA57
  8
0
 10
109.70109704708879
 20
155.22451174581201
 30
0.0
  0
VERTEX
  5
BA58
  8
0
 10
109.7631385230487
 20
155.39635948309811
 30
0.0
  0
VERTEX
  5
BA59
  8
0
 10
109.8430604618537
 20
155.56246638541279
 30
0.0
  0
VERTEX
  5
BA5A
  8
0
 10
109.9432824258608
 20
155.72493406590601
 30
0.0
  0
VERTEX
  5
BA5B
  8
0
 10
110.0621178654176
 20
155.87815495319941
 30
0.0
  0
VERTEX
  5
BA5C
  8
0
 10
110.2008693642847
 20
156.02153307095321
 30
0.0
  0
VERTEX
  5
BA5D
  8
0
 10
110.358443433597
 20
156.15146748664509
 30
0.0
  0
VERTEX
  5
BA5E
  8
0
 10
110.5786591978173
 20
156.28969153721511
 30
0.0
  0
VERTEX
  5
BA5F
  8
0
 10
110.8282606846842
 20
156.3989133828222
 30
0.0
  0
VERTEX
  5
BA60
  8
0
 10
111.1109125364771
 20
156.47274158174429
 30
0.0
  0
VERTEX
  5
BA61
  8
0
 10
111.26374775277461
 20
156.49294666126599
 30
0.0
  0
VERTEX
  5
BA62
  8
0
 10
111.42298189472091
 20
156.5
 30
0.0
  0
SEQEND
  5
BA63
  8
0
  0
POLYLINE
  5
B54D
  8
0
 66
     1
 10
0.0
 20
0.0
 30
0.0
  0
VERTEX
  5
BA64
  8
0
 10
111.4229818678989
 20
147.5
 30
0.0
  0
VERTEX
  5
BA65
  8
0
 10
111.17991723809951
 20
147.51646785847939
 30
0.0
  0
VERTEX
  5
BA66
  8
0
 10
110.95254882242099
 20
147.56256144727749
 30
0.0
  0
VERTEX
  5
BA67
  8
0
 10
110.7379488343024
 20
147.635437984481
 30
0.0
  0
VERTEX
  5
BA68
  8
0
 10
110.54155319759739
 20
147.73057862513369
 30
0.0
  0
VERTEX
  5
BA69
  8
0
 10
110.3471019858444
 20
147.85689067347991
 30
0.0
  0
VERTEX
  5
BA6A
  8
0
 10
110.1753339117687
 20
148.00253211338659
 30
0.0
  0
VERTEX
  5
BA6B
  8
0
 10
110.0266999848059
 20
148.16404365046719
 30
0.0
  0
VERTEX
  5
BA6C
  8
0
 10
109.898112911353
 20
148.3435653194569
 30
0.0
  0
VERTEX
  5
BA6D
  8
0
 10
109.7939222892343
 20
148.53440025581429
 30
0.0
  0
VERTEX
  5
BA6E
  8
0
 10
109.7143374308725
 20
148.7338426930969
 30
0.0
  0
VERTEX
  5
BA6F
  8
0
 10
109.6616398852007
 20
148.92895508964671
 30
0.0
  0
VERTEX
  5
BA70
  8
0
 10
109.6311785091482
 20
149.12841728685589
 30
0.0
  0
VERTEX
  5
BA71
  8
0
 10
109.6304353428859
 20
149.1363636363636
 30
0.0
  0
SEQEND
  5
BA72
  8
0
  0
ARC
  5
B54E
  8
0
 10
140.99999999999869
 20
152.0
 30
0.0
 40
31.499999999998671
 50
174.78413699482101
 51
185.2159727318714
  0
LINE
  5
B59F
  8
1
 10
141.0
 20
35.0
 30
0.0
 11
141.0
 21
107.0
 31
0.0
  0
POLYLINE
  5
B5A8
  8
0
 10
119.4058821529954
 20
86.144002877238492
 30
0.0
 66
     1
 70
     8
  0
VERTEX
  8
0
  5
BB1E
 10
119.406
 20
86.1440
 30
0.000000
  70
    32
  0
VERTEX
  8
0
  5
BB1F
 10
119.712
 20
86.1515
 30
0.000000
  70
    32
  0
VERTEX
  8
0
  5
BB20
 10
120.018
 20
86.1741
 30
0.000000
  70
    32
  0
VERTEX
  8
0
  5
BB21
 10
120.322
 20
86.2117
 30
0.000000
  70
    32
  0
VERTEX
  8
0
  5
BB22
 10
120.624
 20
86.2642
 30
0.000000
  70
    32
  0
VERTEX
  8
0
  5
BB23
 10
120.923
 20
86.3315
 30
0.000000
  70
    32
  0
VERTEX
  8
0
  5
BB24
 10
121.218
 20
86.4134
 30
0.000000
  70
    32
  0
VERTEX
  8
0
  5
BB25
 10
121.509
 20
86.5097
 30
0.000000
  70
    32
  0
VERTEX
  8
0
  5
BB26
 10
121.795
 20
86.6202
 30
0.000000
  70
    32
  0
VERTEX
  8
0
  5
BB27
 10
122.075
 20
86.7446
 30
0.000000
  70
    32
  0
VERTEX
  8
0
  5
BB28
 10
122.349
 20
86.8827
 30
0.000000
  70
    32
  0
VERTEX
  8
0
  5
BB29
 10
122.615
 20
87.0341
 30
0.000000
  70
    32
  0
VERTEX
  8
0
  5
BB2A
 10
122.874
 20
87.1983
 30
0.000000
  70
    32
  0
VERTEX
  8
0
  5
BB2B
 10
123.125
 20
87.3751
 30
0.000000
  70
    32
  0
VERTEX
  8
0
  5
BB2C
 10
123.366
 20
87.5640
 30
0.000000
  70
    32
  0
VERTEX
  8
0
  5
BB2D
 10
123.598
 20
87.7646
 30
0.000000
  70
    32
  0
VERTEX
  8
0
  5
BB2E
 10
123.820
 20
87.9763
 30
0.000000
  70
    32
  0
VERTEX
  8
0
  5
BB2F
 10
124.031
 20
88.1987
 30
0.000000
  70
    32
  0
VERTEX
  8
0
  5
BB30
 10
124.231
 20
88.4312
 30
0.000000
  70
    32
  0
VERTEX
  8
0
  5
BB31
 10
124.420
 20
88.6733
 30
0.000000
  70
    32
  0
VERTEX
  8
0
  5
BB32
 10
124.596
 20
88.9244
 30
0.000000
  70
    32
  0
VERTEX
  8
0
  5
BB33
 10
124.760
 20
89.1838
 30
0.000000
  70
    32
  0
VERTEX
  8
0
  5
BB34
 10
124.911
 20
89.4509
 30
0.000000
  70
    32
  0
VERTEX
  8
0
  5
BB35
 10
125.049
 20
89.7252
 30
0.000000
  70
    32
  0
VERTEX
  8
0
  5
BB36
 10
125.173
 20
90.0059
 30
0.000000
  70
    32
  0
VERTEX
  8
0
  5
BB37
 10
125.284
 20
90.2924
 30
0.000000
  70
    32
  0
VERTEX
  8
0
  5
BB38
 10
125.380
 20
90.5840
 30
0.000000
  70
    32
  0
VERTEX
  8
0
  5
BB39
 10
125.461
 20
90.8799
 30
0.000000
  70
    32
  0
VERTEX
  8
0
  5
BB3A
 10
125.529
 20
91.1795
 30
0.000000
  70
    32
  0
VERTEX
  8
0
  5
BB3B
 10
125.581
 20
91.4821
 30
0.000000
  70
    32
  0
VERTEX
  8
0
  5
BB3C
 10
125.618
 20
91.7868
 30
0.000000
  70
    32
  0
VERTEX
  8
0
  5
BB3D
 10
125.641
 20
92.0930
 30
0.000000
  70
    32
  0
VERTEX
  8
0
  5
BB3E
 10
125.649
 20
92.4000
 30
0.000000
  70
    32
  0
VERTEX
  8
0
  5
BB3F
 10
125.641
 20
92.7070
 30
0.000000
  70
    32
  0
VERTEX
  8
0
  5
BB40
 10
125.618
 20
93.0132
 30
0.000000
  70
    32
  0
VERTEX
  8
0
  5
BB41
 10
125.581
 20
93.3179
 30
0.000000
  70
    32
  0
VERTEX
  8
0
  5
BB42
 10
125.529
 20
93.6205
 30
0.000000
  70
    32
  0
VERTEX
  8
0
  5
BB43
 10
125.461
 20
93.9201
 30
0.000000
  70
    32
  0
VERTEX
  8
0
  5
BB44
 10
125.380
 20
94.2160
 30
0.000000
  70
    32
  0
VERTEX
  8
0
  5
BB45
 10
125.284
 20
94.5076
 30
0.000000
  70
    32
  0
VERTEX
  8
0
  5
BB46
 10
125.173
 20
94.7941
 30
0.000000
  70
    32
  0
VERTEX
  8
0
  5
BB47
 10
125.049
 20
95.0748
 30
0.000000
  70
    32
  0
VERTEX
  8
0
  5
BB48
 10
124.911
 20
95.3491
 30
0.000000
  70
    32
  0
VERTEX
  8
0
  5
BB49
 10
124.760
 20
95.6162
 30
0.000000
  70
    32
  0
VERTEX
  8
0
  5
BB4A
 10
124.596
 20
95.8756
 30
0.000000
  70
    32
  0
VERTEX
  8
0
  5
BB4B
 10
124.420
 20
96.1267
 30
0.000000
  70
    32
  0
VERTEX
  8
0
  5
BB4C
 10
124.231
 20
96.3688
 30
0.000000
  70
    32
  0
VERTEX
  8
0
  5
BB4D
 10
124.031
 20
96.6013
 30
0.000000
  70
    32
  0
VERTEX
  8
0
  5
BB4E
 10
123.820
 20
96.8237
 30
0.000000
  70
    32
  0
VERTEX
  8
0
  5
BB4F
 10
123.598
 20
97.0354
 30
0.000000
  70
    32
  0
VERTEX
  8
0
  5
BB50
 10
123.366
 20
97.2360
 30
0.000000
  70
    32
  0
VERTEX
  8
0
  5
BB51
 10
123.125
 20
97.4249
 30
0.000000
  70
    32
  0
VERTEX
  8
0
  5
BB52
 10
122.874
 20
97.6017
 30
0.000000
  70
    32
  0
VERTEX
  8
0
  5
BB53
 10
122.615
 20
97.7659
 30
0.000000
  70
    32
  0
VERTEX
  8
0
  5
BB54
 10
122.349
 20
97.9173
 30
0.000000
  70
    32
  0
VERTEX
  8
0
  5
BB55
 10
122.075
 20
98.0554
 30
0.000000
  70
    32
  0
VERTEX
  8
0
  5
BB56
 10
121.795
 20
98.1798
 30
0.000000
  70
    32
  0
VERTEX
  8
0
  5
BB57
 10
121.509
 20
98.2903
 30
0.000000
  70
    32
  0
VERTEX
  8
0
  5
BB58
 10
121.218
 20
98.3866
 30
0.000000
  70
    32
  0
VERTEX
  8
0
  5
BB59
 10
120.923
 20
98.4685
 30
0.000000
  70
    32
  0
VERTEX
  8
0
  5
BB5A
 10
120.624
 20
98.5358
 30
0.000000
  70
    32
  0
VERTEX
  8
0
  5
BB5B
 10
120.322
 20
98.5883
 30
0.000000
  70
    32
  0
VERTEX
  8
0
  5
BB5C
 10
120.018
 20
98.6259
 30
0.000000
  70
    32
  0
VERTEX
  8
0
  5
BB5D
 10
119.712
 20
98.6485
 30
0.000000
  70
    32
  0
VERTEX
  8
0
  5
BB5E
 10
119.406
 20
98.6560
 30
0.000000
  70
    32
  0
VERTEX
  8
0
  5
BB5F
 10
119.100
 20
98.6485
 30
0.000000
  70
    32
  0
VERTEX
  8
0
  5
BB60
 10
118.794
 20
98.6259
 30
0.000000
  70
    32
  0
VERTEX
  8
0
  5
BB61
 10
118.490
 20
98.5883
 30
0.000000
  70
    32
  0
VERTEX
  8
0
  5
BB62
 10
118.188
 20
98.5358
 30
0.000000
  70
    32
  0
VERTEX
  8
0
  5
BB63
 10
117.889
 20
98.4685
 30
0.000000
  70
    32
  0
VERTEX
  8
0
  5
BB64
 10
117.594
 20
98.3866
 30
0.000000
  70
    32
  0
VERTEX
  8
0
  5
BB65
 10
117.303
 20
98.2903
 30
0.000000
  70
    32
  0
VERTEX
  8
0
  5
BB66
 10
117.017
 20
98.1798
 30
0.000000
  70
    32
  0
VERTEX
  8
0
  5
BB67
 10
116.737
 20
98.0554
 30
0.000000
  70
    32
  0
VERTEX
  8
0
  5
BB68
 10
116.463
 20
97.9173
 30
0.000000
  70
    32
  0
VERTEX
  8
0
  5
BB69
 10
116.197
 20
97.7659
 30
0.000000
  70
    32
  0
VERTEX
  8
0
  5
BB6A
 10
115.938
 20
97.6017
 30
0.000000
  70
    32
  0
VERTEX
  8
0
  5
BB6B
 10
115.687
 20
97.4249
 30
0.000000
  70
    32
  0
VERTEX
  8
0
  5
BB6C
 10
115.446
 20
97.2360
 30
0.000000
  70
    32
  0
VERTEX
  8
0
  5
BB6D
 10
115.214
 20
97.0354
 30
0.000000
  70
    32
  0
VERTEX
  8
0
  5
BB6E
 10
114.992
 20
96.8237
 30
0.000000
  70
    32
  0
VERTEX
  8
0
  5
BB6F
 10
114.780
 20
96.6013
 30
0.000000
  70
    32
  0
VERTEX
  8
0
  5
BB70
 10
114.580
 20
96.3688
 30
0.000000
  70
    32
  0
VERTEX
  8
0
  5
BB71
 10
114.392
 20
96.1267
 30
0.000000
  70
    32
  0
VERTEX
  8
0
  5
BB72
 10
114.215
 20
95.8756
 30
0.000000
  70
    32
  0
VERTEX
  8
0
  5
BB73
 10
114.051
 20
95.6162
 30
0.000000
  70
    32
  0
VERTEX
  8
0
  5
BB74
 10
113.900
 20
95.3491
 30
0.000000
  70
    32
  0
VERTEX
  8
0
  5
BB75
 10
113.763
 20
95.0748
 30
0.000000
  70
    32
  0
VERTEX
  8
0
  5
BB76
 10
113.638
 20
94.7941
 30
0.000000
  70
    32
  0
VERTEX
  8
0
  5
BB77
 10
113.528
 20
94.5076
 30
0.000000
  70
    32
  0
VERTEX
  8
0
  5
BB78
 10
113.432
 20
94.2160
 30
0.000000
  70
    32
  0
VERTEX
  8
0
  5
BB79
 10
113.350
 20
93.9201
 30
0.000000
  70
    32
  0
VERTEX
  8
0
  5
BB7A
 10
113.283
 20
93.6205
 30
0.000000
  70
    32
  0
VERTEX
  8
0
  5
BB7B
 10
113.231
 20
93.3179
 30
0.000000
  70
    32
  0
VERTEX
  8
0
  5
BB7C
 10
113.193
 20
93.0132
 30
0.000000
  70
    32
  0
VERTEX
  8
0
  5
BB7D
 10
113.171
 20
92.7070
 30
0.000000
  70
    32
  0
VERTEX
  8
0
  5
BB7E
 10
113.163
 20
92.4000
 30
0.000000
  70
    32
  0
VERTEX
  8
0
  5
BB7F
 10
113.171
 20
92.0930
 30
0.000000
  70
    32
  0
VERTEX
  8
0
  5
BB80
 10
113.193
 20
91.7868
 30
0.000000
  70
    32
  0
VERTEX
  8
0
  5
BB81
 10
113.231
 20
91.4821
 30
0.000000
  70
    32
  0
VERTEX
  8
0
  5
BB82
 10
113.283
 20
91.1795
 30
0.000000
  70
    32
  0
VERTEX
  8
0
  5
BB83
 10
113.350
 20
90.8799
 30
0.000000
  70
    32
  0
VERTEX
  8
0
  5
BB84
 10
113.432
 20
90.5840
 30
0.000000
  70
    32
  0
VERTEX
  8
0
  5
BB85
 10
113.528
 20
90.2924
 30
0.000000
  70
    32
  0
VERTEX
  8
0
  5
BB86
 10
113.638
 20
90.0059
 30
0.000000
  70
    32
  0
VERTEX
  8
0
  5
BB87
 10
113.763
 20
89.7252
 30
0.000000
  70
    32
  0
VERTEX
  8
0
  5
BB88
 10
113.900
 20
89.4509
 30
0.000000
  70
    32
  0
VERTEX
  8
0
  5
BB89
 10
114.051
 20
89.1838
 30
0.000000
  70
    32
  0
VERTEX
  8
0
  5
BB8A
 10
114.215
 20
88.9244
 30
0.000000
  70
    32
  0
VERTEX
  8
0
  5
BB8B
 10
114.392
 20
88.6733
 30
0.000000
  70
    32
  0
VERTEX
  8
0
  5
BB8C
 10
114.580
 20
88.4312
 30
0.000000
  70
    32
  0
VERTEX
  8
0
  5
BB8D
 10
114.780
 20
88.1987
 30
0.000000
  70
    32
  0
VERTEX
  8
0
  5
BB8E
 10
114.992
 20
87.9763
 30
0.000000
  70
    32
  0
VERTEX
  8
0
  5
BB8F
 10
115.214
 20
87.7646
 30
0.000000
  70
    32
  0
VERTEX
  8
0
  5
BB90
 10
115.446
 20
87.5640
 30
0.000000
  70
    32
  0
VERTEX
  8
0
  5
BB91
 10
115.687
 20
87.3751
 30
0.000000
  70
    32
  0
VERTEX
  8
0
  5
BB92
 10
115.938
 20
87.1983
 30
0.000000
  70
    32
  0
VERTEX
  8
0
  5
BB93
 10
116.197
 20
87.0341
 30
0.000000
  70
    32
  0
VERTEX
  8
0
  5
BB94
 10
116.463
 20
86.8827
 30
0.000000
  70
    32
  0
VERTEX
  8
0
  5
BB95
 10
116.737
 20
86.7446
 30
0.000000
  70
    32
  0
VERTEX
  8
0
  5
BB96
 10
117.017
 20
86.6202
 30
0.000000
  70
    32
  0
VERTEX
  8
0
  5
BB97
 10
117.303
 20
86.5097
 30
0.000000
  70
    32
  0
VERTEX
  8
0
  5
BB98
 10
117.594
 20
86.4134
 30
0.000000
  70
    32
  0
VERTEX
  8
0
  5
BB99
 10
117.889
 20
86.3315
 30
0.000000
  70
    32
  0
VERTEX
  8
0
  5
BB9A
 10
118.188
 20
86.2642
 30
0.000000
  70
    32
  0
VERTEX
  8
0
  5
BB9B
 10
118.490
 20
86.2117
 30
0.000000
  70
    32
  0
VERTEX
  8
0
  5
BB9C
 10
118.794
 20
86.1741
 30
0.000000
  70
    32
  0
VERTEX
  8
0
  5
BB9D
 10
119.100
 20
86.1515
 30
0.000000
  70
    32
  0
VERTEX
  8
0
  5
BB9E
 10
119.406
 20
86.1440
 30
0.000000
  70
    32
  0
SEQEND
  8
0
  5
BB9F
  0
POLYLINE
  5
B5AA
  8
0
 10
162.59411784700461
 20
86.144002877238492
 30
0.0
 66
     1
 70
     8
  0
VERTEX
  8
0
  5
BBA0
 10
162.594
 20
86.1440
 30
0.000000
  70
    32
  0
VERTEX
  8
0
  5
BBA1
 10
162.900
 20
86.1515
 30
0.000000
  70
    32
  0
VERTEX
  8
0
  5
BBA2
 10
163.206
 20
86.1741
 30
0.000000
  70
    32
  0
VERTEX
  8
0
  5
BBA3
 10
163.510
 20
86.2117
 30
0.000000
  70
    32
  0
VERTEX
  8
0
  5
BBA4
 10
163.812
 20
86.2642
 30
0.000000
  70
    32
  0
VERTEX
  8
0
  5
BBA5
 10
164.111
 20
86.3315
 30
0.000000
  70
    32
  0
VERTEX
  8
0
  5
BBA6
 10
164.406
 20
86.4134
 30
0.000000
  70
    32
  0
VERTEX
  8
0
  5
BBA7
 10
164.697
 20
86.5097
 30
0.000000
  70
    32
  0
VERTEX
  8
0
  5
BBA8
 10
164.983
 20
86.6202
 30
0.000000
  70
    32
  0
VERTEX
  8
0
  5
BBA9
 10
165.263
 20
86.7446
 30
0.000000
  70
    32
  0
VERTEX
  8
0
  5
BBAA
 10
165.537
 20
86.8827
 30
0.000000
  70
    32
  0
VERTEX
  8
0
  5
BBAB
 10
165.803
 20
87.0341
 30
0.000000
  70
    32
  0
VERTEX
  8
0
  5
BBAC
 10
166.062
 20
87.1983
 30
0.000000
  70
    32
  0
VERTEX
  8
0
  5
BBAD
 10
166.313
 20
87.3751
 30
0.000000
  70
    32
  0
VERTEX
  8
0
  5
BBAE
 10
166.554
 20
87.5640
 30
0.000000
  70
    32
  0
VERTEX
  8
0
  5
BBAF
 10
166.786
 20
87.7646
 30
0.000000
  70
    32
  0
VERTEX
  8
0
  5
BBB0
 10
167.008
 20
87.9763
 30
0.000000
  70
    32
  0
VERTEX
  8
0
  5
BBB1
 10
167.220
 20
88.1987
 30
0.000000
  70
    32
  0
VERTEX
  8
0
  5
BBB2
 10
167.420
 20
88.4312
 30
0.000000
  70
    32
  0
VERTEX
  8
0
  5
BBB3
 10
167.608
 20
88.6733
 30
0.000000
  70
    32
  0
VERTEX
  8
0
  5
BBB4
 10
167.785
 20
88.9244
 30
0.000000
  70
    32
  0
VERTEX
  8
0
  5
BBB5
 10
167.949
 20
89.1838
 30
0.000000
  70
    32
  0
VERTEX
  8
0
  5
BBB6
 10
168.100
 20
89.4509
 30
0.000000
  70
    32
  0
VERTEX
  8
0
  5
BBB7
 10
168.237
 20
89.7252
 30
0.000000
  70
    32
  0
VERTEX
  8
0
  5
BBB8
 10
168.362
 20
90.0059
 30
0.000000
  70
    32
  0
VERTEX
  8
0
  5
BBB9
 10
168.472
 20
90.2924
 30
0.000000
  70
    32
  0
VERTEX
  8
0
  5
BBBA
 10
168.568
 20
90.5840
 30
0.000000
  70
    32
  0
VERTEX
  8
0
  5
BBBB
 10
168.650
 20
90.8799
 30
0.000000
  70
    32
  0
VERTEX
  8
0
  5
BBBC
 10
168.717
 20
91.1795
 30
0.000000
  70
    32
  0
VERTEX
  8
0
  5
BBBD
 10
168.769
 20
91.4821
 30
0.000000
  70
    32
  0
VERTEX
  8
0
  5
BBBE
 10
168.807
 20
91.7868
 30
0.000000
  70
    32
  0
VERTEX
  8
0
  5
BBBF
 10
168.829
 20
92.0930
 30
0.000000
  70
    32
  0
VERTEX
  8
0
  5
BBC0
 10
168.837
 20
92.4000
 30
0.000000
  70
    32
  0
VERTEX
  8
0
  5
BBC1
 10
168.829
 20
92.7070
 30
0.000000
  70
    32
  0
VERTEX
  8
0
  5
BBC2
 10
168.807
 20
93.0132
 30
0.000000
  70
    32
  0
VERTEX
  8
0
  5
BBC3
 10
168.769
 20
93.3179
 30
0.000000
  70
    32
  0
VERTEX
  8
0
  5
BBC4
 10
168.717
 20
93.6205
 30
0.000000
  70
    32
  0
VERTEX
  8
0
  5
BBC5
 10
168.650
 20
93.9201
 30
0.000000
  70
    32
  0
VERTEX
  8
0
  5
BBC6
 10
168.568
 20
94.2160
 30
0.000000
  70
    32
  0
VERTEX
  8
0
  5
BBC7
 10
168.472
 20
94.5076
 30
0.000000
  70
    32
  0
VERTEX
  8
0
  5
BBC8
 10
168.362
 20
94.7941
 30
0.000000
  70
    32
  0
VERTEX
  8
0
  5
BBC9
 10
168.237
 20
95.0748
 30
0.000000
  70
    32
  0
VERTEX
  8
0
  5
BBCA
 10
168.100
 20
95.3491
 30
0.000000
  70
    32
  0
VERTEX
  8
0
  5
BBCB
 10
167.949
 20
95.6162
 30
0.000000
  70
    32
  0
VERTEX
  8
0
  5
BBCC
 10
167.785
 20
95.8756
 30
0.000000
  70
    32
  0
VERTEX
  8
0
  5
BBCD
 10
167.608
 20
96.1267
 30
0.000000
  70
    32
  0
VERTEX
  8
0
  5
BBCE
 10
167.420
 20
96.3688
 30
0.000000
  70
    32
  0
VERTEX
  8
0
  5
BBCF
 10
167.220
 20
96.6013
 30
0.000000
  70
    32
  0
VERTEX
  8
0
  5
BBD0
 10
167.008
 20
96.8237
 30
0.000000
  70
    32
  0
VERTEX
  8
0
  5
BBD1
 10
166.786
 20
97.0354
 30
0.000000
  70
    32
  0
VERTEX
  8
0
  5
BBD2
 10
166.554
 20
97.2360
 30
0.000000
  70
    32
  0
VERTEX
  8
0
  5
BBD3
 10
166.313
 20
97.4249
 30
0.000000
  70
    32
  0
VERTEX
  8
0
  5
BBD4
 10
166.062
 20
97.6017
 30
0.000000
  70
    32
  0
VERTEX
  8
0
  5
BBD5
 10
165.803
 20
97.7659
 30
0.000000
  70
    32
  0
VERTEX
  8
0
  5
BBD6
 10
165.537
 20
97.9173
 30
0.000000
  70
    32
  0
VERTEX
  8
0
  5
BBD7
 10
165.263
 20
98.0554
 30
0.000000
  70
    32
  0
VERTEX
  8
0
  5
BBD8
 10
164.983
 20
98.1798
 30
0.000000
  70
    32
  0
VERTEX
  8
0
  5
BBD9
 10
164.697
 20
98.2903
 30
0.000000
  70
    32
  0
VERTEX
  8
0
  5
BBDA
 10
164.406
 20
98.3866
 30
0.000000
  70
    32
  0
VERTEX
  8
0
  5
BBDB
 10
164.111
 20
98.4685
 30
0.000000
  70
    32
  0
VERTEX
  8
0
  5
BBDC
 10
163.812
 20
98.5358
 30
0.000000
  70
    32
  0
VERTEX
  8
0
  5
BBDD
 10
163.510
 20
98.5883
 30
0.000000
  70
    32
  0
VERTEX
  8
0
  5
BBDE
 10
163.206
 20
98.6259
 30
0.000000
  70
    32
  0
VERTEX
  8
0
  5
BBDF
 10
162.900
 20
98.6485
 30
0.000000
  70
    32
  0
VERTEX
  8
0
  5
BBE0
 10
162.594
 20
98.6560
 30
0.000000
  70
    32
  0
VERTEX
  8
0
  5
BBE1
 10
162.288
 20
98.6485
 30
0.000000
  70
    32
  0
VERTEX
  8
0
  5
BBE2
 10
161.982
 20
98.6259
 30
0.000000
  70
    32
  0
VERTEX
  8
0
  5
BBE3
 10
161.678
 20
98.5883
 30
0.000000
  70
    32
  0
VERTEX
  8
0
  5
BBE4
 10
161.376
 20
98.5358
 30
0.000000
  70
    32
  0
VERTEX
  8
0
  5
BBE5
 10
161.077
 20
98.4685
 30
0.000000
  70
    32
  0
VERTEX
  8
0
  5
BBE6
 10
160.782
 20
98.3866
 30
0.000000
  70
    32
  0
VERTEX
  8
0
  5
BBE7
 10
160.491
 20
98.2903
 30
0.000000
  70
    32
  0
VERTEX
  8
0
  5
BBE8
 10
160.205
 20
98.1798
 30
0.000000
  70
    32
  0
VERTEX
  8
0
  5
BBE9
 10
159.925
 20
98.0554
 30
0.000000
  70
    32
  0
VERTEX
  8
0
  5
BBEA
 10
159.651
 20
97.9173
 30
0.000000
  70
    32
  0
VERTEX
  8
0
  5
BBEB
 10
159.385
 20
97.7659
 30
0.000000
  70
    32
  0
VERTEX
  8
0
  5
BBEC
 10
159.126
 20
97.6017
 30
0.000000
  70
    32
  0
VERTEX
  8
0
  5
BBED
 10
158.875
 20
97.4249
 30
0.000000
  70
    32
  0
VERTEX
  8
0
  5
BBEE
 10
158.634
 20
97.2360
 30
0.000000
  70
    32
  0
VERTEX
  8
0
  5
BBEF
 10
158.402
 20
97.0354
 30
0.000000
  70
    32
  0
VERTEX
  8
0
  5
BBF0
 10
158.180
 20
96.8237
 30
0.000000
  70
    32
  0
VERTEX
  8
0
  5
BBF1
 10
157.969
 20
96.6013
 30
0.000000
  70
    32
  0
VERTEX
  8
0
  5
BBF2
 10
157.769
 20
96.3688
 30
0.000000
  70
    32
  0
VERTEX
  8
0
  5
BBF3
 10
157.580
 20
96.1267
 30
0.000000
  70
    32
  0
VERTEX
  8
0
  5
BBF4
 10
157.404
 20
95.8756
 30
0.000000
  70
    32
  0
VERTEX
  8
0
  5
BBF5
 10
157.240
 20
95.6162
 30
0.000000
  70
    32
  0
VERTEX
  8
0
  5
BBF6
 10
157.089
 20
95.3491
 30
0.000000
  70
    32
  0
VERTEX
  8
0
  5
BBF7
 10
156.951
 20
95.0748
 30
0.000000
  70
    32
  0
VERTEX
  8
0
  5
BBF8
 10
156.827
 20
94.7941
 30
0.000000
  70
    32
  0
VERTEX
  8
0
  5
BBF9
 10
156.716
 20
94.5076
 30
0.000000
  70
    32
  0
VERTEX
  8
0
  5
BBFA
 10
156.620
 20
94.2160
 30
0.000000
  70
    32
  0
VERTEX
  8
0
  5
BBFB
 10
156.539
 20
93.9201
 30
0.000000
  70
    32
  0
VERTEX
  8
0
  5
BBFC
 10
156.471
 20
93.6205
 30
0.000000
  70
    32
  0
VERTEX
  8
0
  5
BBFD
 10
156.419
 20
93.3179
 30
0.000000
  70
    32
  0
VERTEX
  8
0
  5
BBFE
 10
156.382
 20
93.0132
 30
0.000000
  70
    32
  0
VERTEX
  8
0
  5
BBFF
 10
156.359
 20
92.7070
 30
0.000000
  70
    32
  0
VERTEX
  8
0
  5
BC00
 10
156.351
 20
92.4000
 30
0.000000
  70
    32
  0
VERTEX
  8
0
  5
BC01
 10
156.359
 20
92.0930
 30
0.000000
  70
    32
  0
VERTEX
  8
0
  5
BC02
 10
156.382
 20
91.7868
 30
0.000000
  70
    32
  0
VERTEX
  8
0
  5
BC03
 10
156.419
 20
91.4821
 30
0.000000
  70
    32
  0
VERTEX
  8
0
  5
BC04
 10
156.471
 20
91.1795
 30
0.000000
  70
    32
  0
VERTEX
  8
0
  5
BC05
 10
156.539
 20
90.8799
 30
0.000000
  70
    32
  0
VERTEX
  8
0
  5
BC06
 10
156.620
 20
90.5840
 30
0.000000
  70
    32
  0
VERTEX
  8
0
  5
BC07
 10
156.716
 20
90.2924
 30
0.000000
  70
    32
  0
VERTEX
  8
0
  5
BC08
 10
156.827
 20
90.0059
 30
0.000000
  70
    32
  0
VERTEX
  8
0
  5
BC09
 10
156.951
 20
89.7252
 30
0.000000
  70
    32
  0
VERTEX
  8
0
  5
BC0A
 10
157.089
 20
89.4509
 30
0.000000
  70
    32
  0
VERTEX
  8
0
  5
BC0B
 10
157.240
 20
89.1838
 30
0.000000
  70
    32
  0
VERTEX
  8
0
  5
BC0C
 10
157.404
 20
88.9244
 30
0.000000
  70
    32
  0
VERTEX
  8
0
  5
BC0D
 10
157.580
 20
88.6733
 30
0.000000
  70
    32
  0
VERTEX
  8
0
  5
BC0E
 10
157.769
 20
88.4312
 30
0.000000
  70
    32
  0
VERTEX
  8
0
  5
BC0F
 10
157.969
 20
88.1987
 30
0.000000
  70
    32
  0
VERTEX
  8
0
  5
BC10
 10
158.180
 20
87.9763
 30
0.000000
  70
    32
  0
VERTEX
  8
0
  5
BC11
 10
158.402
 20
87.7646
 30
0.000000
  70
    32
  0
VERTEX
  8
0
  5
BC12
 10
158.634
 20
87.5640
 30
0.000000
  70
    32
  0
VERTEX
  8
0
  5
BC13
 10
158.875
 20
87.3751
 30
0.000000
  70
    32
  0
VERTEX
  8
0
  5
BC14
 10
159.126
 20
87.1983
 30
0.000000
  70
    32
  0
VERTEX
  8
0
  5
BC15
 10
159.385
 20
87.0341
 30
0.000000
  70
    32
  0
VERTEX
  8
0
  5
BC16
 10
159.651
 20
86.8827
 30
0.000000
  70
    32
  0
VERTEX
  8
0
  5
BC17
 10
159.925
 20
86.7446
 30
0.000000
  70
    32
  0
VERTEX
  8
0
  5
BC18
 10
160.205
 20
86.6202
 30
0.000000
  70
    32
  0
VERTEX
  8
0
  5
BC19
 10
160.491
 20
86.5097
 30
0.000000
  70
    32
  0
VERTEX
  8
0
  5
BC1A
 10
160.782
 20
86.4134
 30
0.000000
  70
    32
  0
VERTEX
  8
0
  5
BC1B
 10
161.077
 20
86.3315
 30
0.000000
  70
    32
  0
VERTEX
  8
0
  5
BC1C
 10
161.376
 20
86.2642
 30
0.000000
  70
    32
  0
VERTEX
  8
0
  5
BC1D
 10
161.678
 20
86.2117
 30
0.000000
  70
    32
  0
VERTEX
  8
0
  5
BC1E
 10
161.982
 20
86.1741
 30
0.000000
  70
    32
  0
VERTEX
  8
0
  5
BC1F
 10
162.288
 20
86.1515
 30
0.000000
  70
    32
  0
VERTEX
  8
0
  5
BC20
 10
162.594
 20
86.1440
 30
0.000000
  70
    32
  0
SEQEND
  8
0
  5
BC21
  0
LINE
  5
B5B2
  8
0
 10
162.90000000000001
 20
102.0
 30
0.0
 11
162.53635336771779
 21
102.0
 31
0.0
  0
ARC
  5
B5B3
  8
0
 10
162.90000000000001
 20
92.399999999999977
 30
0.0
 40
9.5999999999999943
 50
290.54711163620237
 51
90.0
  0
POLYLINE
  5
B5B4
  8
0
 66
     1
 10
0.0
 20
0.0
 30
0.0
  0
VERTEX
  5
BA73
  8
0
 10
162.53635336771779
 20
102.0
 30
0.0
  0
VERTEX
  5
BA74
  8
0
 10
162.31761804685419
 20
101.9975277468415
 30
0.0
  0
VERTEX
  5
BA75
  8
0
 10
161.51433676266049
 20
101.9459194492682
 30
0.0
  0
VERTEX
  5
BA76
  8
0
 10
160.7180418805238
 20
101.8280604925918
 30
0.0
  0
VERTEX
  5
BA77
  8
0
 10
159.9119165276698
 20
101.63838910377071
 30
0.0
  0
VERTEX
  5
BA78
  8
0
 10
159.12470956182921
 20
101.3809964384765
 30
0.0
  0
VERTEX
  5
BA79
  8
0
 10
157.9791640890723
 20
100.8652308249288
 30
0.0
  0
VERTEX
  5
BA7A
  8
0
 10
157.42445346981251
 20
100.5474169440551
 30
0.0
  0
VERTEX
  5
BA7B
  8
0
 10
156.8916566554532
 20
100.1939503416299
 30
0.0
  0
SEQEND
  5
BA7C
  8
0
  0
POLYLINE
  5
B5B5
  8
0
 66
     1
 10
0.0
 20
0.0
 30
0.0
  0
VERTEX
  5
BA7D
  8
0
 10
125.1083433445468
 20
100.1939503416299
 30
0.0
  0
VERTEX
  5
BA7E
  8
0
 10
124.3218002479958
 20
100.69881178819401
 30
0.0
  0
VERTEX
  5
BA7F
  8
0
 10
123.482787565986
 20
101.1296365644246
 30
0.0
  0
VERTEX
  5
BA80
  8
0
 10
122.7311934177097
 20
101.4336537887062
 30
0.0
  0
VERTEX
  5
BA81
  8
0
 10
121.95705468964189
 20
101.6742363590724
 30
0.0
  0
VERTEX
  5
BA82
  8
0
 10
121.14242091746161
 20
101.8535504474883
 30
0.0
  0
VERTEX
  5
BA83
  8
0
 10
120.31548575446131
 20
101.96249519552001
 30
0.0
  0
VERTEX
  5
BA84
  8
0
 10
119.5059910373713
 20
101.9998479939366
 30
0.0
  0
VERTEX
  5
BA85
  8
0
 10
119.46384182084221
 20
102.0
 30
0.0
  0
SEQEND
  5
BA86
  8
0
  0
LINE
  5
B5B9
  8
0
 10
119.46384182084221
 20
102.0
 30
0.0
 11
119.09999999999999
 21
102.0
 31
0.0
  0
ARC
  5
B5BA
  8
0
 10
119.09999999999999
 20
92.399999999999977
 30
0.0
 40
9.5999999999999943
 50
90.0
 51
249.4528883637976
  0
ARC
  5
B5BF
  8
0
 10
133.58725783871441
 20
146.6132216644275
 30
0.0
 40
71.152500000003045
 50
283.7506604802175
 51
297.34356279218451
  0
ARC
  5
B5C2
  8
0
 10
148.412742161285
 20
146.61322166442591
 30
0.0
 40
71.152500000001311
 50
242.6564372078154
 51
256.2493395197825
  0
ARC
  5
B5C4
  8
0
 10
141.0
 20
93.352993704000255
 30
0.0
 40
8.6470062959997591
 50
32.967563206189674
 51
147.03243679381029
  0
LINE
  5
B5C8
  8
0
 10
150.5
 20
70.0
 30
0.0
 11
150.5
 21
77.5
 31
0.0
  0
LINE
  5
B5C9
  8
0
 10
131.5
 20
77.5
 30
0.0
 11
131.5
 21
70.0
 31
0.0
  0
LINE
  5
B5CB
  8
0
 10
131.5
 20
70.0
 30
0.0
 11
150.5
 21
70.0
 31
0.0
  0
POLYLINE
  5
B5CC
  8
0
 10
125.10834334419204
 20
100.19395034074677
 30
0.0
 66
     1
 70
     8
  0
VERTEX
  8
0
  5
BC22
 10
125.108
 20
100.194
 30
0.000000
  70
    32
  0
VERTEX
  8
0
  5
BC23
 10
125.143
 20
100.180
 30
0.000000
  70
    32
  0
VERTEX
  8
0
  5
BC24
 10
125.178
 20
100.166
 30
0.000000
  70
    32
  0
VERTEX
  8
0
  5
BC25
 10
125.212
 20
100.152
 30
0.000000
  70
    32
  0
VERTEX
  8
0
  5
BC26
 10
125.247
 20
100.138
 30
0.000000
  70
    32
  0
VERTEX
  8
0
  5
BC27
 10
125.282
 20
100.124
 30
0.000000
  70
    32
  0
VERTEX
  8
0
  5
BC28
 10
125.316
 20
100.111
 30
0.000000
  70
    32
  0
VERTEX
  8
0
  5
BC29
 10
125.351
 20
100.097
 30
0.000000
  70
    32
  0
VERTEX
  8
0
  5
BC2A
 10
125.386
 20
100.083
 30
0.000000
  70
    32
  0
VERTEX
  8
0
  5
BC2B
 10
125.420
 20
100.069
 30
0.000000
  70
    32
  0
VERTEX
  8
0
  5
BC2C
 10
125.455
 20
100.056
 30
0.000000
  70
    32
  0
VERTEX
  8
0
  5
BC2D
 10
125.490
 20
100.042
 30
0.000000
  70
    32
  0
VERTEX
  8
0
  5
BC2E
 10
125.525
 20
100.029
 30
0.000000
  70
    32
  0
VERTEX
  8
0
  5
BC2F
 10
125.559
 20
100.015
 30
0.000000
  70
    32
  0
VERTEX
  8
0
  5
BC30
 10
125.594
 20
100.001
 30
0.000000
  70
    32
  0
VERTEX
  8
0
  5
BC31
 10
125.629
 20
99.9878
 30
0.000000
  70
    32
  0
VERTEX
  8
0
  5
BC32
 10
125.664
 20
99.9743
 30
0.000000
  70
    32
  0
VERTEX
  8
0
  5
BC33
 10
125.699
 20
99.9609
 30
0.000000
  70
    32
  0
VERTEX
  8
0
  5
BC34
 10
125.733
 20
99.9474
 30
0.000000
  70
    32
  0
VERTEX
  8
0
  5
BC35
 10
125.768
 20
99.9340
 30
0.000000
  70
    32
  0
VERTEX
  8
0
  5
BC36
 10
125.803
 20
99.9206
 30
0.000000
  70
    32
  0
VERTEX
  8
0
  5
BC37
 10
125.838
 20
99.9073
 30
0.000000
  70
    32
  0
VERTEX
  8
0
  5
BC38
 10
125.873
 20
99.8940
 30
0.000000
  70
    32
  0
VERTEX
  8
0
  5
BC39
 10
125.908
 20
99.8807
 30
0.000000
  70
    32
  0
VERTEX
  8
0
  5
BC3A
 10
125.943
 20
99.8674
 30
0.000000
  70
    32
  0
VERTEX
  8
0
  5
BC3B
 10
125.977
 20
99.8542
 30
0.000000
  70
    32
  0
VERTEX
  8
0
  5
BC3C
 10
126.012
 20
99.8410
 30
0.000000
  70
    32
  0
VERTEX
  8
0
  5
BC3D
 10
126.047
 20
99.8278
 30
0.000000
  70
    32
  0
VERTEX
  8
0
  5
BC3E
 10
126.082
 20
99.8147
 30
0.000000
  70
    32
  0
VERTEX
  8
0
  5
BC3F
 10
126.117
 20
99.8016
 30
0.000000
  70
    32
  0
VERTEX
  8
0
  5
BC40
 10
126.152
 20
99.7885
 30
0.000000
  70
    32
  0
VERTEX
  8
0
  5
BC41
 10
126.187
 20
99.7755
 30
0.000000
  70
    32
  0
VERTEX
  8
0
  5
BC42
 10
126.222
 20
99.7625
 30
0.000000
  70
    32
  0
VERTEX
  8
0
  5
BC43
 10
126.257
 20
99.7495
 30
0.000000
  70
    32
  0
VERTEX
  8
0
  5
BC44
 10
126.292
 20
99.7365
 30
0.000000
  70
    32
  0
VERTEX
  8
0
  5
BC45
 10
126.327
 20
99.7236
 30
0.000000
  70
    32
  0
VERTEX
  8
0
  5
BC46
 10
126.362
 20
99.7107
 30
0.000000
  70
    32
  0
VERTEX
  8
0
  5
BC47
 10
126.397
 20
99.6979
 30
0.000000
  70
    32
  0
VERTEX
  8
0
  5
BC48
 10
126.432
 20
99.6850
 30
0.000000
  70
    32
  0
VERTEX
  8
0
  5
BC49
 10
126.467
 20
99.6722
 30
0.000000
  70
    32
  0
VERTEX
  8
0
  5
BC4A
 10
126.502
 20
99.6594
 30
0.000000
  70
    32
  0
VERTEX
  8
0
  5
BC4B
 10
126.538
 20
99.6467
 30
0.000000
  70
    32
  0
VERTEX
  8
0
  5
BC4C
 10
126.573
 20
99.6340
 30
0.000000
  70
    32
  0
VERTEX
  8
0
  5
BC4D
 10
126.608
 20
99.6213
 30
0.000000
  70
    32
  0
VERTEX
  8
0
  5
BC4E
 10
126.643
 20
99.6087
 30
0.000000
  70
    32
  0
VERTEX
  8
0
  5
BC4F
 10
126.678
 20
99.5961
 30
0.000000
  70
    32
  0
VERTEX
  8
0
  5
BC50
 10
126.713
 20
99.5835
 30
0.000000
  70
    32
  0
VERTEX
  8
0
  5
BC51
 10
126.748
 20
99.5709
 30
0.000000
  70
    32
  0
VERTEX
  8
0
  5
BC52
 10
126.783
 20
99.5584
 30
0.000000
  70
    32
  0
VERTEX
  8
0
  5
BC53
 10
126.819
 20
99.5459
 30
0.000000
  70
    32
  0
VERTEX
  8
0
  5
BC54
 10
126.854
 20
99.5334
 30
0.000000
  70
    32
  0
VERTEX
  8
0
  5
BC55
 10
126.889
 20
99.5210
 30
0.000000
  70
    32
  0
VERTEX
  8
0
  5
BC56
 10
126.924
 20
99.5086
 30
0.000000
  70
    32
  0
VERTEX
  8
0
  5
BC57
 10
126.959
 20
99.4962
 30
0.000000
  70
    32
  0
VERTEX
  8
0
  5
BC58
 10
126.995
 20
99.4839
 30
0.000000
  70
    32
  0
VERTEX
  8
0
  5
BC59
 10
127.030
 20
99.4716
 30
0.000000
  70
    32
  0
VERTEX
  8
0
  5
BC5A
 10
127.065
 20
99.4593
 30
0.000000
  70
    32
  0
VERTEX
  8
0
  5
BC5B
 10
127.100
 20
99.4470
 30
0.000000
  70
    32
  0
VERTEX
  8
0
  5
BC5C
 10
127.136
 20
99.4348
 30
0.000000
  70
    32
  0
VERTEX
  8
0
  5
BC5D
 10
127.171
 20
99.4226
 30
0.000000
  70
    32
  0
VERTEX
  8
0
  5
BC5E
 10
127.206
 20
99.4105
 30
0.000000
  70
    32
  0
VERTEX
  8
0
  5
BC5F
 10
127.242
 20
99.3983
 30
0.000000
  70
    32
  0
VERTEX
  8
0
  5
BC60
 10
127.277
 20
99.3862
 30
0.000000
  70
    32
  0
VERTEX
  8
0
  5
BC61
 10
127.312
 20
99.3742
 30
0.000000
  70
    32
  0
VERTEX
  8
0
  5
BC62
 10
127.347
 20
99.3621
 30
0.000000
  70
    32
  0
VERTEX
  8
0
  5
BC63
 10
127.383
 20
99.3501
 30
0.000000
  70
    32
  0
VERTEX
  8
0
  5
BC64
 10
127.418
 20
99.3382
 30
0.000000
  70
    32
  0
VERTEX
  8
0
  5
BC65
 10
127.454
 20
99.3262
 30
0.000000
  70
    32
  0
VERTEX
  8
0
  5
BC66
 10
127.489
 20
99.3143
 30
0.000000
  70
    32
  0
VERTEX
  8
0
  5
BC67
 10
127.524
 20
99.3024
 30
0.000000
  70
    32
  0
VERTEX
  8
0
  5
BC68
 10
127.560
 20
99.2906
 30
0.000000
  70
    32
  0
VERTEX
  8
0
  5
BC69
 10
127.595
 20
99.2788
 30
0.000000
  70
    32
  0
VERTEX
  8
0
  5
BC6A
 10
127.631
 20
99.2670
 30
0.000000
  70
    32
  0
VERTEX
  8
0
  5
BC6B
 10
127.666
 20
99.2552
 30
0.000000
  70
    32
  0
VERTEX
  8
0
  5
BC6C
 10
127.701
 20
99.2435
 30
0.000000
  70
    32
  0
VERTEX
  8
0
  5
BC6D
 10
127.737
 20
99.2318
 30
0.000000
  70
    32
  0
VERTEX
  8
0
  5
BC6E
 10
127.772
 20
99.2201
 30
0.000000
  70
    32
  0
VERTEX
  8
0
  5
BC6F
 10
127.808
 20
99.2085
 30
0.000000
  70
    32
  0
VERTEX
  8
0
  5
BC70
 10
127.843
 20
99.1969
 30
0.000000
  70
    32
  0
VERTEX
  8
0
  5
BC71
 10
127.879
 20
99.1853
 30
0.000000
  70
    32
  0
VERTEX
  8
0
  5
BC72
 10
127.914
 20
99.1738
 30
0.000000
  70
    32
  0
VERTEX
  8
0
  5
BC73
 10
127.950
 20
99.1622
 30
0.000000
  70
    32
  0
VERTEX
  8
0
  5
BC74
 10
127.985
 20
99.1508
 30
0.000000
  70
    32
  0
VERTEX
  8
0
  5
BC75
 10
128.021
 20
99.1393
 30
0.000000
  70
    32
  0
VERTEX
  8
0
  5
BC76
 10
128.056
 20
99.1279
 30
0.000000
  70
    32
  0
VERTEX
  8
0
  5
BC77
 10
128.092
 20
99.1165
 30
0.000000
  70
    32
  0
VERTEX
  8
0
  5
BC78
 10
128.127
 20
99.1052
 30
0.000000
  70
    32
  0
VERTEX
  8
0
  5
BC79
 10
128.163
 20
99.0938
 30
0.000000
  70
    32
  0
VERTEX
  8
0
  5
BC7A
 10
128.199
 20
99.0825
 30
0.000000
  70
    32
  0
VERTEX
  8
0
  5
BC7B
 10
128.234
 20
99.0713
 30
0.000000
  70
    32
  0
VERTEX
  8
0
  5
BC7C
 10
128.270
 20
99.0600
 30
0.000000
  70
    32
  0
VERTEX
  8
0
  5
BC7D
 10
128.305
 20
99.0488
 30
0.000000
  70
    32
  0
VERTEX
  8
0
  5
BC7E
 10
128.341
 20
99.0377
 30
0.000000
  70
    32
  0
VERTEX
  8
0
  5
BC7F
 10
128.377
 20
99.0265
 30
0.000000
  70
    32
  0
VERTEX
  8
0
  5
BC80
 10
128.412
 20
99.0154
 30
0.000000
  70
    32
  0
VERTEX
  8
0
  5
BC81
 10
128.448
 20
99.0043
 30
0.000000
  70
    32
  0
VERTEX
  8
0
  5
BC82
 10
128.483
 20
98.9933
 30
0.000000
  70
    32
  0
VERTEX
  8
0
  5
BC83
 10
128.519
 20
98.9823
 30
0.000000
  70
    32
  0
VERTEX
  8
0
  5
BC84
 10
128.555
 20
98.9713
 30
0.000000
  70
    32
  0
VERTEX
  8
0
  5
BC85
 10
128.590
 20
98.9603
 30
0.000000
  70
    32
  0
VERTEX
  8
0
  5
BC86
 10
128.626
 20
98.9494
 30
0.000000
  70
    32
  0
VERTEX
  8
0
  5
BC87
 10
128.662
 20
98.9385
 30
0.000000
  70
    32
  0
VERTEX
  8
0
  5
BC88
 10
128.698
 20
98.9277
 30
0.000000
  70
    32
  0
VERTEX
  8
0
  5
BC89
 10
128.733
 20
98.9168
 30
0.000000
  70
    32
  0
VERTEX
  8
0
  5
BC8A
 10
128.769
 20
98.9060
 30
0.000000
  70
    32
  0
VERTEX
  8
0
  5
BC8B
 10
128.805
 20
98.8953
 30
0.000000
  70
    32
  0
VERTEX
  8
0
  5
BC8C
 10
128.841
 20
98.8845
 30
0.000000
  70
    32
  0
VERTEX
  8
0
  5
BC8D
 10
128.876
 20
98.8738
 30
0.000000
  70
    32
  0
VERTEX
  8
0
  5
BC8E
 10
128.912
 20
98.8631
 30
0.000000
  70
    32
  0
VERTEX
  8
0
  5
BC8F
 10
128.948
 20
98.8525
 30
0.000000
  70
    32
  0
VERTEX
  8
0
  5
BC90
 10
128.984
 20
98.8419
 30
0.000000
  70
    32
  0
VERTEX
  8
0
  5
BC91
 10
129.019
 20
98.8313
 30
0.000000
  70
    32
  0
VERTEX
  8
0
  5
BC92
 10
129.055
 20
98.8207
 30
0.000000
  70
    32
  0
VERTEX
  8
0
  5
BC93
 10
129.091
 20
98.8102
 30
0.000000
  70
    32
  0
VERTEX
  8
0
  5
BC94
 10
129.127
 20
98.7997
 30
0.000000
  70
    32
  0
VERTEX
  8
0
  5
BC95
 10
129.163
 20
98.7893
 30
0.000000
  70
    32
  0
VERTEX
  8
0
  5
BC96
 10
129.198
 20
98.7789
 30
0.000000
  70
    32
  0
VERTEX
  8
0
  5
BC97
 10
129.234
 20
98.7685
 30
0.000000
  70
    32
  0
VERTEX
  8
0
  5
BC98
 10
129.270
 20
98.7581
 30
0.000000
  70
    32
  0
VERTEX
  8
0
  5
BC99
 10
129.306
 20
98.7478
 30
0.000000
  70
    32
  0
VERTEX
  8
0
  5
BC9A
 10
129.342
 20
98.7375
 30
0.000000
  70
    32
  0
VERTEX
  8
0
  5
BC9B
 10
129.378
 20
98.7272
 30
0.000000
  70
    32
  0
VERTEX
  8
0
  5
BC9C
 10
129.414
 20
98.7170
 30
0.000000
  70
    32
  0
VERTEX
  8
0
  5
BC9D
 10
129.450
 20
98.7068
 30
0.000000
  70
    32
  0
VERTEX
  8
0
  5
BC9E
 10
129.486
 20
98.6966
 30
0.000000
  70
    32
  0
VERTEX
  8
0
  5
BC9F
 10
129.521
 20
98.6864
 30
0.000000
  70
    32
  0
VERTEX
  8
0
  5
BCA0
 10
129.557
 20
98.6763
 30
0.000000
  70
    32
  0
VERTEX
  8
0
  5
BCA1
 10
129.593
 20
98.6662
 30
0.000000
  70
    32
  0
VERTEX
  8
0
  5
BCA2
 10
129.629
 20
98.6562
 30
0.000000
  70
    32
  0
SEQEND
  8
0
  5
BCA3
  0
POLYLINE
  5
B5CD
  8
0
 66
     1
 10
0.0
 20
0.0
 30
0.0
  0
VERTEX
  5
BA87
  8
0
 10
132.92462300389661
 20
98.058384553756426
 30
0.0
  0
VERTEX
  5
BA88
  8
0
 10
132.5762649445243
 20
98.073329561329672
 30
0.0
  0
VERTEX
  5
BA89
  8
0
 10
132.15773418813279
 20
98.117215459714942
 30
0.0
  0
VERTEX
  5
BA8A
  8
0
 10
131.68111212358721
 20
98.188923804068224
 30
0.0
  0
VERTEX
  5
BA8B
  8
0
 10
131.16080870123071
 20
98.285828181222939
 30
0.0
  0
VERTEX
  5
BA8C
  8
0
 10
130.60048768601021
 20
98.407784924242335
 30
0.0
  0
VERTEX
  5
BA8D
  8
0
 10
130.02525135682879
 20
98.549401117427351
 30
0.0
  0
VERTEX
  5
BA8E
  8
0
 10
129.62922708756031
 20
98.656186984811313
 30
0.0
  0
SEQEND
  5
BA8F
  8
0
  0
LINE
  5
B5CE
  8
0
 10
132.92462300389661
 20
98.058384553756426
 30
0.0
 11
149.07537706973091
 21
98.058384553756426
 31
0.0
  0
POLYLINE
  5
B5CF
  8
0
 66
     1
 10
0.0
 20
0.0
 30
0.0
  0
VERTEX
  5
BA90
  8
0
 10
152.37077291243969
 20
98.656186984811313
 30
0.0
  0
VERTEX
  5
BA91
  8
0
 10
151.76672234995641
 20
98.496375934753644
 30
0.0
  0
VERTEX
  5
BA92
  8
0
 10
151.1685867706787
 20
98.355477426205027
 30
0.0
  0
VERTEX
  5
BA93
  8
0
 10
150.592625342888
 20
98.237816976403835
 30
0.0
  0
VERTEX
  5
BA94
  8
0
 10
150.0577098335672
 20
98.147241541074891
 30
0.0
  0
VERTEX
  5
BA95
  8
0
 10
149.59715085785831
 20
98.088881475257153
 30
0.0
  0
VERTEX
  5
BA96
  8
0
 10
149.20577467381241
 20
98.060776679719325
 30
0.0
  0
VERTEX
  5
BA97
  8
0
 10
149.07537706973091
 20
98.058384553756426
 30
0.0
  0
SEQEND
  5
BA98
  8
0
  0
POLYLINE
  5
B5D0
  8
0
 10
152.37077291243972
 20
98.656186984811242
 30
0.0
 66
     1
 70
     8
  0
VERTEX
  8
0
  5
BCA4
 10
152.371
 20
98.6562
 30
0.000000
  70
    32
  0
VERTEX
  8
0
  5
BCA5
 10
152.407
 20
98.6662
 30
0.000000
  70
    32
  0
VERTEX
  8
0
  5
BCA6
 10
152.443
 20
98.6763
 30
0.000000
  70
    32
  0
VERTEX
  8
0
  5
BCA7
 10
152.479
 20
98.6864
 30
0.000000
  70
    32
  0
VERTEX
  8
0
  5
BCA8
 10
152.514
 20
98.6966
 30
0.000000
  70
    32
  0
VERTEX
  8
0
  5
BCA9
 10
152.550
 20
98.7068
 30
0.000000
  70
    32
  0
VERTEX
  8
0
  5
BCAA
 10
152.586
 20
98.7170
 30
0.000000
  70
    32
  0
VERTEX
  8
0
  5
BCAB
 10
152.622
 20
98.7272
 30
0.000000
  70
    32
  0
VERTEX
  8
0
  5
BCAC
 10
152.658
 20
98.7375
 30
0.000000
  70
    32
  0
VERTEX
  8
0
  5
BCAD
 10
152.694
 20
98.7478
 30
0.000000
  70
    32
  0
VERTEX
  8
0
  5
BCAE
 10
152.730
 20
98.7581
 30
0.000000
  70
    32
  0
VERTEX
  8
0
  5
BCAF
 10
152.766
 20
98.7685
 30
0.000000
  70
    32
  0
VERTEX
  8
0
  5
BCB0
 10
152.802
 20
98.7789
 30
0.000000
  70
    32
  0
VERTEX
  8
0
  5
BCB1
 10
152.837
 20
98.7893
 30
0.000000
  70
    32
  0
VERTEX
  8
0
  5
BCB2
 10
152.873
 20
98.7997
 30
0.000000
  70
    32
  0
VERTEX
  8
0
  5
BCB3
 10
152.909
 20
98.8102
 30
0.000000
  70
    32
  0
VERTEX
  8
0
  5
BCB4
 10
152.945
 20
98.8207
 30
0.000000
  70
    32
  0
VERTEX
  8
0
  5
BCB5
 10
152.981
 20
98.8313
 30
0.000000
  70
    32
  0
VERTEX
  8
0
  5
BCB6
 10
153.016
 20
98.8419
 30
0.000000
  70
    32
  0
VERTEX
  8
0
  5
BCB7
 10
153.052
 20
98.8525
 30
0.000000
  70
    32
  0
VERTEX
  8
0
  5
BCB8
 10
153.088
 20
98.8631
 30
0.000000
  70
    32
  0
VERTEX
  8
0
  5
BCB9
 10
153.124
 20
98.8738
 30
0.000000
  70
    32
  0
VERTEX
  8
0
  5
BCBA
 10
153.159
 20
98.8845
 30
0.000000
  70
    32
  0
VERTEX
  8
0
  5
BCBB
 10
153.195
 20
98.8953
 30
0.000000
  70
    32
  0
VERTEX
  8
0
  5
BCBC
 10
153.231
 20
98.9060
 30
0.000000
  70
    32
  0
VERTEX
  8
0
  5
BCBD
 10
153.267
 20
98.9168
 30
0.000000
  70
    32
  0
VERTEX
  8
0
  5
BCBE
 10
153.302
 20
98.9277
 30
0.000000
  70
    32
  0
VERTEX
  8
0
  5
BCBF
 10
153.338
 20
98.9385
 30
0.000000
  70
    32
  0
VERTEX
  8
0
  5
BCC0
 10
153.374
 20
98.9494
 30
0.000000
  70
    32
  0
VERTEX
  8
0
  5
BCC1
 10
153.410
 20
98.9603
 30
0.000000
  70
    32
  0
VERTEX
  8
0
  5
BCC2
 10
153.445
 20
98.9713
 30
0.000000
  70
    32
  0
VERTEX
  8
0
  5
BCC3
 10
153.481
 20
98.9823
 30
0.000000
  70
    32
  0
VERTEX
  8
0
  5
BCC4
 10
153.517
 20
98.9933
 30
0.000000
  70
    32
  0
VERTEX
  8
0
  5
BCC5
 10
153.552
 20
99.0043
 30
0.000000
  70
    32
  0
VERTEX
  8
0
  5
BCC6
 10
153.588
 20
99.0154
 30
0.000000
  70
    32
  0
VERTEX
  8
0
  5
BCC7
 10
153.623
 20
99.0265
 30
0.000000
  70
    32
  0
VERTEX
  8
0
  5
BCC8
 10
153.659
 20
99.0377
 30
0.000000
  70
    32
  0
VERTEX
  8
0
  5
BCC9
 10
153.695
 20
99.0488
 30
0.000000
  70
    32
  0
VERTEX
  8
0
  5
BCCA
 10
153.730
 20
99.0600
 30
0.000000
  70
    32
  0
VERTEX
  8
0
  5
BCCB
 10
153.766
 20
99.0713
 30
0.000000
  70
    32
  0
VERTEX
  8
0
  5
BCCC
 10
153.801
 20
99.0825
 30
0.000000
  70
    32
  0
VERTEX
  8
0
  5
BCCD
 10
153.837
 20
99.0938
 30
0.000000
  70
    32
  0
VERTEX
  8
0
  5
BCCE
 10
153.873
 20
99.1052
 30
0.000000
  70
    32
  0
VERTEX
  8
0
  5
BCCF
 10
153.908
 20
99.1165
 30
0.000000
  70
    32
  0
VERTEX
  8
0
  5
BCD0
 10
153.944
 20
99.1279
 30
0.000000
  70
    32
  0
VERTEX
  8
0
  5
BCD1
 10
153.979
 20
99.1393
 30
0.000000
  70
    32
  0
VERTEX
  8
0
  5
BCD2
 10
154.015
 20
99.1508
 30
0.000000
  70
    32
  0
VERTEX
  8
0
  5
BCD3
 10
154.050
 20
99.1622
 30
0.000000
  70
    32
  0
VERTEX
  8
0
  5
BCD4
 10
154.086
 20
99.1738
 30
0.000000
  70
    32
  0
VERTEX
  8
0
  5
BCD5
 10
154.121
 20
99.1853
 30
0.000000
  70
    32
  0
VERTEX
  8
0
  5
BCD6
 10
154.157
 20
99.1969
 30
0.000000
  70
    32
  0
VERTEX
  8
0
  5
BCD7
 10
154.192
 20
99.2085
 30
0.000000
  70
    32
  0
VERTEX
  8
0
  5
BCD8
 10
154.228
 20
99.2201
 30
0.000000
  70
    32
  0
VERTEX
  8
0
  5
BCD9
 10
154.263
 20
99.2318
 30
0.000000
  70
    32
  0
VERTEX
  8
0
  5
BCDA
 10
154.299
 20
99.2435
 30
0.000000
  70
    32
  0
VERTEX
  8
0
  5
BCDB
 10
154.334
 20
99.2552
 30
0.000000
  70
    32
  0
VERTEX
  8
0
  5
BCDC
 10
154.369
 20
99.2670
 30
0.000000
  70
    32
  0
VERTEX
  8
0
  5
BCDD
 10
154.405
 20
99.2788
 30
0.000000
  70
    32
  0
VERTEX
  8
0
  5
BCDE
 10
154.440
 20
99.2906
 30
0.000000
  70
    32
  0
VERTEX
  8
0
  5
BCDF
 10
154.476
 20
99.3024
 30
0.000000
  70
    32
  0
VERTEX
  8
0
  5
BCE0
 10
154.511
 20
99.3143
 30
0.000000
  70
    32
  0
VERTEX
  8
0
  5
BCE1
 10
154.546
 20
99.3262
 30
0.000000
  70
    32
  0
VERTEX
  8
0
  5
BCE2
 10
154.582
 20
99.3382
 30
0.000000
  70
    32
  0
VERTEX
  8
0
  5
BCE3
 10
154.617
 20
99.3501
 30
0.000000
  70
    32
  0
VERTEX
  8
0
  5
BCE4
 10
154.653
 20
99.3621
 30
0.000000
  70
    32
  0
VERTEX
  8
0
  5
BCE5
 10
154.688
 20
99.3742
 30
0.000000
  70
    32
  0
VERTEX
  8
0
  5
BCE6
 10
154.723
 20
99.3862
 30
0.000000
  70
    32
  0
VERTEX
  8
0
  5
BCE7
 10
154.758
 20
99.3983
 30
0.000000
  70
    32
  0
VERTEX
  8
0
  5
BCE8
 10
154.794
 20
99.4105
 30
0.000000
  70
    32
  0
VERTEX
  8
0
  5
BCE9
 10
154.829
 20
99.4226
 30
0.000000
  70
    32
  0
VERTEX
  8
0
  5
BCEA
 10
154.864
 20
99.4348
 30
0.000000
  70
    32
  0
VERTEX
  8
0
  5
BCEB
 10
154.900
 20
99.4470
 30
0.000000
  70
    32
  0
VERTEX
  8
0
  5
BCEC
 10
154.935
 20
99.4593
 30
0.000000
  70
    32
  0
VERTEX
  8
0
  5
BCED
 10
154.970
 20
99.4716
 30
0.000000
  70
    32
  0
VERTEX
  8
0
  5
BCEE
 10
155.005
 20
99.4839
 30
0.000000
  70
    32
  0
VERTEX
  8
0
  5
BCEF
 10
155.041
 20
99.4962
 30
0.000000
  70
    32
  0
VERTEX
  8
0
  5
BCF0
 10
155.076
 20
99.5086
 30
0.000000
  70
    32
  0
VERTEX
  8
0
  5
BCF1
 10
155.111
 20
99.5210
 30
0.000000
  70
    32
  0
VERTEX
  8
0
  5
BCF2
 10
155.146
 20
99.5334
 30
0.000000
  70
    32
  0
VERTEX
  8
0
  5
BCF3
 10
155.181
 20
99.5459
 30
0.000000
  70
    32
  0
VERTEX
  8
0
  5
BCF4
 10
155.217
 20
99.5584
 30
0.000000
  70
    32
  0
VERTEX
  8
0
  5
BCF5
 10
155.252
 20
99.5709
 30
0.000000
  70
    32
  0
VERTEX
  8
0
  5
BCF6
 10
155.287
 20
99.5835
 30
0.000000
  70
    32
  0
VERTEX
  8
0
  5
BCF7
 10
155.322
 20
99.5961
 30
0.000000
  70
    32
  0
VERTEX
  8
0
  5
BCF8
 10
155.357
 20
99.6087
 30
0.000000
  70
    32
  0
VERTEX
  8
0
  5
BCF9
 10
155.392
 20
99.6213
 30
0.000000
  70
    32
  0
VERTEX
  8
0
  5
BCFA
 10
155.427
 20
99.6340
 30
0.000000
  70
    32
  0
VERTEX
  8
0
  5
BCFB
 10
155.462
 20
99.6467
 30
0.000000
  70
    32
  0
VERTEX
  8
0
  5
BCFC
 10
155.498
 20
99.6594
 30
0.000000
  70
    32
  0
VERTEX
  8
0
  5
BCFD
 10
155.533
 20
99.6722
 30
0.000000
  70
    32
  0
VERTEX
  8
0
  5
BCFE
 10
155.568
 20
99.6850
 30
0.000000
  70
    32
  0
VERTEX
  8
0
  5
BCFF
 10
155.603
 20
99.6979
 30
0.000000
  70
    32
  0
VERTEX
  8
0
  5
BD00
 10
155.638
 20
99.7107
 30
0.000000
  70
    32
  0
VERTEX
  8
0
  5
BD01
 10
155.673
 20
99.7236
 30
0.000000
  70
    32
  0
VERTEX
  8
0
  5
BD02
 10
155.708
 20
99.7365
 30
0.000000
  70
    32
  0
VERTEX
  8
0
  5
BD03
 10
155.743
 20
99.7495
 30
0.000000
  70
    32
  0
VERTEX
  8
0
  5
BD04
 10
155.778
 20
99.7625
 30
0.000000
  70
    32
  0
VERTEX
  8
0
  5
BD05
 10
155.813
 20
99.7755
 30
0.000000
  70
    32
  0
VERTEX
  8
0
  5
BD06
 10
155.848
 20
99.7885
 30
0.000000
  70
    32
  0
VERTEX
  8
0
  5
BD07
 10
155.883
 20
99.8016
 30
0.000000
  70
    32
  0
VERTEX
  8
0
  5
BD08
 10
155.918
 20
99.8147
 30
0.000000
  70
    32
  0
VERTEX
  8
0
  5
BD09
 10
155.953
 20
99.8278
 30
0.000000
  70
    32
  0
VERTEX
  8
0
  5
BD0A
 10
155.988
 20
99.8410
 30
0.000000
  70
    32
  0
VERTEX
  8
0
  5
BD0B
 10
156.023
 20
99.8542
 30
0.000000
  70
    32
  0
VERTEX
  8
0
  5
BD0C
 10
156.057
 20
99.8674
 30
0.000000
  70
    32
  0
VERTEX
  8
0
  5
BD0D
 10
156.092
 20
99.8807
 30
0.000000
  70
    32
  0
VERTEX
  8
0
  5
BD0E
 10
156.127
 20
99.8940
 30
0.000000
  70
    32
  0
VERTEX
  8
0
  5
BD0F
 10
156.162
 20
99.9073
 30
0.000000
  70
    32
  0
VERTEX
  8
0
  5
BD10
 10
156.197
 20
99.9206
 30
0.000000
  70
    32
  0
VERTEX
  8
0
  5
BD11
 10
156.232
 20
99.9340
 30
0.000000
  70
    32
  0
VERTEX
  8
0
  5
BD12
 10
156.267
 20
99.9474
 30
0.000000
  70
    32
  0
VERTEX
  8
0
  5
BD13
 10
156.301
 20
99.9609
 30
0.000000
  70
    32
  0
VERTEX
  8
0
  5
BD14
 10
156.336
 20
99.9743
 30
0.000000
  70
    32
  0
VERTEX
  8
0
  5
BD15
 10
156.371
 20
99.9878
 30
0.000000
  70
    32
  0
VERTEX
  8
0
  5
BD16
 10
156.406
 20
100.001
 30
0.000000
  70
    32
  0
VERTEX
  8
0
  5
BD17
 10
156.441
 20
100.015
 30
0.000000
  70
    32
  0
VERTEX
  8
0
  5
BD18
 10
156.475
 20
100.029
 30
0.000000
  70
    32
  0
VERTEX
  8
0
  5
BD19
 10
156.510
 20
100.042
 30
0.000000
  70
    32
  0
VERTEX
  8
0
  5
BD1A
 10
156.545
 20
100.056
 30
0.000000
  70
    32
  0
VERTEX
  8
0
  5
BD1B
 10
156.580
 20
100.069
 30
0.000000
  70
    32
  0
VERTEX
  8
0
  5
BD1C
 10
156.614
 20
100.083
 30
0.000000
  70
    32
  0
VERTEX
  8
0
  5
BD1D
 10
156.649
 20
100.097
 30
0.000000
  70
    32
  0
VERTEX
  8
0
  5
BD1E
 10
156.684
 20
100.111
 30
0.000000
  70
    32
  0
VERTEX
  8
0
  5
BD1F
 10
156.718
 20
100.124
 30
0.000000
  70
    32
  0
VERTEX
  8
0
  5
BD20
 10
156.753
 20
100.138
 30
0.000000
  70
    32
  0
VERTEX
  8
0
  5
BD21
 10
156.788
 20
100.152
 30
0.000000
  70
    32
  0
VERTEX
  8
0
  5
BD22
 10
156.822
 20
100.166
 30
0.000000
  70
    32
  0
VERTEX
  8
0
  5
BD23
 10
156.857
 20
100.180
 30
0.000000
  70
    32
  0
VERTEX
  8
0
  5
BD24
 10
156.892
 20
100.194
 30
0.000000
  70
    32
  0
SEQEND
  8
0
  5
BD25
  0
LINE
  5
B640
  8
1
 10
59.5
 20
35.0
 30
0.0
 11
59.5
 21
107.0
 31
0.0
  0
ARC
  5
B647
  8
0
 10
59.500000000000021
 20
93.352993704000198
 30
0.0
 40
8.6470062959998391
 50
119.6042404769496
 51
147.0324367938091
  0
ARC
  5
B648
  8
0
 10
59.500000000000021
 20
93.352993704000255
 30
0.0
 40
8.6470062959997023
 50
32.96756320618956
 51
60.371601596729143
  0
LINE
  5
B649
  8
0
 10
69.000000000000057
 20
70.0
 30
0.0
 11
69.000000000000057
 21
98.058384553756426
 31
0.0
  0
LINE
  5
B64A
  8
0
 10
50.0
 20
98.058384553756426
 30
0.0
 11
50.0
 21
70.0
 31
0.0
  0
LINE
  5
B64B
  8
0
 10
50.0
 20
70.0
 30
0.0
 11
69.000000000000057
 21
70.0
 31
0.0
  0
LINE
  5
B64C
  8
0
 10
54.496172946467418
 20
98.058384553756426
 30
0.0
 11
54.496172946467418
 21
77.5
 31
0.0
  0
POLYLINE
  5
B64D
  8
0
 66
     1
 10
0.0
 20
0.0
 30
0.0
  0
VERTEX
  5
BA99
  8
0
 10
55.019089168898567
 20
98.076914411745292
 30
0.0
  0
VERTEX
  5
BA9A
  8
0
 10
55.005933106374762
 20
98.07604270051371
 30
0.0
  0
VERTEX
  5
BA9B
  8
0
 10
54.692016579347687
 20
98.060776679719325
 30
0.0
  0
VERTEX
  5
BA9C
  8
0
 10
54.496172946467603
 20
98.058384553756355
 30
0.0
  0
SEQEND
  5
BA9D
  8
0
  0
POLYLINE
  5
B64E
  8
0
 66
     1
 10
0.0
 20
0.0
 30
0.0
  0
VERTEX
  5
BA9E
  8
0
 10
56.199985852431411
 20
78.051916892230565
 30
0.0
  0
VERTEX
  5
BA9F
  8
0
 10
56.19939633514926
 20
78.03494349419725
 30
0.0
  0
VERTEX
  5
BAA0
  8
0
 10
56.181554414210872
 20
77.95766177028554
 30
0.0
  0
VERTEX
  5
BAA1
  8
0
 10
56.13699192259142
 20
77.882328321408124
 30
0.0
  0
VERTEX
  5
BAA2
  8
0
 10
56.065978071474007
 20
77.811843341755775
 30
0.0
  0
VERTEX
  5
BAA3
  8
0
 10
55.971596864560091
 20
77.748572121138295
 30
0.0
  0
VERTEX
  5
BAA4
  8
0
 10
55.852764865892283
 20
77.691170716623446
 30
0.0
  0
VERTEX
  5
BAA5
  8
0
 10
55.705140520003191
 20
77.638802543077588
 30
0.0
  0
VERTEX
  5
BAA6
  8
0
 10
55.533034238764373
 20
77.593983924212068
 30
0.0
  0
VERTEX
  5
BAA7
  8
0
 10
55.35086797221507
 20
77.559466523534638
 30
0.0
  0
VERTEX
  5
BAA8
  8
0
 10
55.149448540251228
 20
77.532507347929652
 30
0.0
  0
VERTEX
  5
BAA9
  8
0
 10
54.922838760600712
 20
77.513027840931386
 30
0.0
  0
VERTEX
  5
BAAA
  8
0
 10
54.67891776946567
 20
77.502251899832345
 30
0.0
  0
VERTEX
  5
BAAB
  8
0
 10
54.49617294646751
 20
77.499999999999943
 30
0.0
  0
SEQEND
  5
BAAC
  8
0
  0
LINE
  5
B64F
  8
0
 10
64.503826981879627
 20
98.058384553756426
 30
0.0
 11
64.503826981879627
 21
77.5
 31
0.0
  0
LINE
  5
B650
  8
0
 10
62.800014150193249
 20
78.05194812056169
 30
0.0
 11
62.807709031279437
 21
78.115563498401457
 31
0.0
  0
POLYLINE
  5
B651
  8
0
 66
     1
 10
0.0
 20
0.0
 30
0.0
  0
VERTEX
  5
BAAD
  8
0
 10
64.503826981879627
 20
98.058384553756426
 30
0.0
  0
VERTEX
  5
BAAE
  8
0
 10
64.183730949088556
 20
98.065061938653912
 30
0.0
  0
VERTEX
  5
BAAF
  8
0
 10
63.978368361659761
 20
98.077108544808667
 30
0.0
  0
SEQEND
  5
BAB0
  8
0
  0
LINE
  5
B652
  8
0
 10
64.503826981879627
 20
98.058384553756426
 30
0.0
 11
69.000000000000057
 21
98.058384553756426
 31
0.0
  0
LINE
  5
B653
  8
0
 10
50.0
 20
98.058384553756426
 30
0.0
 11
54.496172946467418
 21
98.058384553756426
 31
0.0
  0
POLYLINE
  5
B654
  8
0
 66
     1
 10
0.0
 20
0.0
 30
0.0
  0
VERTEX
  5
BAB1
  8
0
 10
56.192290968720641
 20
78.115563498401457
 30
0.0
  0
VERTEX
  5
BAB2
  8
0
 10
56.097499883419829
 20
78.530710683916368
 30
0.0
  0
VERTEX
  5
BAB3
  8
0
 10
56.003318272523792
 20
78.977166000701914
 30
0.0
  0
VERTEX
  5
BAB4
  8
0
 10
55.90961264125329
 20
79.455470750248708
 30
0.0
  0
VERTEX
  5
BAB5
  8
0
 10
55.816600479587493
 20
79.964488277139992
 30
0.0
  0
VERTEX
  5
BAB6
  8
0
 10
55.723807438237849
 20
80.507020749989977
 30
0.0
  0
VERTEX
  5
BAB7
  8
0
 10
55.631798877845561
 20
81.079987829646555
 30
0.0
  0
VERTEX
  5
BAB8
  8
0
 10
55.540448020038902
 20
81.684235880592666
 30
0.0
  0
VERTEX
  5
BAB9
  8
0
 10
55.449967663486433
 20
82.318414147378618
 30
0.0
  0
VERTEX
  5
BABA
  8
0
 10
55.377202954621588
 20
82.854897284188041
 30
0.0
  0
VERTEX
  5
BABB
  8
0
 10
55.305060598644353
 20
83.41071443030296
 30
0.0
  0
SEQEND
  5
BABC
  8
0
  0
POLYLINE
  5
B655
  8
0
 66
     1
 10
0.0
 20
0.0
 30
0.0
  0
VERTEX
  5
BABD
  8
0
 10
63.694939401355612
 20
83.41071443030296
 30
0.0
  0
VERTEX
  5
BABE
  8
0
 10
63.588922190373353
 20
82.602168446379778
 30
0.0
  0
VERTEX
  5
BABF
  8
0
 10
63.481588389884728
 20
81.835377941999809
 30
0.0
  0
VERTEX
  5
BAC0
  8
0
 10
63.372719288196379
 20
81.109040664509834
 30
0.0
  0
VERTEX
  5
BAC1
  8
0
 10
63.262666609723219
 20
80.425749075056444
 30
0.0
  0
VERTEX
  5
BAC2
  8
0
 10
63.150598855274723
 20
79.781047540178633
 30
0.0
  0
VERTEX
  5
BAC3
  8
0
 10
63.037473405307018
 20
79.181164856777514
 30
0.0
  0
VERTEX
  5
BAC4
  8
0
 10
62.923049548628171
 20
78.625216796209145
 30
0.0
  0
VERTEX
  5
BAC5
  8
0
 10
62.807709031279437
 20
78.115563498401457
 30
0.0
  0
SEQEND
  5
BAC6
  8
0
  0
LINE
  5
B656
  8
0
 10
54.496172946467418
 20
77.5
 30
0.0
 11
64.503826981879627
 21
77.5
 31
0.0
  0
POLYLINE
  5
B657
  8
0
 66
     1
 10
0.0
 20
0.0
 30
0.0
  0
VERTEX
  5
BAC7
  8
0
 10
64.503826981879627
 20
77.5
 30
0.0
  0
VERTEX
  5
BAC8
  8
0
 10
64.184796851565864
 20
77.507204571642262
 30
0.0
  0
VERTEX
  5
BAC9
  8
0
 10
63.890925477983217
 20
77.528401157770531
 30
0.0
  0
VERTEX
  5
BACA
  8
0
 10
63.627681320624163
 20
77.562964074383103
 30
0.0
  0
VERTEX
  5
BACB
  8
0
 10
63.39798965012443
 20
77.6103932699545
 30
0.0
  0
VERTEX
  5
BACC
  8
0
 10
63.2027845761001
 20
77.669680179599823
 30
0.0
  0
VERTEX
  5
BACD
  8
0
 10
63.045062739930408
 20
77.739350487772526
 30
0.0
  0
VERTEX
  5
BACE
  8
0
 10
62.923754789844168
 20
77.820545318130584
 30
0.0
  0
VERTEX
  5
BACF
  8
0
 10
62.843134798544888
 20
77.910492942069482
 30
0.0
  0
VERTEX
  5
BAD0
  8
0
 10
62.804008817656552
 20
78.007350550764329
 30
0.0
  0
VERTEX
  5
BAD1
  8
0
 10
62.800014150193249
 20
78.05194812056169
 30
0.0
  0
SEQEND
  5
BAD2
  8
0
  0
LINE
  5
B658
  8
0
 10
56.192290968720641
 20
78.115563498401457
 30
0.0
 11
56.199985852431411
 21
78.051916892230565
 31
0.0
  0
LINE
  5
B659
  8
0
 10
55.0
 20
97.680295231048035
 30
0.0
 11
55.0
 21
87.119704768950157
 31
0.0
  0
LINE
  5
B65A
  8
0
 10
64.000000000000057
 20
97.680295231026605
 30
0.0
 11
64.000000000000057
 21
87.119704768952033
 31
0.0
  0
POLYLINE
  5
B65B
  8
0
 66
     1
 10
0.0
 20
0.0
 30
0.0
  0
VERTEX
  5
BAD3
  8
0
 10
55.000000000000647
 20
97.680295231041498
 30
0.0
  0
VERTEX
  5
BAD4
  8
0
 10
55.014788302018701
 20
98.007671239978094
 30
0.0
  0
VERTEX
  5
BAD5
  8
0
 10
55.030478860813218
 20
98.325920507311366
 30
0.0
  0
VERTEX
  5
BAD6
  8
0
 10
55.047108194886682
 20
98.635507275202045
 30
0.0
  0
VERTEX
  5
BAD7
  8
0
 10
55.064598431335178
 20
98.934718333085087
 30
0.0
  0
VERTEX
  5
BAD8
  8
0
 10
55.083264123181941
 20
99.228120533565175
 30
0.0
  0
VERTEX
  5
BAD9
  8
0
 10
55.102765747884547
 20
99.509589633740404
 30
0.0
  0
VERTEX
  5
BADA
  8
0
 10
55.123148104122031
 20
99.779519196768945
 30
0.0
  0
VERTEX
  5
BADB
  8
0
 10
55.144307458136893
 20
100.0362908233097
 30
0.0
  0
VERTEX
  5
BADC
  8
0
 10
55.165349876054478
 20
100.2702421476294
 30
0.0
  0
VERTEX
  5
BADD
  8
0
 10
55.187043588367658
 20
100.4910556472325
 30
0.0
  0
VERTEX
  5
BADE
  8
0
 10
55.20943258447307
 20
100.6989855595442
 30
0.0
  0
VERTEX
  5
BADF
  8
0
 10
55.232407035194001
 20
100.8928225870322
 30
0.0
  0
VERTEX
  5
BAE0
  8
0
 10
55.256358783267068
 20
101.07526497542059
 30
0.0
  0
VERTEX
  5
BAE1
  8
0
 10
55.280838908507029
 20
101.2422920219506
 30
0.0
  0
VERTEX
  5
BAE2
  8
0
 10
55.305897531740733
 20
101.39405107905721
 30
0.0
  0
VERTEX
  5
BAE3
  8
0
 10
55.331403043156257
 20
101.5295529825281
 30
0.0
  0
VERTEX
  5
BAE4
  8
0
 10
55.356394407512681
 20
101.6445793277118
 30
0.0
  0
VERTEX
  5
BAE5
  8
0
 10
55.381717802918082
 20
101.7438953334477
 30
0.0
  0
VERTEX
  5
BAE6
  8
0
 10
55.407420119302202
 20
101.8275219041308
 30
0.0
  0
VERTEX
  5
BAE7
  8
0
 10
55.433371706535723
 20
101.8948749217266
 30
0.0
  0
VERTEX
  5
BAE8
  8
0
 10
55.459999818938648
 20
101.9465280835598
 30
0.0
  0
VERTEX
  5
BAE9
  8
0
 10
55.486794894359058
 20
101.98095487302589
 30
0.0
  0
VERTEX
  5
BAEA
  8
0
 10
55.513807275551159
 20
101.9980442387708
 30
0.0
  0
VERTEX
  5
BAEB
  8
0
 10
55.526954240529022
 20
101.9999980943066
 30
0.0
  0
SEQEND
  5
BAEC
  8
0
  0
POLYLINE
  5
B65E
  8
0
 66
     1
 10
0.0
 20
0.0
 30
0.0
  0
VERTEX
  5
BAED
  8
0
 10
55.305060598644353
 20
83.41071443030296
 30
0.0
  0
VERTEX
  5
BAEE
  8
0
 10
55.272741317689139
 20
83.610902814240376
 30
0.0
  0
VERTEX
  5
BAEF
  8
0
 10
55.241168544294339
 20
83.838234110279515
 30
0.0
  0
VERTEX
  5
BAF0
  8
0
 10
55.210487413138189
 20
84.091692354208305
 30
0.0
  0
VERTEX
  5
BAF1
  8
0
 10
55.179927454257893
 20
84.379264484434771
 30
0.0
  0
VERTEX
  5
BAF2
  8
0
 10
55.150462025595353
 20
84.69322805194696
 30
0.0
  0
VERTEX
  5
BAF3
  8
0
 10
55.122235441212347
 20
85.032075399762775
 30
0.0
  0
VERTEX
  5
BAF4
  8
0
 10
55.088366720631647
 20
85.495931913612935
 30
0.0
  0
VERTEX
  5
BAF5
  8
0
 10
55.056775585491181
 20
85.996006153335031
 30
0.0
  0
VERTEX
  5
BAF6
  8
0
 10
55.027029316974698
 20
86.541782971880536
 30
0.0
  0
VERTEX
  5
BAF7
  8
0
 10
55.0
 20
87.119704768950157
 30
0.0
  0
SEQEND
  5
BAF8
  8
0
  0
POLYLINE
  5
B660
  8
0
 66
     1
 10
0.0
 20
0.0
 30
0.0
  0
VERTEX
  5
BAF9
  8
0
 10
64.000000000000057
 20
87.119704768952033
 30
0.0
  0
VERTEX
  5
BAFA
  8
0
 10
63.979999495230857
 20
86.683608619490954
 30
0.0
  0
VERTEX
  5
BAFB
  8
0
 10
63.95843324030858
 20
86.264826503349468
 30
0.0
  0
VERTEX
  5
BAFC
  8
0
 10
63.935401568664872
 20
85.865281666914925
 30
0.0
  0
VERTEX
  5
BAFD
  8
0
 10
63.910220797526733
 20
85.475222430290259
 30
0.0
  0
VERTEX
  5
BAFE
  8
0
 10
63.883607607751109
 20
85.107439837912182
 30
0.0
  0
VERTEX
  5
BAFF
  8
0
 10
63.855692541863107
 20
84.763709176690199
 30
0.0
  0
VERTEX
  5
BB00
  8
0
 10
63.818449748822047
 20
84.363037646766657
 30
0.0
  0
VERTEX
  5
BB01
  8
0
 10
63.779414649181767
 20
84.004533819653659
 30
0.0
  0
VERTEX
  5
BB02
  8
0
 10
63.737891576492018
 20
83.68382234464309
 30
0.0
  0
VERTEX
  5
BB03
  8
0
 10
63.694939401355612
 20
83.41071443030296
 30
0.0
  0
SEQEND
  5
BB04
  8
0
  0
LINE
  5
B663
  8
0
 10
63.474206519697482
 20
102.0
 30
0.0
 11
55.52580954993951
 21
102.0
 31
0.0
  0
POLYLINE
  5
B664
  8
0
 66
     1
 10
0.0
 20
0.0
 30
0.0
  0
VERTEX
  5
BB05
  8
0
 10
63.472989183781067
 20
101.9999975140251
 30
0.0
  0
VERTEX
  5
BB06
  8
0
 10
63.497080156219063
 20
101.9932751758533
 30
0.0
  0
VERTEX
  5
BB07
  8
0
 10
63.52369100108006
 20
101.9695641614519
 30
0.0
  0
VERTEX
  5
BB08
  8
0
 10
63.550746662786587
 20
101.9277890062547
 30
0.0
  0
VERTEX
  5
BB09
  8
0
 10
63.577709940865532
 20
101.8681884661045
 30
0.0
  0
VERTEX
  5
BB0A
  8
0
 10
63.604630202505462
 20
101.79043694780211
 30
0.0
  0
VERTEX
  5
BB0B
  8
0
 10
63.631355418419552
 20
101.6947533787426
 30
0.0
  0
VERTEX
  5
BB0C
  8
0
 10
63.65666914216461
 20
101.5865994181854
 30
0.0
  0
VERTEX
  5
BB0D
  8
0
 10
63.681710419409391
 20
101.4622195478823
 30
0.0
  0
VERTEX
  5
BB0E
  8
0
 10
63.706520196018062
 20
101.3212125541655
 30
0.0
  0
VERTEX
  5
BB0F
  8
0
 10
63.730964784671933
 20
101.16413590829799
 30
0.0
  0
VERTEX
  5
BB10
  8
0
 10
63.755436042352748
 20
100.9878469187645
 30
0.0
  0
VERTEX
  5
BB11
  8
0
 10
63.779434619772637
 20
100.7952974863706
 30
0.0
  0
VERTEX
  5
BB12
  8
0
 10
63.80299986883319
 20
100.5859335092817
 30
0.0
  0
VERTEX
  5
BB13
  8
0
 10
63.825993877371438
 20
100.360734220691
 30
0.0
  0
VERTEX
  5
BB14
  8
0
 10
63.847379850906627
 20
100.13114996874729
 30
0.0
  0
VERTEX
  5
BB15
  8
0
 10
63.868159900649118
 20
99.887747192103234
 30
0.0
  0
VERTEX
  5
BB16
  8
0
 10
63.888363789295738
 20
99.629946097445114
 30
0.0
  0
VERTEX
  5
BB17
  8
0
 10
63.907878590078496
 20
99.358946967788313
 30
0.0
  0
VERTEX
  5
BB18
  8
0
 10
63.927003082030922
 20
99.069834934559594
 30
0.0
  0
VERTEX
  5
BB19
  8
0
 10
63.945334202042822
 20
98.767895548081114
 30
0.0
  0
VERTEX
  5
BB1A
  8
0
 10
63.962896949996718
 20
98.452415742162827
 30
0.0
  0
VERTEX
  5
BB1B
  8
0
 10
63.979583791000827
 20
98.125008680803319
 30
0.0
  0
VERTEX
  5
BB1C
  8
0
 10
64.000000000000057
 20
97.680295231026676
 30
0.0
  0
SEQEND
  5
BB1D
  8
0
  0
CIRCLE
  5
B77B
  8
0
 10
146.0
 20
152.0
 30
0.0
 40
0.75
  0
CIRCLE
  5
B77C
  8
0
 10
141.0
 20
152.0
 30
0.0
 40
0.75
  0
CIRCLE
  5
B77D
  8
0
 10
136.0
 20
152.0
 30
0.0
 40
0.75
  0
CIRCLE
  5
B77E
  8
0
 10
138.5
 20
152.0
 30
0.0
 40
0.75
  0
CIRCLE
  5
B77F
  8
0
 10
143.5000000000002
 20
152.0
 30
0.0
 40
0.75
  0
LINE
  5
B7E6
  8
3
 10
138.04435332253121
 20
68.0
 30
0.0
 11
136.9973736656442
 21
69.046979656886833
 31
0.0
  0
LINE
  5
B7E7
  8
0
 10
145.0
 20
70.0
 30
0.0
 11
145.0
 21
42.165063509461113
 31
0.0
  0
LINE
  5
B7E8
  8
3
 10
143.953020343113
 20
68.0
 30
0.0
 11
143.95302034311311
 21
40.35164154924189
 31
0.0
  0
LINE
  5
B7E9
  8
3
 10
138.04697965688689
 20
68.0
 30
0.0
 11
138.04697965688689
 21
40.35164154924189
 31
0.0
  0
LINE
  5
B7EA
  8
0
 10
137.0
 20
70.0
 30
0.0
 11
137.0
 21
42.165063509461113
 31
0.0
  0
LINE
  5
B7EB
  8
0
 10
145.0
 20
42.165063509461113
 30
0.0
 11
143.75
 21
40.0
 31
0.0
  0
LINE
  5
B7EC
  8
0
 10
143.75
 20
40.0
 30
0.0
 11
138.25
 21
40.0
 31
0.0
  0
LINE
  5
B7ED
  8
0
 10
137.0
 20
42.165063509461113
 30
0.0
 11
145.0
 21
42.165063509461092
 31
0.0
  0
LINE
  5
B7EE
  8
0
 10
138.25
 20
40.0
 30
0.0
 11
137.0
 21
42.165063509461113
 31
0.0
  0
LINE
  5
B7EF
  8
3
 10
143.953020343113
 20
68.0
 30
0.0
 11
145.0
 21
69.046979656886833
 31
0.0
  0
LINE
  5
B7F0
  8
0
 10
145.0
 20
68.0
 30
0.0
 11
137.0
 21
68.0
 31
0.0
  0
LINE
  5
B7F1
  8
3
 10
56.544353322531236
 20
68.0
 30
0.0
 11
55.497373665644233
 21
69.046979656886833
 31
0.0
  0
LINE
  5
B7F2
  8
0
 10
63.50000000000005
 20
70.0
 30
0.0
 11
63.50000000000005
 21
42.165063509461113
 31
0.0
  0
LINE
  5
B7F3
  8
3
 10
62.453020343113003
 20
68.0
 30
0.0
 11
62.45302034311311
 21
40.35164154924189
 31
0.0
  0
LINE
  5
B7F4
  8
3
 10
56.546979656886919
 20
68.0
 30
0.0
 11
56.546979656886919
 21
40.35164154924189
 31
0.0
  0
LINE
  5
B7F5
  8
0
 10
55.500000000000028
 20
70.0
 30
0.0
 11
55.500000000000028
 21
42.165063509461113
 31
0.0
  0
LINE
  5
B7F6
  8
0
 10
63.50000000000005
 20
42.165063509461113
 30
0.0
 11
62.25000000000005
 21
40.0
 31
0.0
  0
LINE
  5
B7F7
  8
0
 10
62.25000000000005
 20
40.0
 30
0.0
 11
56.750000000000028
 21
40.0
 31
0.0
  0
LINE
  5
B7F8
  8
0
 10
55.500000000000028
 20
42.165063509461113
 30
0.0
 11
63.50000000000005
 21
42.165063509461092
 31
0.0
  0
LINE
  5
B7F9
  8
0
 10
56.750000000000028
 20
40.0
 30
0.0
 11
55.500000000000028
 21
42.165063509461113
 31
0.0
  0
LINE
  5
B7FA
  8
3
 10
62.453020343113003
 20
68.0
 30
0.0
 11
63.50000000000005
 21
69.046979656886833
 31
0.0
  0
LINE
  5
B7FB
  8
0
 10
63.50000000000005
 20
68.0
 30
0.0
 11
55.500000000000028
 21
68.0
 31
0.0
  0
ENDSEC
  0
EOF
