  0
SECTION
  2
HEADER
  9
$ACADVER
  1
AC1009
  9
$INSBASE
 10
0.0
 20
0.0
 30
0.0
  9
$EXTMIN
 10
0.0
 20
-2.960436562073669
 30
-0.0000000000000016
  9
$EXTMAX
 10
180.21319332582871
 20
184.79662317673819
 30
0.0
  9
$LIMMIN
 10
0.0
 20
0.0
  9
$LIMMAX
 10
187.5
 20
135.0
  9
$ORTHOMODE
 70
     1
  9
$REGENMODE
 70
     1
  9
$FILLMODE
 70
     1
  9
$QTEXTMODE
 70
     0
  9
$MIRRTEXT
 70
     0
  9
$DRAGMODE
 70
     2
  9
$LTSCALE
 40
5.0
  9
$OSMODE
 70
  3071
  9
$ATTMODE
 70
     1
  9
$TEXTSIZE
 40
0.2
  9
$TRACEWID
 40
0.05
  9
$TEXTSTYLE
  7
STANDARD
  9
$CLAYER
  8
0
  9
$CELTYPE
  6
BYLAYER
  9
$CECOLOR
 62
     6
  9
$DIMSCALE
 40
1.0
  9
$DIMASZ
 40
3.0
  9
$DIMEXO
 40
2.0
  9
$DIMDLI
 40
0.3799999999999999
  9
$DIMRND
 40
0.0
  9
$DIMDLE
 40
0.0
  9
$DIMEXE
 40
2.0
  9
$DIMTP
 40
0.0
  9
$DIMTM
 40
0.0
  9
$DIMTXT
 40
3.2000000000000002
  9
$DIMCEN
 40
0.09
  9
$DIMTSZ
 40
0.0
  9
$DIMTOL
 70
     0
  9
$DIMLIM
 70
     0
  9
$DIMTIH
 70
     0
  9
$DIMTOH
 70
     0
  9
$DIMSE1
 70
     0
  9
$DIMSE2
 70
     0
  9
$DIMTAD
 70
     1
  9
$DIMZIN
 70
     8
  9
$DIMBLK
  1

  9
$DIMASO
 70
     0
  9
$DIMSHO
 70
     0
  9
$DIMPOST
  1

  9
$DIMAPOST
  1

  9
$DIMALT
 70
     0
  9
$DIMALTD
 70
     2
  9
$DIMALTF
 40
25.399999999999999
  9
$DIMLFAC
 40
1.0
  9
$DIMTOFL
 70
     0
  9
$DIMTVP
 40
1.6000000000000001
  9
$DIMTIX
 70
     1
  9
$DIMSOXD
 70
     0
  9
$DIMSAH
 70
     0
  9
$DIMBLK1
  1

  9
$DIMBLK2
  1

  9
$DIMSTYLE
  2
STANDARD
  9
$DIMCLRD
 70
     0
  9
$DIMCLRE
 70
     0
  9
$DIMCLRT
 70
     0
  9
$DIMTFAC
 40
1.0
  9
$DIMGAP
 40
1.0
  9
$LUNITS
 70
     2
  9
$LUPREC
 70
     4
  9
$SKETCHINC
 40
0.1
  9
$FILLETRAD
 40
0.4
  9
$AUNITS
 70
     0
  9
$AUPREC
 70
     0
  9
$MENU
  1
E:\r13\win\SUPPORT\ACAD
  9
$ELEVATION
 40
0.0
  9
$PELEVATION
 40
0.0
  9
$THICKNESS
 40
0.0
  9
$LIMCHECK
 70
     0
  9
$BLIPMODE
 70
     0
  9
$CHAMFERA
 40
0.0
  9
$CHAMFERB
 40
0.0
  9
$SKPOLY
 70
     0
  9
$TDCREATE
 40
2456129.6740617128
  9
$TDUPDATE
 40
2456598.6979565741
  9
$TDINDWG
 40
0.5085224074
  9
$TDUSRTIMER
 40
0.5085222338
  9
$USRTIMER
 70
     1
  9
$ANGBASE
 50
0.0
  9
$ANGDIR
 70
     0
  9
$PDMODE
 70
     0
  9
$PDSIZE
 40
0.0
  9
$PLINEWID
 40
0.0
  9
$COORDS
 70
     1
  9
$SPLFRAME
 70
     0
  9
$SPLINETYPE
 70
     6
  9
$SPLINESEGS
 70
     8
  9
$ATTDIA
 70
     0
  9
$ATTREQ
 70
     1
  9
$HANDLING
 70
     1
  9
$HANDSEED
  5
A477
  9
$SURFTAB1
 70
     6
  9
$SURFTAB2
 70
     6
  9
$SURFTYPE
 70
     6
  9
$SURFU
 70
     6
  9
$SURFV
 70
     6
  9
$UCSNAME
  2

  9
$UCSORG
 10
0.0
 20
0.0
 30
0.0
  9
$UCSXDIR
 10
1.0
 20
0.0
 30
0.0
  9
$UCSYDIR
 10
0.0
 20
1.0
 30
0.0
  9
$PUCSNAME
  2

  9
$PUCSORG
 10
0.0
 20
0.0
 30
0.0
  9
$PUCSXDIR
 10
1.0
 20
0.0
 30
0.0
  9
$PUCSYDIR
 10
0.0
 20
1.0
 30
0.0
  9
$USERI1
 70
     0
  9
$USERI2
 70
     1
  9
$USERI3
 70
     0
  9
$USERI4
 70
     0
  9
$USERI5
 70
     0
  9
$USERR1
 40
0.0
  9
$USERR2
 40
0.0
  9
$USERR3
 40
0.0
  9
$USERR4
 40
0.0
  9
$USERR5
 40
0.0
  9
$WORLDVIEW
 70
     1
  9
$SHADEDGE
 70
     3
  9
$SHADEDIF
 70
    70
  9
$TILEMODE
 70
     1
  9
$MAXACTVP
 70
    16
  9
$PLIMCHECK
 70
     0
  9
$PEXTMIN
 10
1.0000000000000000E+020
 20
1.0000000000000000E+020
 30
1.0000000000000000E+020
  9
$PEXTMAX
 10
-1.0000000000000000E+020
 20
-1.0000000000000000E+020
 30
-1.0000000000000000E+020
  9
$PLIMMIN
 10
0.0
 20
0.0
  9
$PLIMMAX
 10
12.0
 20
9.0
  9
$UNITMODE
 70
     0
  9
$VISRETAIN
 70
     0
  9
$PLINEGEN
 70
     0
  9
$PSLTSCALE
 70
     0
  0
ENDSEC
  0
SECTION
  2
TABLES
  0
TABLE
  2
VPORT
 70
     1
  0
VPORT
  2
*ACTIVE
 70
     0
 10
0.0
 20
0.0
 11
1.0
 21
1.0
 12
93.747139195326156
 22
115.9516809073157
 13
0.0
 23
0.0
 14
5.0
 24
5.0
 15
5.0
 25
5.0
 16
0.0
 26
0.0
 36
1.0
 17
0.0
 27
0.0
 37
0.0
 40
239.99442320719351
 41
1.831871345029239
 42
50.0
 43
0.0
 44
0.0
 50
0.0
 51
0.0
 71
     0
 72
   500
 73
     1
 74
     0
 75
     0
 76
     0
 77
     0
 78
     2
  0
ENDTAB
  0
TABLE
  2
LTYPE
 70
     4
  0
LTYPE
  2
CONTINUOUS
 70
     0
  3
Solid Line
 72
    65
 73
     0
 40
0.0
  0
LTYPE
  2
CENTER
 70
     0
  3
____ _ ____ _ ____ _ ____ _ ____ _ ____ _ ____
 72
    65
 73
     4
 40
2.0
 49
1.25
 49
-0.25
 49
0.25
 49
-0.25
  0
LTYPE
  2
HIDDEN
 70
     0
  3
__ __ __ __ __ __ __ __ __ __ __ __ __ __ __ __
 72
    65
 73
     2
 40
0.375
 49
0.25
 49
-0.125
  0
LTYPE
  2
PHANTOM2
 70
     0
  3
___ _ _ ___ _ _ ___ _ _ ___ _ _
 72
    65
 73
     6
 40
1.25
 49
0.625
 49
-0.125
 49
0.125
 49
-0.125
 49
0.125
 49
-0.125
  0
ENDTAB
  0
TABLE
  2
LAYER
 70
     4
  0
LAYER
  2
0
 70
     0
 62
     7
  6
CONTINUOUS
  0
LAYER
  2
1
 70
     0
 62
     1
  6
CENTER
  0
LAYER
  2
2
 70
     0
 62
     2
  6
HIDDEN
  0
LAYER
  2
DEFPOINTS
 70
     0
 62
     7
  6
CONTINUOUS
  0
ENDTAB
  0
TABLE
  2
STYLE
 70
     2
  0
STYLE
  2
STANDARD
 70
     0
 40
0.0
 41
1.0
 50
0.0
 71
     0
 42
0.2
  3
TXT
  4
BIGFONT
  0
STYLE
  2
STANDARD1
 70
     0
 40
0.0
 41
1.0
 50
0.0
 71
     0
 42
3.0
  3
txt
  4

  0
ENDTAB
  0
TABLE
  2
VIEW
 70
     0
  0
ENDTAB
  0
TABLE
  2
UCS
 70
     0
  0
ENDTAB
  0
TABLE
  2
APPID
 70
     7
  0
APPID
  2
ACAD
 70
     0
  0
APPID
  2
ACAD_MLEADERVER
 70
     0
  0
APPID
  2
ACAD_PSEXT
 70
     0
  0
APPID
  2
ACAD_EXEMPT_FROM_CAD_STANDARDS
 70
     0
  0
APPID
  2
ACAD_DSTYLE_DIMJAG
 70
     0
  0
APPID
  2
ACAD_DSTYLE_DIMTALN
 70
     0
  0
APPID
  2
ACAD_NAV_VCDISPLAY
 70
     0
  0
ENDTAB
  0
TABLE
  2
DIMSTYLE
 70
     1
  0
DIMSTYLE
  2
STANDARD
 70
     0
  3

  4

  5

  6

  7

 40
1.0
 41
0.18
 42
0.0625
 43
0.38
 44
0.18
 45
0.0
 46
0.0
 47
0.0
 48
0.0
140
0.18
141
0.09
142
0.0
143
25.399999999999999
144
1.0
145
0.0
146
1.0
147
0.09
 71
     0
 72
     0
 73
     1
 74
     1
 75
     0
 76
     0
 77
     0
 78
     0
170
     0
171
     2
172
     0
173
     0
174
     0
175
     0
176
     0
177
     0
178
     0
  0
ENDTAB
  0
ENDSEC
  0
SECTION
  2
BLOCKS
  0
BLOCK
  8
0
  2
$MODEL_SPACE
 70
     0
 10
0.0
 20
0.0
 30
0.0
  3
$MODEL_SPACE
  1

  0
ENDBLK
  5
9
  8
0
  0
BLOCK
 67
     1
  8
0
  2
$PAPER_SPACE
 70
     0
 10
0.0
 20
0.0
 30
0.0
  3
$PAPER_SPACE
  1

  0
ENDBLK
  5
E
 67
     1
  8
0
  0
ENDSEC
  0
SECTION
  2
ENTITIES
  0
LINE
  5
68C8
  8
1
 10
140.08466903454931
 20
71.795290332139075
 30
0.0
 11
140.08466903454931
 21
119.68165053278319
 31
0.0
  0
LINE
  5
68C9
  8
0
 10
116.2919089530341
 20
113.7384704324611
 30
0.0
 11
115.8846690345494
 21
113.7384704324611
 31
0.0
  0
ARC
  5
68CA
  8
0
 10
115.8846690345494
 20
102.9384704324611
 30
0.0
 40
10.800000000000001
 50
90.0
 51
248.5033330048735
  0
LINE
  5
68CB
  8
0
 10
164.28466903454941
 20
113.7384704324611
 30
0.0
 11
163.87742911606469
 21
113.7384704324611
 31
0.0
  0
ARC
  5
68CC
  8
0
 10
164.28466903454941
 20
102.9384704324611
 30
0.0
 40
10.80000000000001
 50
291.49666699512647
 51
90.0
  0
ARC
  5
68CD
  8
0
 10
153.61697474645581
 20
172.11637689229039
 30
0.0
 40
89.526041666666103
 50
242.2461603245753
 51
254.76050568516891
  0
ARC
  5
68CE
  8
0
 10
126.5523633226433
 20
172.11637689228931
 30
0.0
 40
89.52604166666498
 50
285.23949431483118
 51
297.75383967542467
  0
LINE
  5
68CF
  8
0
 10
130.08466903454931
 20
85.738470432461156
 30
0.0
 11
130.08466903454931
 21
77.738470432461156
 31
0.0
  0
LINE
  5
68D0
  8
0
 10
150.08466903454931
 20
77.738470432461156
 30
0.0
 11
150.08466903454931
 21
85.738470432461156
 31
0.0
  0
LINE
  5
68D1
  8
0
 10
131.71348642019899
 20
110.4887317111441
 30
0.0
 11
148.4558516488998
 21
110.4887317111441
 31
0.0
  0
LINE
  5
68D2
  8
0
 10
150.08466903454931
 20
77.738470432461156
 30
0.0
 11
130.08466903454931
 21
77.738470432461156
 31
0.0
  0
POLYLINE
  5
68D3
  8
0
 66
     1
 10
0.0
 20
0.0
 30
0.0
  0
VERTEX
  5
A07F
  8
0
 10
128.11016800527381
 20
110.9189258043497
 30
0.0
  0
VERTEX
  5
A080
  8
0
 10
128.22226243844449
 20
110.8983265278536
 30
0.0
  0
VERTEX
  5
A081
  8
0
 10
128.44992348089531
 20
110.85763499830701
 30
0.0
  0
VERTEX
  5
A082
  8
0
 10
128.68091455141959
 20
110.81791432968249
 30
0.0
  0
VERTEX
  5
A083
  8
0
 10
128.79716950106231
 20
110.79852290684001
 30
0.0
  0
VERTEX
  5
A084
  8
0
 10
128.91367394430429
 20
110.7794961251666
 30
0.0
  0
VERTEX
  5
A085
  8
0
 10
129.1466799819903
 20
110.74268037607131
 30
0.0
  0
VERTEX
  5
A086
  8
0
 10
129.37842606239809
 20
110.70774057951201
 30
0.0
  0
VERTEX
  5
A087
  8
0
 10
129.60741902391641
 20
110.67492399887
 30
0.0
  0
VERTEX
  5
A088
  8
0
 10
129.832297188692
 20
110.64443546440189
 30
0.0
  0
VERTEX
  5
A089
  8
0
 10
130.05183668858791
 20
110.6164400273361
 30
0.0
  0
VERTEX
  5
A08A
  8
0
 10
130.15918723600211
 20
110.60342741343921
 30
0.0
  0
VERTEX
  5
A08B
  8
0
 10
130.26471018685481
 20
110.5910941481587
 30
0.0
  0
VERTEX
  5
A08C
  8
0
 10
130.46967155001281
 20
110.5685186018065
 30
0.0
  0
VERTEX
  5
A08D
  8
0
 10
130.665591149242
 20
110.5487944046741
 30
0.0
  0
VERTEX
  5
A08E
  8
0
 10
130.85142515411559
 20
110.53196565964799
 30
0.0
  0
VERTEX
  5
A08F
  8
0
 10
131.02625933270409
 20
110.5180340849541
 30
0.0
  0
VERTEX
  5
A090
  8
0
 10
131.1929522206166
 20
110.5067341234235
 30
0.0
  0
VERTEX
  5
A091
  8
0
 10
131.2738647256536
 20
110.5020462935875
 30
0.0
  0
VERTEX
  5
A092
  8
0
 10
131.3528873458875
 20
110.49803325317311
 30
0.0
  0
VERTEX
  5
A093
  8
0
 10
131.5045225572841
 20
110.49211373925959
 30
0.0
  0
VERTEX
  5
A094
  8
0
 10
131.64649766744739
 20
110.48911028740589
 30
0.0
  0
VERTEX
  5
A095
  8
0
 10
131.71348642019899
 20
110.4887317111441
 30
0.0
  0
SEQEND
  5
A096
  8
0
  0
POLYLINE
  5
68D4
  8
0
 66
     1
 10
0.0
 20
0.0
 30
0.0
  0
VERTEX
  5
A097
  8
0
 10
148.4558516488998
 20
110.4887317111441
 30
0.0
  0
VERTEX
  5
A098
  8
0
 10
148.5196097662236
 20
110.48907537255489
 30
0.0
  0
VERTEX
  5
A099
  8
0
 10
148.6569355139535
 20
110.4918773959168
 30
0.0
  0
VERTEX
  5
A09A
  8
0
 10
148.80694496868711
 20
110.4975907453166
 30
0.0
  0
VERTEX
  5
A09B
  8
0
 10
148.88651410500501
 20
110.50156225959429
 30
0.0
  0
VERTEX
  5
A09C
  8
0
 10
148.96900496104601
 20
110.5062835904789
 30
0.0
  0
VERTEX
  5
A09D
  8
0
 10
149.14233877408449
 20
110.51797942305851
 30
0.0
  0
VERTEX
  5
A09E
  8
0
 10
149.32601207554009
 20
110.53265769652261
 30
0.0
  0
VERTEX
  5
A09F
  8
0
 10
149.51893467815751
 20
110.5502537850775
 30
0.0
  0
VERTEX
  5
A0A0
  8
0
 10
149.7199847409147
 20
110.570671353691
 30
0.0
  0
VERTEX
  5
A0A1
  8
0
 10
149.92799457300251
 20
110.5937850149375
 30
0.0
  0
VERTEX
  5
A0A2
  8
0
 10
150.0341727022554
 20
110.60629917723961
 30
0.0
  0
VERTEX
  5
A0A3
  8
0
 10
150.1415535101612
 20
110.6194179268839
 30
0.0
  0
VERTEX
  5
A0A4
  8
0
 10
150.35916276705271
 20
110.6473553850883
 30
0.0
  0
VERTEX
  5
A0A5
  8
0
 10
150.57926118186921
 20
110.67734800796021
 30
0.0
  0
VERTEX
  5
A0A6
  8
0
 10
150.80018851943291
 20
110.7091062797202
 30
0.0
  0
VERTEX
  5
A0A7
  8
0
 10
151.02048196763911
 20
110.74234442209119
 30
0.0
  0
VERTEX
  5
A0A8
  8
0
 10
151.24463669223701
 20
110.7777163990517
 30
0.0
  0
VERTEX
  5
A0A9
  8
0
 10
151.35867834568791
 20
110.7962988815101
 30
0.0
  0
VERTEX
  5
A0AA
  8
0
 10
151.47379159994591
 20
110.81545154795189
 30
0.0
  0
VERTEX
  5
A0AB
  8
0
 10
151.70651295596039
 20
110.85537484443979
 30
0.0
  0
VERTEX
  5
A0AC
  8
0
 10
151.94137750652911
 20
110.8972893576223
 30
0.0
  0
VERTEX
  5
A0AD
  8
0
 10
152.05917006382501
 20
110.9189258043497
 30
0.0
  0
SEQEND
  5
A0AE
  8
0
  0
POLYLINE
  5
68D5
  8
0
 10
152.05917006382478
 20
110.91892580434973
 30
0.0
 66
     1
 70
     8
  0
VERTEX
  8
0
  5
A26F
 10
152.059
 20
110.919
 30
0.000000
  70
    32
  0
VERTEX
  8
0
  5
A270
 10
152.114
 20
110.929
 30
0.000000
  70
    32
  0
VERTEX
  8
0
  5
A271
 10
152.169
 20
110.939
 30
0.000000
  70
    32
  0
VERTEX
  8
0
  5
A272
 10
152.224
 20
110.950
 30
0.000000
  70
    32
  0
VERTEX
  8
0
  5
A273
 10
152.279
 20
110.960
 30
0.000000
  70
    32
  0
VERTEX
  8
0
  5
A274
 10
152.334
 20
110.970
 30
0.000000
  70
    32
  0
VERTEX
  8
0
  5
A275
 10
152.389
 20
110.981
 30
0.000000
  70
    32
  0
VERTEX
  8
0
  5
A276
 10
152.444
 20
110.991
 30
0.000000
  70
    32
  0
VERTEX
  8
0
  5
A277
 10
152.499
 20
111.002
 30
0.000000
  70
    32
  0
VERTEX
  8
0
  5
A278
 10
152.554
 20
111.013
 30
0.000000
  70
    32
  0
VERTEX
  8
0
  5
A279
 10
152.609
 20
111.023
 30
0.000000
  70
    32
  0
VERTEX
  8
0
  5
A27A
 10
152.664
 20
111.034
 30
0.000000
  70
    32
  0
VERTEX
  8
0
  5
A27B
 10
152.719
 20
111.045
 30
0.000000
  70
    32
  0
VERTEX
  8
0
  5
A27C
 10
152.773
 20
111.055
 30
0.000000
  70
    32
  0
VERTEX
  8
0
  5
A27D
 10
152.828
 20
111.066
 30
0.000000
  70
    32
  0
VERTEX
  8
0
  5
A27E
 10
152.883
 20
111.077
 30
0.000000
  70
    32
  0
VERTEX
  8
0
  5
A27F
 10
152.938
 20
111.088
 30
0.000000
  70
    32
  0
VERTEX
  8
0
  5
A280
 10
152.993
 20
111.099
 30
0.000000
  70
    32
  0
VERTEX
  8
0
  5
A281
 10
153.048
 20
111.110
 30
0.000000
  70
    32
  0
VERTEX
  8
0
  5
A282
 10
153.103
 20
111.121
 30
0.000000
  70
    32
  0
VERTEX
  8
0
  5
A283
 10
153.157
 20
111.132
 30
0.000000
  70
    32
  0
VERTEX
  8
0
  5
A284
 10
153.212
 20
111.143
 30
0.000000
  70
    32
  0
VERTEX
  8
0
  5
A285
 10
153.267
 20
111.154
 30
0.000000
  70
    32
  0
VERTEX
  8
0
  5
A286
 10
153.322
 20
111.166
 30
0.000000
  70
    32
  0
VERTEX
  8
0
  5
A287
 10
153.377
 20
111.177
 30
0.000000
  70
    32
  0
VERTEX
  8
0
  5
A288
 10
153.431
 20
111.188
 30
0.000000
  70
    32
  0
VERTEX
  8
0
  5
A289
 10
153.486
 20
111.200
 30
0.000000
  70
    32
  0
VERTEX
  8
0
  5
A28A
 10
153.541
 20
111.211
 30
0.000000
  70
    32
  0
VERTEX
  8
0
  5
A28B
 10
153.596
 20
111.223
 30
0.000000
  70
    32
  0
VERTEX
  8
0
  5
A28C
 10
153.650
 20
111.234
 30
0.000000
  70
    32
  0
VERTEX
  8
0
  5
A28D
 10
153.705
 20
111.246
 30
0.000000
  70
    32
  0
VERTEX
  8
0
  5
A28E
 10
153.760
 20
111.257
 30
0.000000
  70
    32
  0
VERTEX
  8
0
  5
A28F
 10
153.815
 20
111.269
 30
0.000000
  70
    32
  0
VERTEX
  8
0
  5
A290
 10
153.869
 20
111.281
 30
0.000000
  70
    32
  0
VERTEX
  8
0
  5
A291
 10
153.924
 20
111.292
 30
0.000000
  70
    32
  0
VERTEX
  8
0
  5
A292
 10
153.979
 20
111.304
 30
0.000000
  70
    32
  0
VERTEX
  8
0
  5
A293
 10
154.033
 20
111.316
 30
0.000000
  70
    32
  0
VERTEX
  8
0
  5
A294
 10
154.088
 20
111.328
 30
0.000000
  70
    32
  0
VERTEX
  8
0
  5
A295
 10
154.143
 20
111.340
 30
0.000000
  70
    32
  0
VERTEX
  8
0
  5
A296
 10
154.197
 20
111.352
 30
0.000000
  70
    32
  0
VERTEX
  8
0
  5
A297
 10
154.252
 20
111.364
 30
0.000000
  70
    32
  0
VERTEX
  8
0
  5
A298
 10
154.307
 20
111.376
 30
0.000000
  70
    32
  0
VERTEX
  8
0
  5
A299
 10
154.361
 20
111.388
 30
0.000000
  70
    32
  0
VERTEX
  8
0
  5
A29A
 10
154.416
 20
111.400
 30
0.000000
  70
    32
  0
VERTEX
  8
0
  5
A29B
 10
154.470
 20
111.412
 30
0.000000
  70
    32
  0
VERTEX
  8
0
  5
A29C
 10
154.525
 20
111.424
 30
0.000000
  70
    32
  0
VERTEX
  8
0
  5
A29D
 10
154.580
 20
111.437
 30
0.000000
  70
    32
  0
VERTEX
  8
0
  5
A29E
 10
154.634
 20
111.449
 30
0.000000
  70
    32
  0
VERTEX
  8
0
  5
A29F
 10
154.689
 20
111.461
 30
0.000000
  70
    32
  0
VERTEX
  8
0
  5
A2A0
 10
154.743
 20
111.474
 30
0.000000
  70
    32
  0
VERTEX
  8
0
  5
A2A1
 10
154.798
 20
111.486
 30
0.000000
  70
    32
  0
VERTEX
  8
0
  5
A2A2
 10
154.852
 20
111.499
 30
0.000000
  70
    32
  0
VERTEX
  8
0
  5
A2A3
 10
154.907
 20
111.511
 30
0.000000
  70
    32
  0
VERTEX
  8
0
  5
A2A4
 10
154.961
 20
111.524
 30
0.000000
  70
    32
  0
VERTEX
  8
0
  5
A2A5
 10
155.016
 20
111.537
 30
0.000000
  70
    32
  0
VERTEX
  8
0
  5
A2A6
 10
155.070
 20
111.549
 30
0.000000
  70
    32
  0
VERTEX
  8
0
  5
A2A7
 10
155.125
 20
111.562
 30
0.000000
  70
    32
  0
VERTEX
  8
0
  5
A2A8
 10
155.179
 20
111.575
 30
0.000000
  70
    32
  0
VERTEX
  8
0
  5
A2A9
 10
155.234
 20
111.588
 30
0.000000
  70
    32
  0
VERTEX
  8
0
  5
A2AA
 10
155.288
 20
111.601
 30
0.000000
  70
    32
  0
VERTEX
  8
0
  5
A2AB
 10
155.342
 20
111.614
 30
0.000000
  70
    32
  0
VERTEX
  8
0
  5
A2AC
 10
155.397
 20
111.627
 30
0.000000
  70
    32
  0
VERTEX
  8
0
  5
A2AD
 10
155.451
 20
111.640
 30
0.000000
  70
    32
  0
VERTEX
  8
0
  5
A2AE
 10
155.506
 20
111.653
 30
0.000000
  70
    32
  0
VERTEX
  8
0
  5
A2AF
 10
155.560
 20
111.666
 30
0.000000
  70
    32
  0
VERTEX
  8
0
  5
A2B0
 10
155.614
 20
111.679
 30
0.000000
  70
    32
  0
VERTEX
  8
0
  5
A2B1
 10
155.669
 20
111.692
 30
0.000000
  70
    32
  0
VERTEX
  8
0
  5
A2B2
 10
155.723
 20
111.705
 30
0.000000
  70
    32
  0
VERTEX
  8
0
  5
A2B3
 10
155.777
 20
111.719
 30
0.000000
  70
    32
  0
VERTEX
  8
0
  5
A2B4
 10
155.832
 20
111.732
 30
0.000000
  70
    32
  0
VERTEX
  8
0
  5
A2B5
 10
155.886
 20
111.745
 30
0.000000
  70
    32
  0
VERTEX
  8
0
  5
A2B6
 10
155.940
 20
111.759
 30
0.000000
  70
    32
  0
VERTEX
  8
0
  5
A2B7
 10
155.995
 20
111.772
 30
0.000000
  70
    32
  0
VERTEX
  8
0
  5
A2B8
 10
156.049
 20
111.786
 30
0.000000
  70
    32
  0
VERTEX
  8
0
  5
A2B9
 10
156.103
 20
111.799
 30
0.000000
  70
    32
  0
VERTEX
  8
0
  5
A2BA
 10
156.157
 20
111.813
 30
0.000000
  70
    32
  0
VERTEX
  8
0
  5
A2BB
 10
156.212
 20
111.827
 30
0.000000
  70
    32
  0
VERTEX
  8
0
  5
A2BC
 10
156.266
 20
111.840
 30
0.000000
  70
    32
  0
VERTEX
  8
0
  5
A2BD
 10
156.320
 20
111.854
 30
0.000000
  70
    32
  0
VERTEX
  8
0
  5
A2BE
 10
156.374
 20
111.868
 30
0.000000
  70
    32
  0
VERTEX
  8
0
  5
A2BF
 10
156.429
 20
111.882
 30
0.000000
  70
    32
  0
VERTEX
  8
0
  5
A2C0
 10
156.483
 20
111.896
 30
0.000000
  70
    32
  0
VERTEX
  8
0
  5
A2C1
 10
156.537
 20
111.910
 30
0.000000
  70
    32
  0
VERTEX
  8
0
  5
A2C2
 10
156.591
 20
111.924
 30
0.000000
  70
    32
  0
VERTEX
  8
0
  5
A2C3
 10
156.645
 20
111.938
 30
0.000000
  70
    32
  0
VERTEX
  8
0
  5
A2C4
 10
156.699
 20
111.952
 30
0.000000
  70
    32
  0
VERTEX
  8
0
  5
A2C5
 10
156.754
 20
111.966
 30
0.000000
  70
    32
  0
VERTEX
  8
0
  5
A2C6
 10
156.808
 20
111.980
 30
0.000000
  70
    32
  0
VERTEX
  8
0
  5
A2C7
 10
156.862
 20
111.994
 30
0.000000
  70
    32
  0
VERTEX
  8
0
  5
A2C8
 10
156.916
 20
112.008
 30
0.000000
  70
    32
  0
VERTEX
  8
0
  5
A2C9
 10
156.970
 20
112.023
 30
0.000000
  70
    32
  0
VERTEX
  8
0
  5
A2CA
 10
157.024
 20
112.037
 30
0.000000
  70
    32
  0
VERTEX
  8
0
  5
A2CB
 10
157.078
 20
112.051
 30
0.000000
  70
    32
  0
VERTEX
  8
0
  5
A2CC
 10
157.132
 20
112.066
 30
0.000000
  70
    32
  0
VERTEX
  8
0
  5
A2CD
 10
157.186
 20
112.080
 30
0.000000
  70
    32
  0
VERTEX
  8
0
  5
A2CE
 10
157.240
 20
112.095
 30
0.000000
  70
    32
  0
VERTEX
  8
0
  5
A2CF
 10
157.294
 20
112.109
 30
0.000000
  70
    32
  0
VERTEX
  8
0
  5
A2D0
 10
157.348
 20
112.124
 30
0.000000
  70
    32
  0
VERTEX
  8
0
  5
A2D1
 10
157.402
 20
112.139
 30
0.000000
  70
    32
  0
VERTEX
  8
0
  5
A2D2
 10
157.456
 20
112.153
 30
0.000000
  70
    32
  0
VERTEX
  8
0
  5
A2D3
 10
157.510
 20
112.168
 30
0.000000
  70
    32
  0
VERTEX
  8
0
  5
A2D4
 10
157.564
 20
112.183
 30
0.000000
  70
    32
  0
VERTEX
  8
0
  5
A2D5
 10
157.618
 20
112.198
 30
0.000000
  70
    32
  0
VERTEX
  8
0
  5
A2D6
 10
157.672
 20
112.213
 30
0.000000
  70
    32
  0
VERTEX
  8
0
  5
A2D7
 10
157.726
 20
112.228
 30
0.000000
  70
    32
  0
VERTEX
  8
0
  5
A2D8
 10
157.780
 20
112.243
 30
0.000000
  70
    32
  0
VERTEX
  8
0
  5
A2D9
 10
157.834
 20
112.258
 30
0.000000
  70
    32
  0
VERTEX
  8
0
  5
A2DA
 10
157.888
 20
112.273
 30
0.000000
  70
    32
  0
VERTEX
  8
0
  5
A2DB
 10
157.941
 20
112.288
 30
0.000000
  70
    32
  0
VERTEX
  8
0
  5
A2DC
 10
157.995
 20
112.303
 30
0.000000
  70
    32
  0
VERTEX
  8
0
  5
A2DD
 10
158.049
 20
112.318
 30
0.000000
  70
    32
  0
VERTEX
  8
0
  5
A2DE
 10
158.103
 20
112.333
 30
0.000000
  70
    32
  0
VERTEX
  8
0
  5
A2DF
 10
158.157
 20
112.349
 30
0.000000
  70
    32
  0
VERTEX
  8
0
  5
A2E0
 10
158.210
 20
112.364
 30
0.000000
  70
    32
  0
VERTEX
  8
0
  5
A2E1
 10
158.264
 20
112.379
 30
0.000000
  70
    32
  0
VERTEX
  8
0
  5
A2E2
 10
158.318
 20
112.395
 30
0.000000
  70
    32
  0
VERTEX
  8
0
  5
A2E3
 10
158.372
 20
112.410
 30
0.000000
  70
    32
  0
VERTEX
  8
0
  5
A2E4
 10
158.426
 20
112.426
 30
0.000000
  70
    32
  0
VERTEX
  8
0
  5
A2E5
 10
158.479
 20
112.441
 30
0.000000
  70
    32
  0
VERTEX
  8
0
  5
A2E6
 10
158.533
 20
112.457
 30
0.000000
  70
    32
  0
VERTEX
  8
0
  5
A2E7
 10
158.587
 20
112.473
 30
0.000000
  70
    32
  0
VERTEX
  8
0
  5
A2E8
 10
158.640
 20
112.488
 30
0.000000
  70
    32
  0
VERTEX
  8
0
  5
A2E9
 10
158.694
 20
112.504
 30
0.000000
  70
    32
  0
VERTEX
  8
0
  5
A2EA
 10
158.748
 20
112.520
 30
0.000000
  70
    32
  0
VERTEX
  8
0
  5
A2EB
 10
158.801
 20
112.536
 30
0.000000
  70
    32
  0
VERTEX
  8
0
  5
A2EC
 10
158.855
 20
112.552
 30
0.000000
  70
    32
  0
VERTEX
  8
0
  5
A2ED
 10
158.909
 20
112.567
 30
0.000000
  70
    32
  0
VERTEX
  8
0
  5
A2EE
 10
158.962
 20
112.583
 30
0.000000
  70
    32
  0
VERTEX
  8
0
  5
A2EF
 10
159.016
 20
112.599
 30
0.000000
  70
    32
  0
SEQEND
  8
0
  5
A2F0
  0
POLYLINE
  5
68D6
  8
0
 66
     1
 10
0.0
 20
0.0
 30
0.0
  0
VERTEX
  5
A0AF
  8
0
 10
159.01591013913611
 20
112.5994204856968
 30
0.0
  0
VERTEX
  5
A0B0
  8
0
 10
159.1410989264329
 20
112.6604166048528
 30
0.0
  0
VERTEX
  5
A0B1
  8
0
 10
159.3906047206226
 20
112.7762167552511
 30
0.0
  0
VERTEX
  5
A0B2
  8
0
 10
159.63802317501299
 20
112.8836766311328
 30
0.0
  0
VERTEX
  5
A0B3
  8
0
 10
159.76090930409279
 20
112.9343930316597
 30
0.0
  0
VERTEX
  5
A0B4
  8
0
 10
159.8854121859903
 20
112.984014825489
 30
0.0
  0
VERTEX
  5
A0B5
  8
0
 10
160.1401643743483
 20
113.08012720441261
 30
0.0
  0
VERTEX
  5
A0B6
  8
0
 10
160.4018686104807
 20
113.17145060619259
 30
0.0
  0
VERTEX
  5
A0B7
  8
0
 10
160.669647169337
 20
113.257318498844
 30
0.0
  0
VERTEX
  5
A0B8
  8
0
 10
160.9426006237945
 20
113.33714907580369
 30
0.0
  0
VERTEX
  5
A0B9
  8
0
 10
161.2198047501218
 20
113.41044549563389
 30
0.0
  0
VERTEX
  5
A0BA
  8
0
 10
161.35970331154201
 20
113.44451122573081
 30
0.0
  0
VERTEX
  5
A0BB
  8
0
 10
161.5003043680866
 20
113.476795757652
 30
0.0
  0
VERTEX
  5
A0BC
  8
0
 10
161.78312276916921
 20
113.5358765199654
 30
0.0
  0
VERTEX
  5
A0BD
  8
0
 10
162.06730835632419
 20
113.5874615380859
 30
0.0
  0
VERTEX
  5
A0BE
  8
0
 10
162.3518778130252
 20
113.6314079557648
 30
0.0
  0
VERTEX
  5
A0BF
  8
0
 10
162.6358015915645
 20
113.6676567282413
 30
0.0
  0
VERTEX
  5
A0C0
  8
0
 10
162.91803940613119
 20
113.69623967188539
 30
0.0
  0
VERTEX
  5
A0C1
  8
0
 10
163.0582003580183
 20
113.7076912051633
 30
0.0
  0
VERTEX
  5
A0C2
  8
0
 10
163.1975477616873
 20
113.7172790602808
 30
0.0
  0
VERTEX
  5
A0C3
  8
0
 10
163.47327136476869
 20
113.7309853996028
 30
0.0
  0
VERTEX
  5
A0C4
  8
0
 10
163.74414459431981
 20
113.7376564987856
 30
0.0
  0
VERTEX
  5
A0C5
  8
0
 10
163.87742911606469
 20
113.7384704324611
 30
0.0
  0
SEQEND
  5
A0C6
  8
0
  0
POLYLINE
  5
68D7
  8
0
 66
     1
 10
0.0
 20
0.0
 30
0.0
  0
VERTEX
  5
A0C7
  8
0
 10
121.1534279299627
 20
112.5994204856968
 30
0.0
  0
VERTEX
  5
A0C8
  8
0
 10
121.0282391426659
 20
112.6604166048528
 30
0.0
  0
VERTEX
  5
A0C9
  8
0
 10
120.77873334847609
 20
112.7762167552511
 30
0.0
  0
VERTEX
  5
A0CA
  8
0
 10
120.5313148940858
 20
112.8836766311328
 30
0.0
  0
VERTEX
  5
A0CB
  8
0
 10
120.40842876500599
 20
112.9343930316597
 30
0.0
  0
VERTEX
  5
A0CC
  8
0
 10
120.2839258831083
 20
112.984014825489
 30
0.0
  0
VERTEX
  5
A0CD
  8
0
 10
120.0291736947505
 20
113.08012720441261
 30
0.0
  0
VERTEX
  5
A0CE
  8
0
 10
119.767469458618
 20
113.17145060619259
 30
0.0
  0
VERTEX
  5
A0CF
  8
0
 10
119.4996908997618
 20
113.257318498844
 30
0.0
  0
VERTEX
  5
A0D0
  8
0
 10
119.22673744530429
 20
113.33714907580369
 30
0.0
  0
VERTEX
  5
A0D1
  8
0
 10
118.949533318977
 20
113.41044549563389
 30
0.0
  0
VERTEX
  5
A0D2
  8
0
 10
118.80963475755669
 20
113.44451122573081
 30
0.0
  0
VERTEX
  5
A0D3
  8
0
 10
118.6690337010121
 20
113.476795757652
 30
0.0
  0
VERTEX
  5
A0D4
  8
0
 10
118.3862152999296
 20
113.5358765199654
 30
0.0
  0
VERTEX
  5
A0D5
  8
0
 10
118.1020297127745
 20
113.5874615380859
 30
0.0
  0
VERTEX
  5
A0D6
  8
0
 10
117.8174602560736
 20
113.6314079557648
 30
0.0
  0
VERTEX
  5
A0D7
  8
0
 10
117.5335364775341
 20
113.6676567282413
 30
0.0
  0
VERTEX
  5
A0D8
  8
0
 10
117.2512986629676
 20
113.69623967188539
 30
0.0
  0
VERTEX
  5
A0D9
  8
0
 10
117.1111377110805
 20
113.7076912051633
 30
0.0
  0
VERTEX
  5
A0DA
  8
0
 10
116.9717903074114
 20
113.7172790602808
 30
0.0
  0
VERTEX
  5
A0DB
  8
0
 10
116.69606670433009
 20
113.7309853996028
 30
0.0
  0
VERTEX
  5
A0DC
  8
0
 10
116.42519347477889
 20
113.7376564987856
 30
0.0
  0
VERTEX
  5
A0DD
  8
0
 10
116.2919089530341
 20
113.7384704324611
 30
0.0
  0
SEQEND
  5
A0DE
  8
0
  0
POLYLINE
  5
68D8
  8
0
 10
121.15342792996258
 20
112.59942048569678
 30
0.0
 66
     1
 70
     8
  0
VERTEX
  8
0
  5
A2F1
 10
121.153
 20
112.599
 30
0.000000
  70
    32
  0
VERTEX
  8
0
  5
A2F2
 10
121.207
 20
112.583
 30
0.000000
  70
    32
  0
VERTEX
  8
0
  5
A2F3
 10
121.261
 20
112.567
 30
0.000000
  70
    32
  0
VERTEX
  8
0
  5
A2F4
 10
121.314
 20
112.552
 30
0.000000
  70
    32
  0
VERTEX
  8
0
  5
A2F5
 10
121.368
 20
112.536
 30
0.000000
  70
    32
  0
VERTEX
  8
0
  5
A2F6
 10
121.422
 20
112.520
 30
0.000000
  70
    32
  0
VERTEX
  8
0
  5
A2F7
 10
121.475
 20
112.504
 30
0.000000
  70
    32
  0
VERTEX
  8
0
  5
A2F8
 10
121.529
 20
112.488
 30
0.000000
  70
    32
  0
VERTEX
  8
0
  5
A2F9
 10
121.583
 20
112.473
 30
0.000000
  70
    32
  0
VERTEX
  8
0
  5
A2FA
 10
121.636
 20
112.457
 30
0.000000
  70
    32
  0
VERTEX
  8
0
  5
A2FB
 10
121.690
 20
112.441
 30
0.000000
  70
    32
  0
VERTEX
  8
0
  5
A2FC
 10
121.744
 20
112.426
 30
0.000000
  70
    32
  0
VERTEX
  8
0
  5
A2FD
 10
121.798
 20
112.410
 30
0.000000
  70
    32
  0
VERTEX
  8
0
  5
A2FE
 10
121.851
 20
112.395
 30
0.000000
  70
    32
  0
VERTEX
  8
0
  5
A2FF
 10
121.905
 20
112.379
 30
0.000000
  70
    32
  0
VERTEX
  8
0
  5
A300
 10
121.959
 20
112.364
 30
0.000000
  70
    32
  0
VERTEX
  8
0
  5
A301
 10
122.013
 20
112.349
 30
0.000000
  70
    32
  0
VERTEX
  8
0
  5
A302
 10
122.066
 20
112.333
 30
0.000000
  70
    32
  0
VERTEX
  8
0
  5
A303
 10
122.120
 20
112.318
 30
0.000000
  70
    32
  0
VERTEX
  8
0
  5
A304
 10
122.174
 20
112.303
 30
0.000000
  70
    32
  0
VERTEX
  8
0
  5
A305
 10
122.228
 20
112.288
 30
0.000000
  70
    32
  0
VERTEX
  8
0
  5
A306
 10
122.282
 20
112.273
 30
0.000000
  70
    32
  0
VERTEX
  8
0
  5
A307
 10
122.336
 20
112.258
 30
0.000000
  70
    32
  0
VERTEX
  8
0
  5
A308
 10
122.390
 20
112.243
 30
0.000000
  70
    32
  0
VERTEX
  8
0
  5
A309
 10
122.443
 20
112.228
 30
0.000000
  70
    32
  0
VERTEX
  8
0
  5
A30A
 10
122.497
 20
112.213
 30
0.000000
  70
    32
  0
VERTEX
  8
0
  5
A30B
 10
122.551
 20
112.198
 30
0.000000
  70
    32
  0
VERTEX
  8
0
  5
A30C
 10
122.605
 20
112.183
 30
0.000000
  70
    32
  0
VERTEX
  8
0
  5
A30D
 10
122.659
 20
112.168
 30
0.000000
  70
    32
  0
VERTEX
  8
0
  5
A30E
 10
122.713
 20
112.153
 30
0.000000
  70
    32
  0
VERTEX
  8
0
  5
A30F
 10
122.767
 20
112.139
 30
0.000000
  70
    32
  0
VERTEX
  8
0
  5
A310
 10
122.821
 20
112.124
 30
0.000000
  70
    32
  0
VERTEX
  8
0
  5
A311
 10
122.875
 20
112.109
 30
0.000000
  70
    32
  0
VERTEX
  8
0
  5
A312
 10
122.929
 20
112.095
 30
0.000000
  70
    32
  0
VERTEX
  8
0
  5
A313
 10
122.983
 20
112.080
 30
0.000000
  70
    32
  0
VERTEX
  8
0
  5
A314
 10
123.037
 20
112.066
 30
0.000000
  70
    32
  0
VERTEX
  8
0
  5
A315
 10
123.091
 20
112.051
 30
0.000000
  70
    32
  0
VERTEX
  8
0
  5
A316
 10
123.145
 20
112.037
 30
0.000000
  70
    32
  0
VERTEX
  8
0
  5
A317
 10
123.199
 20
112.023
 30
0.000000
  70
    32
  0
VERTEX
  8
0
  5
A318
 10
123.253
 20
112.008
 30
0.000000
  70
    32
  0
VERTEX
  8
0
  5
A319
 10
123.308
 20
111.994
 30
0.000000
  70
    32
  0
VERTEX
  8
0
  5
A31A
 10
123.362
 20
111.980
 30
0.000000
  70
    32
  0
VERTEX
  8
0
  5
A31B
 10
123.416
 20
111.966
 30
0.000000
  70
    32
  0
VERTEX
  8
0
  5
A31C
 10
123.470
 20
111.952
 30
0.000000
  70
    32
  0
VERTEX
  8
0
  5
A31D
 10
123.524
 20
111.938
 30
0.000000
  70
    32
  0
VERTEX
  8
0
  5
A31E
 10
123.578
 20
111.924
 30
0.000000
  70
    32
  0
VERTEX
  8
0
  5
A31F
 10
123.632
 20
111.910
 30
0.000000
  70
    32
  0
VERTEX
  8
0
  5
A320
 10
123.687
 20
111.896
 30
0.000000
  70
    32
  0
VERTEX
  8
0
  5
A321
 10
123.741
 20
111.882
 30
0.000000
  70
    32
  0
VERTEX
  8
0
  5
A322
 10
123.795
 20
111.868
 30
0.000000
  70
    32
  0
VERTEX
  8
0
  5
A323
 10
123.849
 20
111.854
 30
0.000000
  70
    32
  0
VERTEX
  8
0
  5
A324
 10
123.903
 20
111.840
 30
0.000000
  70
    32
  0
VERTEX
  8
0
  5
A325
 10
123.958
 20
111.827
 30
0.000000
  70
    32
  0
VERTEX
  8
0
  5
A326
 10
124.012
 20
111.813
 30
0.000000
  70
    32
  0
VERTEX
  8
0
  5
A327
 10
124.066
 20
111.799
 30
0.000000
  70
    32
  0
VERTEX
  8
0
  5
A328
 10
124.120
 20
111.786
 30
0.000000
  70
    32
  0
VERTEX
  8
0
  5
A329
 10
124.175
 20
111.772
 30
0.000000
  70
    32
  0
VERTEX
  8
0
  5
A32A
 10
124.229
 20
111.759
 30
0.000000
  70
    32
  0
VERTEX
  8
0
  5
A32B
 10
124.283
 20
111.745
 30
0.000000
  70
    32
  0
VERTEX
  8
0
  5
A32C
 10
124.338
 20
111.732
 30
0.000000
  70
    32
  0
VERTEX
  8
0
  5
A32D
 10
124.392
 20
111.719
 30
0.000000
  70
    32
  0
VERTEX
  8
0
  5
A32E
 10
124.446
 20
111.705
 30
0.000000
  70
    32
  0
VERTEX
  8
0
  5
A32F
 10
124.501
 20
111.692
 30
0.000000
  70
    32
  0
VERTEX
  8
0
  5
A330
 10
124.555
 20
111.679
 30
0.000000
  70
    32
  0
VERTEX
  8
0
  5
A331
 10
124.609
 20
111.666
 30
0.000000
  70
    32
  0
VERTEX
  8
0
  5
A332
 10
124.664
 20
111.653
 30
0.000000
  70
    32
  0
VERTEX
  8
0
  5
A333
 10
124.718
 20
111.640
 30
0.000000
  70
    32
  0
VERTEX
  8
0
  5
A334
 10
124.773
 20
111.627
 30
0.000000
  70
    32
  0
VERTEX
  8
0
  5
A335
 10
124.827
 20
111.614
 30
0.000000
  70
    32
  0
VERTEX
  8
0
  5
A336
 10
124.881
 20
111.601
 30
0.000000
  70
    32
  0
VERTEX
  8
0
  5
A337
 10
124.936
 20
111.588
 30
0.000000
  70
    32
  0
VERTEX
  8
0
  5
A338
 10
124.990
 20
111.575
 30
0.000000
  70
    32
  0
VERTEX
  8
0
  5
A339
 10
125.045
 20
111.562
 30
0.000000
  70
    32
  0
VERTEX
  8
0
  5
A33A
 10
125.099
 20
111.549
 30
0.000000
  70
    32
  0
VERTEX
  8
0
  5
A33B
 10
125.154
 20
111.537
 30
0.000000
  70
    32
  0
VERTEX
  8
0
  5
A33C
 10
125.208
 20
111.524
 30
0.000000
  70
    32
  0
VERTEX
  8
0
  5
A33D
 10
125.263
 20
111.511
 30
0.000000
  70
    32
  0
VERTEX
  8
0
  5
A33E
 10
125.317
 20
111.499
 30
0.000000
  70
    32
  0
VERTEX
  8
0
  5
A33F
 10
125.372
 20
111.486
 30
0.000000
  70
    32
  0
VERTEX
  8
0
  5
A340
 10
125.426
 20
111.474
 30
0.000000
  70
    32
  0
VERTEX
  8
0
  5
A341
 10
125.481
 20
111.461
 30
0.000000
  70
    32
  0
VERTEX
  8
0
  5
A342
 10
125.535
 20
111.449
 30
0.000000
  70
    32
  0
VERTEX
  8
0
  5
A343
 10
125.590
 20
111.437
 30
0.000000
  70
    32
  0
VERTEX
  8
0
  5
A344
 10
125.644
 20
111.424
 30
0.000000
  70
    32
  0
VERTEX
  8
0
  5
A345
 10
125.699
 20
111.412
 30
0.000000
  70
    32
  0
VERTEX
  8
0
  5
A346
 10
125.754
 20
111.400
 30
0.000000
  70
    32
  0
VERTEX
  8
0
  5
A347
 10
125.808
 20
111.388
 30
0.000000
  70
    32
  0
VERTEX
  8
0
  5
A348
 10
125.863
 20
111.376
 30
0.000000
  70
    32
  0
VERTEX
  8
0
  5
A349
 10
125.917
 20
111.364
 30
0.000000
  70
    32
  0
VERTEX
  8
0
  5
A34A
 10
125.972
 20
111.352
 30
0.000000
  70
    32
  0
VERTEX
  8
0
  5
A34B
 10
126.027
 20
111.340
 30
0.000000
  70
    32
  0
VERTEX
  8
0
  5
A34C
 10
126.081
 20
111.328
 30
0.000000
  70
    32
  0
VERTEX
  8
0
  5
A34D
 10
126.136
 20
111.316
 30
0.000000
  70
    32
  0
VERTEX
  8
0
  5
A34E
 10
126.191
 20
111.304
 30
0.000000
  70
    32
  0
VERTEX
  8
0
  5
A34F
 10
126.245
 20
111.292
 30
0.000000
  70
    32
  0
VERTEX
  8
0
  5
A350
 10
126.300
 20
111.281
 30
0.000000
  70
    32
  0
VERTEX
  8
0
  5
A351
 10
126.355
 20
111.269
 30
0.000000
  70
    32
  0
VERTEX
  8
0
  5
A352
 10
126.409
 20
111.257
 30
0.000000
  70
    32
  0
VERTEX
  8
0
  5
A353
 10
126.464
 20
111.246
 30
0.000000
  70
    32
  0
VERTEX
  8
0
  5
A354
 10
126.519
 20
111.234
 30
0.000000
  70
    32
  0
VERTEX
  8
0
  5
A355
 10
126.574
 20
111.223
 30
0.000000
  70
    32
  0
VERTEX
  8
0
  5
A356
 10
126.628
 20
111.211
 30
0.000000
  70
    32
  0
VERTEX
  8
0
  5
A357
 10
126.683
 20
111.200
 30
0.000000
  70
    32
  0
VERTEX
  8
0
  5
A358
 10
126.738
 20
111.188
 30
0.000000
  70
    32
  0
VERTEX
  8
0
  5
A359
 10
126.793
 20
111.177
 30
0.000000
  70
    32
  0
VERTEX
  8
0
  5
A35A
 10
126.848
 20
111.166
 30
0.000000
  70
    32
  0
VERTEX
  8
0
  5
A35B
 10
126.902
 20
111.154
 30
0.000000
  70
    32
  0
VERTEX
  8
0
  5
A35C
 10
126.957
 20
111.143
 30
0.000000
  70
    32
  0
VERTEX
  8
0
  5
A35D
 10
127.012
 20
111.132
 30
0.000000
  70
    32
  0
VERTEX
  8
0
  5
A35E
 10
127.067
 20
111.121
 30
0.000000
  70
    32
  0
VERTEX
  8
0
  5
A35F
 10
127.122
 20
111.110
 30
0.000000
  70
    32
  0
VERTEX
  8
0
  5
A360
 10
127.176
 20
111.099
 30
0.000000
  70
    32
  0
VERTEX
  8
0
  5
A361
 10
127.231
 20
111.088
 30
0.000000
  70
    32
  0
VERTEX
  8
0
  5
A362
 10
127.286
 20
111.077
 30
0.000000
  70
    32
  0
VERTEX
  8
0
  5
A363
 10
127.341
 20
111.066
 30
0.000000
  70
    32
  0
VERTEX
  8
0
  5
A364
 10
127.396
 20
111.055
 30
0.000000
  70
    32
  0
VERTEX
  8
0
  5
A365
 10
127.451
 20
111.045
 30
0.000000
  70
    32
  0
VERTEX
  8
0
  5
A366
 10
127.506
 20
111.034
 30
0.000000
  70
    32
  0
VERTEX
  8
0
  5
A367
 10
127.561
 20
111.023
 30
0.000000
  70
    32
  0
VERTEX
  8
0
  5
A368
 10
127.616
 20
111.013
 30
0.000000
  70
    32
  0
VERTEX
  8
0
  5
A369
 10
127.670
 20
111.002
 30
0.000000
  70
    32
  0
VERTEX
  8
0
  5
A36A
 10
127.725
 20
110.991
 30
0.000000
  70
    32
  0
VERTEX
  8
0
  5
A36B
 10
127.780
 20
110.981
 30
0.000000
  70
    32
  0
VERTEX
  8
0
  5
A36C
 10
127.835
 20
110.970
 30
0.000000
  70
    32
  0
VERTEX
  8
0
  5
A36D
 10
127.890
 20
110.960
 30
0.000000
  70
    32
  0
VERTEX
  8
0
  5
A36E
 10
127.945
 20
110.950
 30
0.000000
  70
    32
  0
VERTEX
  8
0
  5
A36F
 10
128.000
 20
110.939
 30
0.000000
  70
    32
  0
VERTEX
  8
0
  5
A370
 10
128.055
 20
110.929
 30
0.000000
  70
    32
  0
VERTEX
  8
0
  5
A371
 10
128.110
 20
110.919
 30
0.000000
  70
    32
  0
SEQEND
  8
0
  5
A372
  0
POLYLINE
  5
68D9
  8
0
 66
     1
 10
0.0
 20
0.0
 30
0.0
  0
VERTEX
  5
A0DF
  8
0
 10
163.87742911606469
 20
113.7384704324611
 30
0.0
  0
VERTEX
  5
A0E0
  8
0
 10
163.74414459432001
 20
113.7376564987856
 30
0.0
  0
VERTEX
  5
A0E1
  8
0
 10
163.47327136476909
 20
113.7309853996028
 30
0.0
  0
VERTEX
  5
A0E2
  8
0
 10
163.1975477616881
 20
113.7172790602809
 30
0.0
  0
VERTEX
  5
A0E3
  8
0
 10
163.05820035801921
 20
113.7076912051633
 30
0.0
  0
VERTEX
  5
A0E4
  8
0
 10
162.91803940613229
 20
113.69623967188549
 30
0.0
  0
VERTEX
  5
A0E5
  8
0
 10
162.63580159156601
 20
113.6676567282415
 30
0.0
  0
VERTEX
  5
A0E6
  8
0
 10
162.35187781302699
 20
113.6314079557651
 30
0.0
  0
VERTEX
  5
A0E7
  8
0
 10
162.06730835632641
 20
113.5874615380862
 30
0.0
  0
VERTEX
  5
A0E8
  8
0
 10
161.78312276917171
 20
113.5358765199659
 30
0.0
  0
VERTEX
  5
A0E9
  8
0
 10
161.50030436808939
 20
113.4767957576526
 30
0.0
  0
VERTEX
  5
A0EA
  8
0
 10
161.35970331154491
 20
113.4445112257315
 30
0.0
  0
VERTEX
  5
A0EB
  8
0
 10
161.21980475012489
 20
113.4104454956346
 30
0.0
  0
VERTEX
  5
A0EC
  8
0
 10
160.9426006237978
 20
113.3371490758046
 30
0.0
  0
VERTEX
  5
A0ED
  8
0
 10
160.66964716934049
 20
113.25731849884509
 30
0.0
  0
VERTEX
  5
A0EE
  8
0
 10
160.40186861048451
 20
113.1714506061938
 30
0.0
  0
VERTEX
  5
A0EF
  8
0
 10
160.14016437435231
 20
113.080127204414
 30
0.0
  0
VERTEX
  5
A0F0
  8
0
 10
159.88541218599451
 20
112.9840148254906
 30
0.0
  0
VERTEX
  5
A0F1
  8
0
 10
159.760909304097
 20
112.9343930316614
 30
0.0
  0
VERTEX
  5
A0F2
  8
0
 10
159.6380231750172
 20
112.88367663113461
 30
0.0
  0
VERTEX
  5
A0F3
  8
0
 10
159.39060472062491
 20
112.77621675525209
 30
0.0
  0
VERTEX
  5
A0F4
  8
0
 10
159.1410989264331
 20
112.6604166048529
 30
0.0
  0
VERTEX
  5
A0F5
  8
0
 10
159.01591013913611
 20
112.5994204856968
 30
0.0
  0
SEQEND
  5
A0F6
  8
0
  0
POLYLINE
  5
68DA
  8
0
 10
116.20303090225561
 20
95.896453675877709
 30
0.0
 66
     1
 70
     8
  0
VERTEX
  8
0
  5
A373
 10
116.203
 20
95.8965
 30
0.000000
  70
    32
  0
VERTEX
  8
0
  5
A374
 10
116.548
 20
95.9049
 30
0.000000
  70
    32
  0
VERTEX
  8
0
  5
A375
 10
116.892
 20
95.9304
 30
0.000000
  70
    32
  0
VERTEX
  8
0
  5
A376
 10
117.234
 20
95.9727
 30
0.000000
  70
    32
  0
VERTEX
  8
0
  5
A377
 10
117.574
 20
96.0318
 30
0.000000
  70
    32
  0
VERTEX
  8
0
  5
A378
 10
117.911
 20
96.1075
 30
0.000000
  70
    32
  0
VERTEX
  8
0
  5
A379
 10
118.243
 20
96.1997
 30
0.000000
  70
    32
  0
VERTEX
  8
0
  5
A37A
 10
118.571
 20
96.3081
 30
0.000000
  70
    32
  0
VERTEX
  8
0
  5
A37B
 10
118.892
 20
96.4325
 30
0.000000
  70
    32
  0
VERTEX
  8
0
  5
A37C
 10
119.208
 20
96.5726
 30
0.000000
  70
    32
  0
VERTEX
  8
0
  5
A37D
 10
119.516
 20
96.7280
 30
0.000000
  70
    32
  0
VERTEX
  8
0
  5
A37E
 10
119.816
 20
96.8983
 30
0.000000
  70
    32
  0
VERTEX
  8
0
  5
A37F
 10
120.107
 20
97.0832
 30
0.000000
  70
    32
  0
VERTEX
  8
0
  5
A380
 10
120.389
 20
97.2823
 30
0.000000
  70
    32
  0
VERTEX
  8
0
  5
A381
 10
120.661
 20
97.4949
 30
0.000000
  70
    32
  0
VERTEX
  8
0
  5
A382
 10
120.923
 20
97.7207
 30
0.000000
  70
    32
  0
VERTEX
  8
0
  5
A383
 10
121.172
 20
97.9590
 30
0.000000
  70
    32
  0
VERTEX
  8
0
  5
A384
 10
121.410
 20
98.2093
 30
0.000000
  70
    32
  0
VERTEX
  8
0
  5
A385
 10
121.636
 20
98.4711
 30
0.000000
  70
    32
  0
VERTEX
  8
0
  5
A386
 10
121.848
 20
98.7435
 30
0.000000
  70
    32
  0
VERTEX
  8
0
  5
A387
 10
122.046
 20
99.0261
 30
0.000000
  70
    32
  0
VERTEX
  8
0
  5
A388
 10
122.231
 20
99.3182
 30
0.000000
  70
    32
  0
VERTEX
  8
0
  5
A389
 10
122.401
 20
99.6189
 30
0.000000
  70
    32
  0
VERTEX
  8
0
  5
A38A
 10
122.556
 20
99.9276
 30
0.000000
  70
    32
  0
VERTEX
  8
0
  5
A38B
 10
122.696
 20
100.244
 30
0.000000
  70
    32
  0
VERTEX
  8
0
  5
A38C
 10
122.820
 20
100.566
 30
0.000000
  70
    32
  0
VERTEX
  8
0
  5
A38D
 10
122.928
 20
100.894
 30
0.000000
  70
    32
  0
VERTEX
  8
0
  5
A38E
 10
123.020
 20
101.227
 30
0.000000
  70
    32
  0
VERTEX
  8
0
  5
A38F
 10
123.096
 20
101.565
 30
0.000000
  70
    32
  0
VERTEX
  8
0
  5
A390
 10
123.155
 20
101.905
 30
0.000000
  70
    32
  0
VERTEX
  8
0
  5
A391
 10
123.197
 20
102.248
 30
0.000000
  70
    32
  0
VERTEX
  8
0
  5
A392
 10
123.222
 20
102.593
 30
0.000000
  70
    32
  0
VERTEX
  8
0
  5
A393
 10
123.231
 20
102.938
 30
0.000000
  70
    32
  0
VERTEX
  8
0
  5
A394
 10
123.222
 20
103.284
 30
0.000000
  70
    32
  0
VERTEX
  8
0
  5
A395
 10
123.197
 20
103.629
 30
0.000000
  70
    32
  0
VERTEX
  8
0
  5
A396
 10
123.155
 20
103.972
 30
0.000000
  70
    32
  0
VERTEX
  8
0
  5
A397
 10
123.096
 20
104.312
 30
0.000000
  70
    32
  0
VERTEX
  8
0
  5
A398
 10
123.020
 20
104.650
 30
0.000000
  70
    32
  0
VERTEX
  8
0
  5
A399
 10
122.928
 20
104.983
 30
0.000000
  70
    32
  0
VERTEX
  8
0
  5
A39A
 10
122.820
 20
105.311
 30
0.000000
  70
    32
  0
VERTEX
  8
0
  5
A39B
 10
122.696
 20
105.633
 30
0.000000
  70
    32
  0
VERTEX
  8
0
  5
A39C
 10
122.556
 20
105.949
 30
0.000000
  70
    32
  0
VERTEX
  8
0
  5
A39D
 10
122.401
 20
106.258
 30
0.000000
  70
    32
  0
VERTEX
  8
0
  5
A39E
 10
122.231
 20
106.559
 30
0.000000
  70
    32
  0
VERTEX
  8
0
  5
A39F
 10
122.046
 20
106.851
 30
0.000000
  70
    32
  0
VERTEX
  8
0
  5
A3A0
 10
121.848
 20
107.133
 30
0.000000
  70
    32
  0
VERTEX
  8
0
  5
A3A1
 10
121.636
 20
107.406
 30
0.000000
  70
    32
  0
VERTEX
  8
0
  5
A3A2
 10
121.410
 20
107.668
 30
0.000000
  70
    32
  0
VERTEX
  8
0
  5
A3A3
 10
121.172
 20
107.918
 30
0.000000
  70
    32
  0
VERTEX
  8
0
  5
A3A4
 10
120.923
 20
108.156
 30
0.000000
  70
    32
  0
VERTEX
  8
0
  5
A3A5
 10
120.661
 20
108.382
 30
0.000000
  70
    32
  0
VERTEX
  8
0
  5
A3A6
 10
120.389
 20
108.595
 30
0.000000
  70
    32
  0
VERTEX
  8
0
  5
A3A7
 10
120.107
 20
108.794
 30
0.000000
  70
    32
  0
VERTEX
  8
0
  5
A3A8
 10
119.816
 20
108.979
 30
0.000000
  70
    32
  0
VERTEX
  8
0
  5
A3A9
 10
119.516
 20
109.149
 30
0.000000
  70
    32
  0
VERTEX
  8
0
  5
A3AA
 10
119.208
 20
109.304
 30
0.000000
  70
    32
  0
VERTEX
  8
0
  5
A3AB
 10
118.892
 20
109.444
 30
0.000000
  70
    32
  0
VERTEX
  8
0
  5
A3AC
 10
118.571
 20
109.569
 30
0.000000
  70
    32
  0
VERTEX
  8
0
  5
A3AD
 10
118.243
 20
109.677
 30
0.000000
  70
    32
  0
VERTEX
  8
0
  5
A3AE
 10
117.911
 20
109.769
 30
0.000000
  70
    32
  0
VERTEX
  8
0
  5
A3AF
 10
117.574
 20
109.845
 30
0.000000
  70
    32
  0
VERTEX
  8
0
  5
A3B0
 10
117.234
 20
109.904
 30
0.000000
  70
    32
  0
VERTEX
  8
0
  5
A3B1
 10
116.892
 20
109.947
 30
0.000000
  70
    32
  0
VERTEX
  8
0
  5
A3B2
 10
116.548
 20
109.972
 30
0.000000
  70
    32
  0
VERTEX
  8
0
  5
A3B3
 10
116.203
 20
109.980
 30
0.000000
  70
    32
  0
VERTEX
  8
0
  5
A3B4
 10
115.858
 20
109.972
 30
0.000000
  70
    32
  0
VERTEX
  8
0
  5
A3B5
 10
115.514
 20
109.947
 30
0.000000
  70
    32
  0
VERTEX
  8
0
  5
A3B6
 10
115.172
 20
109.904
 30
0.000000
  70
    32
  0
VERTEX
  8
0
  5
A3B7
 10
114.832
 20
109.845
 30
0.000000
  70
    32
  0
VERTEX
  8
0
  5
A3B8
 10
114.495
 20
109.769
 30
0.000000
  70
    32
  0
VERTEX
  8
0
  5
A3B9
 10
114.163
 20
109.677
 30
0.000000
  70
    32
  0
VERTEX
  8
0
  5
A3BA
 10
113.835
 20
109.569
 30
0.000000
  70
    32
  0
VERTEX
  8
0
  5
A3BB
 10
113.514
 20
109.444
 30
0.000000
  70
    32
  0
VERTEX
  8
0
  5
A3BC
 10
113.198
 20
109.304
 30
0.000000
  70
    32
  0
VERTEX
  8
0
  5
A3BD
 10
112.890
 20
109.149
 30
0.000000
  70
    32
  0
VERTEX
  8
0
  5
A3BE
 10
112.590
 20
108.979
 30
0.000000
  70
    32
  0
VERTEX
  8
0
  5
A3BF
 10
112.299
 20
108.794
 30
0.000000
  70
    32
  0
VERTEX
  8
0
  5
A3C0
 10
112.017
 20
108.595
 30
0.000000
  70
    32
  0
VERTEX
  8
0
  5
A3C1
 10
111.745
 20
108.382
 30
0.000000
  70
    32
  0
VERTEX
  8
0
  5
A3C2
 10
111.484
 20
108.156
 30
0.000000
  70
    32
  0
VERTEX
  8
0
  5
A3C3
 10
111.234
 20
107.918
 30
0.000000
  70
    32
  0
VERTEX
  8
0
  5
A3C4
 10
110.996
 20
107.668
 30
0.000000
  70
    32
  0
VERTEX
  8
0
  5
A3C5
 10
110.771
 20
107.406
 30
0.000000
  70
    32
  0
VERTEX
  8
0
  5
A3C6
 10
110.558
 20
107.133
 30
0.000000
  70
    32
  0
VERTEX
  8
0
  5
A3C7
 10
110.360
 20
106.851
 30
0.000000
  70
    32
  0
VERTEX
  8
0
  5
A3C8
 10
110.175
 20
106.559
 30
0.000000
  70
    32
  0
VERTEX
  8
0
  5
A3C9
 10
110.005
 20
106.258
 30
0.000000
  70
    32
  0
VERTEX
  8
0
  5
A3CA
 10
109.850
 20
105.949
 30
0.000000
  70
    32
  0
VERTEX
  8
0
  5
A3CB
 10
109.710
 20
105.633
 30
0.000000
  70
    32
  0
VERTEX
  8
0
  5
A3CC
 10
109.586
 20
105.311
 30
0.000000
  70
    32
  0
VERTEX
  8
0
  5
A3CD
 10
109.478
 20
104.983
 30
0.000000
  70
    32
  0
VERTEX
  8
0
  5
A3CE
 10
109.386
 20
104.650
 30
0.000000
  70
    32
  0
VERTEX
  8
0
  5
A3CF
 10
109.310
 20
104.312
 30
0.000000
  70
    32
  0
VERTEX
  8
0
  5
A3D0
 10
109.251
 20
103.972
 30
0.000000
  70
    32
  0
VERTEX
  8
0
  5
A3D1
 10
109.209
 20
103.629
 30
0.000000
  70
    32
  0
VERTEX
  8
0
  5
A3D2
 10
109.184
 20
103.284
 30
0.000000
  70
    32
  0
VERTEX
  8
0
  5
A3D3
 10
109.175
 20
102.938
 30
0.000000
  70
    32
  0
VERTEX
  8
0
  5
A3D4
 10
109.184
 20
102.593
 30
0.000000
  70
    32
  0
VERTEX
  8
0
  5
A3D5
 10
109.209
 20
102.248
 30
0.000000
  70
    32
  0
VERTEX
  8
0
  5
A3D6
 10
109.251
 20
101.905
 30
0.000000
  70
    32
  0
VERTEX
  8
0
  5
A3D7
 10
109.310
 20
101.565
 30
0.000000
  70
    32
  0
VERTEX
  8
0
  5
A3D8
 10
109.386
 20
101.227
 30
0.000000
  70
    32
  0
VERTEX
  8
0
  5
A3D9
 10
109.478
 20
100.894
 30
0.000000
  70
    32
  0
VERTEX
  8
0
  5
A3DA
 10
109.586
 20
100.566
 30
0.000000
  70
    32
  0
VERTEX
  8
0
  5
A3DB
 10
109.710
 20
100.244
 30
0.000000
  70
    32
  0
VERTEX
  8
0
  5
A3DC
 10
109.850
 20
99.9276
 30
0.000000
  70
    32
  0
VERTEX
  8
0
  5
A3DD
 10
110.005
 20
99.6189
 30
0.000000
  70
    32
  0
VERTEX
  8
0
  5
A3DE
 10
110.175
 20
99.3182
 30
0.000000
  70
    32
  0
VERTEX
  8
0
  5
A3DF
 10
110.360
 20
99.0261
 30
0.000000
  70
    32
  0
VERTEX
  8
0
  5
A3E0
 10
110.558
 20
98.7435
 30
0.000000
  70
    32
  0
VERTEX
  8
0
  5
A3E1
 10
110.771
 20
98.4711
 30
0.000000
  70
    32
  0
VERTEX
  8
0
  5
A3E2
 10
110.996
 20
98.2093
 30
0.000000
  70
    32
  0
VERTEX
  8
0
  5
A3E3
 10
111.234
 20
97.9590
 30
0.000000
  70
    32
  0
VERTEX
  8
0
  5
A3E4
 10
111.484
 20
97.7207
 30
0.000000
  70
    32
  0
VERTEX
  8
0
  5
A3E5
 10
111.745
 20
97.4949
 30
0.000000
  70
    32
  0
VERTEX
  8
0
  5
A3E6
 10
112.017
 20
97.2823
 30
0.000000
  70
    32
  0
VERTEX
  8
0
  5
A3E7
 10
112.299
 20
97.0832
 30
0.000000
  70
    32
  0
VERTEX
  8
0
  5
A3E8
 10
112.590
 20
96.8983
 30
0.000000
  70
    32
  0
VERTEX
  8
0
  5
A3E9
 10
112.890
 20
96.7280
 30
0.000000
  70
    32
  0
VERTEX
  8
0
  5
A3EA
 10
113.198
 20
96.5726
 30
0.000000
  70
    32
  0
VERTEX
  8
0
  5
A3EB
 10
113.514
 20
96.4325
 30
0.000000
  70
    32
  0
VERTEX
  8
0
  5
A3EC
 10
113.835
 20
96.3081
 30
0.000000
  70
    32
  0
VERTEX
  8
0
  5
A3ED
 10
114.163
 20
96.1997
 30
0.000000
  70
    32
  0
VERTEX
  8
0
  5
A3EE
 10
114.495
 20
96.1075
 30
0.000000
  70
    32
  0
VERTEX
  8
0
  5
A3EF
 10
114.832
 20
96.0318
 30
0.000000
  70
    32
  0
VERTEX
  8
0
  5
A3F0
 10
115.172
 20
95.9727
 30
0.000000
  70
    32
  0
VERTEX
  8
0
  5
A3F1
 10
115.514
 20
95.9304
 30
0.000000
  70
    32
  0
VERTEX
  8
0
  5
A3F2
 10
115.858
 20
95.9049
 30
0.000000
  70
    32
  0
VERTEX
  8
0
  5
A3F3
 10
116.203
 20
95.8965
 30
0.000000
  70
    32
  0
SEQEND
  8
0
  5
A3F4
  0
POLYLINE
  5
68DB
  8
0
 10
163.96630716684311
 20
109.98048718904441
 30
0.0
 66
     1
 70
     8
  0
VERTEX
  8
0
  5
A3F5
 10
163.966
 20
109.980
 30
0.000000
  70
    32
  0
VERTEX
  8
0
  5
A3F6
 10
163.621
 20
109.972
 30
0.000000
  70
    32
  0
VERTEX
  8
0
  5
A3F7
 10
163.277
 20
109.947
 30
0.000000
  70
    32
  0
VERTEX
  8
0
  5
A3F8
 10
162.935
 20
109.904
 30
0.000000
  70
    32
  0
VERTEX
  8
0
  5
A3F9
 10
162.595
 20
109.845
 30
0.000000
  70
    32
  0
VERTEX
  8
0
  5
A3FA
 10
162.259
 20
109.769
 30
0.000000
  70
    32
  0
VERTEX
  8
0
  5
A3FB
 10
161.926
 20
109.677
 30
0.000000
  70
    32
  0
VERTEX
  8
0
  5
A3FC
 10
161.599
 20
109.569
 30
0.000000
  70
    32
  0
VERTEX
  8
0
  5
A3FD
 10
161.277
 20
109.444
 30
0.000000
  70
    32
  0
VERTEX
  8
0
  5
A3FE
 10
160.962
 20
109.304
 30
0.000000
  70
    32
  0
VERTEX
  8
0
  5
A3FF
 10
160.653
 20
109.149
 30
0.000000
  70
    32
  0
VERTEX
  8
0
  5
A400
 10
160.353
 20
108.979
 30
0.000000
  70
    32
  0
VERTEX
  8
0
  5
A401
 10
160.062
 20
108.794
 30
0.000000
  70
    32
  0
VERTEX
  8
0
  5
A402
 10
159.780
 20
108.595
 30
0.000000
  70
    32
  0
VERTEX
  8
0
  5
A403
 10
159.508
 20
108.382
 30
0.000000
  70
    32
  0
VERTEX
  8
0
  5
A404
 10
159.247
 20
108.156
 30
0.000000
  70
    32
  0
VERTEX
  8
0
  5
A405
 10
158.997
 20
107.918
 30
0.000000
  70
    32
  0
VERTEX
  8
0
  5
A406
 10
158.759
 20
107.668
 30
0.000000
  70
    32
  0
VERTEX
  8
0
  5
A407
 10
158.534
 20
107.406
 30
0.000000
  70
    32
  0
VERTEX
  8
0
  5
A408
 10
158.322
 20
107.133
 30
0.000000
  70
    32
  0
VERTEX
  8
0
  5
A409
 10
158.123
 20
106.851
 30
0.000000
  70
    32
  0
VERTEX
  8
0
  5
A40A
 10
157.938
 20
106.559
 30
0.000000
  70
    32
  0
VERTEX
  8
0
  5
A40B
 10
157.768
 20
106.258
 30
0.000000
  70
    32
  0
VERTEX
  8
0
  5
A40C
 10
157.613
 20
105.949
 30
0.000000
  70
    32
  0
VERTEX
  8
0
  5
A40D
 10
157.474
 20
105.633
 30
0.000000
  70
    32
  0
VERTEX
  8
0
  5
A40E
 10
157.349
 20
105.311
 30
0.000000
  70
    32
  0
VERTEX
  8
0
  5
A40F
 10
157.241
 20
104.983
 30
0.000000
  70
    32
  0
VERTEX
  8
0
  5
A410
 10
157.149
 20
104.650
 30
0.000000
  70
    32
  0
VERTEX
  8
0
  5
A411
 10
157.074
 20
104.312
 30
0.000000
  70
    32
  0
VERTEX
  8
0
  5
A412
 10
157.015
 20
103.972
 30
0.000000
  70
    32
  0
VERTEX
  8
0
  5
A413
 10
156.972
 20
103.629
 30
0.000000
  70
    32
  0
VERTEX
  8
0
  5
A414
 10
156.947
 20
103.284
 30
0.000000
  70
    32
  0
VERTEX
  8
0
  5
A415
 10
156.939
 20
102.938
 30
0.000000
  70
    32
  0
VERTEX
  8
0
  5
A416
 10
156.947
 20
102.593
 30
0.000000
  70
    32
  0
VERTEX
  8
0
  5
A417
 10
156.972
 20
102.248
 30
0.000000
  70
    32
  0
VERTEX
  8
0
  5
A418
 10
157.015
 20
101.905
 30
0.000000
  70
    32
  0
VERTEX
  8
0
  5
A419
 10
157.074
 20
101.565
 30
0.000000
  70
    32
  0
VERTEX
  8
0
  5
A41A
 10
157.149
 20
101.227
 30
0.000000
  70
    32
  0
VERTEX
  8
0
  5
A41B
 10
157.241
 20
100.894
 30
0.000000
  70
    32
  0
VERTEX
  8
0
  5
A41C
 10
157.349
 20
100.566
 30
0.000000
  70
    32
  0
VERTEX
  8
0
  5
A41D
 10
157.474
 20
100.244
 30
0.000000
  70
    32
  0
VERTEX
  8
0
  5
A41E
 10
157.613
 20
99.9276
 30
0.000000
  70
    32
  0
VERTEX
  8
0
  5
A41F
 10
157.768
 20
99.6189
 30
0.000000
  70
    32
  0
VERTEX
  8
0
  5
A420
 10
157.938
 20
99.3182
 30
0.000000
  70
    32
  0
VERTEX
  8
0
  5
A421
 10
158.123
 20
99.0261
 30
0.000000
  70
    32
  0
VERTEX
  8
0
  5
A422
 10
158.322
 20
98.7435
 30
0.000000
  70
    32
  0
VERTEX
  8
0
  5
A423
 10
158.534
 20
98.4711
 30
0.000000
  70
    32
  0
VERTEX
  8
0
  5
A424
 10
158.759
 20
98.2093
 30
0.000000
  70
    32
  0
VERTEX
  8
0
  5
A425
 10
158.997
 20
97.9590
 30
0.000000
  70
    32
  0
VERTEX
  8
0
  5
A426
 10
159.247
 20
97.7207
 30
0.000000
  70
    32
  0
VERTEX
  8
0
  5
A427
 10
159.508
 20
97.4949
 30
0.000000
  70
    32
  0
VERTEX
  8
0
  5
A428
 10
159.780
 20
97.2823
 30
0.000000
  70
    32
  0
VERTEX
  8
0
  5
A429
 10
160.062
 20
97.0832
 30
0.000000
  70
    32
  0
VERTEX
  8
0
  5
A42A
 10
160.353
 20
96.8983
 30
0.000000
  70
    32
  0
VERTEX
  8
0
  5
A42B
 10
160.653
 20
96.7280
 30
0.000000
  70
    32
  0
VERTEX
  8
0
  5
A42C
 10
160.962
 20
96.5726
 30
0.000000
  70
    32
  0
VERTEX
  8
0
  5
A42D
 10
161.277
 20
96.4325
 30
0.000000
  70
    32
  0
VERTEX
  8
0
  5
A42E
 10
161.599
 20
96.3081
 30
0.000000
  70
    32
  0
VERTEX
  8
0
  5
A42F
 10
161.926
 20
96.1997
 30
0.000000
  70
    32
  0
VERTEX
  8
0
  5
A430
 10
162.259
 20
96.1075
 30
0.000000
  70
    32
  0
VERTEX
  8
0
  5
A431
 10
162.595
 20
96.0318
 30
0.000000
  70
    32
  0
VERTEX
  8
0
  5
A432
 10
162.935
 20
95.9727
 30
0.000000
  70
    32
  0
VERTEX
  8
0
  5
A433
 10
163.277
 20
95.9304
 30
0.000000
  70
    32
  0
VERTEX
  8
0
  5
A434
 10
163.621
 20
95.9049
 30
0.000000
  70
    32
  0
VERTEX
  8
0
  5
A435
 10
163.966
 20
95.8965
 30
0.000000
  70
    32
  0
VERTEX
  8
0
  5
A436
 10
164.311
 20
95.9049
 30
0.000000
  70
    32
  0
VERTEX
  8
0
  5
A437
 10
164.655
 20
95.9304
 30
0.000000
  70
    32
  0
VERTEX
  8
0
  5
A438
 10
164.997
 20
95.9727
 30
0.000000
  70
    32
  0
VERTEX
  8
0
  5
A439
 10
165.337
 20
96.0318
 30
0.000000
  70
    32
  0
VERTEX
  8
0
  5
A43A
 10
165.674
 20
96.1075
 30
0.000000
  70
    32
  0
VERTEX
  8
0
  5
A43B
 10
166.006
 20
96.1997
 30
0.000000
  70
    32
  0
VERTEX
  8
0
  5
A43C
 10
166.334
 20
96.3081
 30
0.000000
  70
    32
  0
VERTEX
  8
0
  5
A43D
 10
166.656
 20
96.4325
 30
0.000000
  70
    32
  0
VERTEX
  8
0
  5
A43E
 10
166.971
 20
96.5726
 30
0.000000
  70
    32
  0
VERTEX
  8
0
  5
A43F
 10
167.279
 20
96.7280
 30
0.000000
  70
    32
  0
VERTEX
  8
0
  5
A440
 10
167.579
 20
96.8983
 30
0.000000
  70
    32
  0
VERTEX
  8
0
  5
A441
 10
167.871
 20
97.0832
 30
0.000000
  70
    32
  0
VERTEX
  8
0
  5
A442
 10
168.153
 20
97.2823
 30
0.000000
  70
    32
  0
VERTEX
  8
0
  5
A443
 10
168.425
 20
97.4949
 30
0.000000
  70
    32
  0
VERTEX
  8
0
  5
A444
 10
168.686
 20
97.7207
 30
0.000000
  70
    32
  0
VERTEX
  8
0
  5
A445
 10
168.936
 20
97.9590
 30
0.000000
  70
    32
  0
VERTEX
  8
0
  5
A446
 10
169.173
 20
98.2093
 30
0.000000
  70
    32
  0
VERTEX
  8
0
  5
A447
 10
169.399
 20
98.4711
 30
0.000000
  70
    32
  0
VERTEX
  8
0
  5
A448
 10
169.611
 20
98.7435
 30
0.000000
  70
    32
  0
VERTEX
  8
0
  5
A449
 10
169.810
 20
99.0261
 30
0.000000
  70
    32
  0
VERTEX
  8
0
  5
A44A
 10
169.994
 20
99.3182
 30
0.000000
  70
    32
  0
VERTEX
  8
0
  5
A44B
 10
170.164
 20
99.6189
 30
0.000000
  70
    32
  0
VERTEX
  8
0
  5
A44C
 10
170.319
 20
99.9276
 30
0.000000
  70
    32
  0
VERTEX
  8
0
  5
A44D
 10
170.459
 20
100.244
 30
0.000000
  70
    32
  0
VERTEX
  8
0
  5
A44E
 10
170.583
 20
100.566
 30
0.000000
  70
    32
  0
VERTEX
  8
0
  5
A44F
 10
170.691
 20
100.894
 30
0.000000
  70
    32
  0
VERTEX
  8
0
  5
A450
 10
170.783
 20
101.227
 30
0.000000
  70
    32
  0
VERTEX
  8
0
  5
A451
 10
170.859
 20
101.565
 30
0.000000
  70
    32
  0
VERTEX
  8
0
  5
A452
 10
170.918
 20
101.905
 30
0.000000
  70
    32
  0
VERTEX
  8
0
  5
A453
 10
170.960
 20
102.248
 30
0.000000
  70
    32
  0
VERTEX
  8
0
  5
A454
 10
170.986
 20
102.593
 30
0.000000
  70
    32
  0
VERTEX
  8
0
  5
A455
 10
170.994
 20
102.938
 30
0.000000
  70
    32
  0
VERTEX
  8
0
  5
A456
 10
170.986
 20
103.284
 30
0.000000
  70
    32
  0
VERTEX
  8
0
  5
A457
 10
170.960
 20
103.629
 30
0.000000
  70
    32
  0
VERTEX
  8
0
  5
A458
 10
170.918
 20
103.972
 30
0.000000
  70
    32
  0
VERTEX
  8
0
  5
A459
 10
170.859
 20
104.312
 30
0.000000
  70
    32
  0
VERTEX
  8
0
  5
A45A
 10
170.783
 20
104.650
 30
0.000000
  70
    32
  0
VERTEX
  8
0
  5
A45B
 10
170.691
 20
104.983
 30
0.000000
  70
    32
  0
VERTEX
  8
0
  5
A45C
 10
170.583
 20
105.311
 30
0.000000
  70
    32
  0
VERTEX
  8
0
  5
A45D
 10
170.459
 20
105.633
 30
0.000000
  70
    32
  0
VERTEX
  8
0
  5
A45E
 10
170.319
 20
105.949
 30
0.000000
  70
    32
  0
VERTEX
  8
0
  5
A45F
 10
170.164
 20
106.258
 30
0.000000
  70
    32
  0
VERTEX
  8
0
  5
A460
 10
169.994
 20
106.559
 30
0.000000
  70
    32
  0
VERTEX
  8
0
  5
A461
 10
169.810
 20
106.851
 30
0.000000
  70
    32
  0
VERTEX
  8
0
  5
A462
 10
169.611
 20
107.133
 30
0.000000
  70
    32
  0
VERTEX
  8
0
  5
A463
 10
169.399
 20
107.406
 30
0.000000
  70
    32
  0
VERTEX
  8
0
  5
A464
 10
169.173
 20
107.668
 30
0.000000
  70
    32
  0
VERTEX
  8
0
  5
A465
 10
168.936
 20
107.918
 30
0.000000
  70
    32
  0
VERTEX
  8
0
  5
A466
 10
168.686
 20
108.156
 30
0.000000
  70
    32
  0
VERTEX
  8
0
  5
A467
 10
168.425
 20
108.382
 30
0.000000
  70
    32
  0
VERTEX
  8
0
  5
A468
 10
168.153
 20
108.595
 30
0.000000
  70
    32
  0
VERTEX
  8
0
  5
A469
 10
167.871
 20
108.794
 30
0.000000
  70
    32
  0
VERTEX
  8
0
  5
A46A
 10
167.579
 20
108.979
 30
0.000000
  70
    32
  0
VERTEX
  8
0
  5
A46B
 10
167.279
 20
109.149
 30
0.000000
  70
    32
  0
VERTEX
  8
0
  5
A46C
 10
166.971
 20
109.304
 30
0.000000
  70
    32
  0
VERTEX
  8
0
  5
A46D
 10
166.656
 20
109.444
 30
0.000000
  70
    32
  0
VERTEX
  8
0
  5
A46E
 10
166.334
 20
109.569
 30
0.000000
  70
    32
  0
VERTEX
  8
0
  5
A46F
 10
166.006
 20
109.677
 30
0.000000
  70
    32
  0
VERTEX
  8
0
  5
A470
 10
165.674
 20
109.769
 30
0.000000
  70
    32
  0
VERTEX
  8
0
  5
A471
 10
165.337
 20
109.845
 30
0.000000
  70
    32
  0
VERTEX
  8
0
  5
A472
 10
164.997
 20
109.904
 30
0.000000
  70
    32
  0
VERTEX
  8
0
  5
A473
 10
164.655
 20
109.947
 30
0.000000
  70
    32
  0
VERTEX
  8
0
  5
A474
 10
164.311
 20
109.972
 30
0.000000
  70
    32
  0
VERTEX
  8
0
  5
A475
 10
163.966
 20
109.980
 30
0.000000
  70
    32
  0
SEQEND
  8
0
  5
A476
  0
LINE
  5
68DC
  8
1
 10
140.08466903454931
 20
152.6384001229367
 30
0.0
 11
140.08466903454931
 21
184.79662317673819
 31
0.0
  0
LINE
  5
68DD
  8
1
 10
180.21319332582871
 20
168.71751164983741
 30
0.0
 11
99.956144743269974
 21
168.71751164983741
 31
0.0
  0
ARC
  5
68DE
  8
0
 10
140.08466903454951
 20
168.71751164983741
 30
0.0
 40
35.000000000000142
 50
174.78409142954729
 51
185.2159085704526
  0
ARC
  5
68DF
  8
0
 10
140.08466903454919
 20
168.71751164983741
 30
0.0
 40
35.000000000000121
 50
354.78409142954729
 51
5.2159085704526609
  0
LINE
  5
68E0
  8
0
 10
123.2141135121892
 20
172.68928042386369
 30
0.0
 11
123.2307408769591
 21
172.69545322913629
 31
0.0
  0
LINE
  5
68E1
  8
0
 10
156.93859719213961
 20
172.69545322913629
 30
0.0
 11
156.9552245569094
 21
172.68928042386369
 31
0.0
  0
POLYLINE
  5
68E2
  8
0
 66
     1
 10
0.0
 20
0.0
 30
0.0
  0
VERTEX
  5
A0F7
  8
0
 10
128.11016800527369
 20
165.05107779136591
 30
0.0
  0
VERTEX
  5
A0F8
  8
0
 10
128.22226243844449
 20
165.05665627641179
 30
0.0
  0
VERTEX
  5
A0F9
  8
0
 10
128.44992348089531
 20
165.0583029993735
 30
0.0
  0
VERTEX
  5
A0FA
  8
0
 10
128.68091455141959
 20
165.0467106109059
 30
0.0
  0
VERTEX
  5
A0FB
  8
0
 10
128.79716950106231
 20
165.0357909286293
 30
0.0
  0
VERTEX
  5
A0FC
  8
0
 10
128.91367394430441
 20
165.02139709078779
 30
0.0
  0
VERTEX
  5
A0FD
  8
0
 10
129.1466799819903
 20
164.9820855683578
 30
0.0
  0
VERTEX
  5
A0FE
  8
0
 10
129.37842606239809
 20
164.9286997261639
 30
0.0
  0
VERTEX
  5
A0FF
  8
0
 10
129.60741902391629
 20
164.86136530778589
 30
0.0
  0
VERTEX
  5
A100
  8
0
 10
129.832297188692
 20
164.7803705597521
 30
0.0
  0
VERTEX
  5
A101
  8
0
 10
130.05183668858791
 20
164.6861351275721
 30
0.0
  0
VERTEX
  5
A102
  8
0
 10
130.159187236002
 20
164.6342483939805
 30
0.0
  0
VERTEX
  5
A103
  8
0
 10
130.26471018685481
 20
164.57931113623209
 30
0.0
  0
VERTEX
  5
A104
  8
0
 10
130.46967155001281
 20
164.46073543724259
 30
0.0
  0
VERTEX
  5
A105
  8
0
 10
130.665591149242
 20
164.33141181350121
 30
0.0
  0
VERTEX
  5
A106
  8
0
 10
130.85142515411559
 20
164.19253424856711
 30
0.0
  0
VERTEX
  5
A107
  8
0
 10
131.02625933270409
 20
164.0454678599385
 30
0.0
  0
VERTEX
  5
A108
  8
0
 10
131.1929522206166
 20
163.88811963574841
 30
0.0
  0
VERTEX
  5
A109
  8
0
 10
131.2738647256536
 20
163.80485247635349
 30
0.0
  0
VERTEX
  5
A10A
  8
0
 10
131.35288734588741
 20
163.7186420638219
 30
0.0
  0
VERTEX
  5
A10B
  8
0
 10
131.5045225572841
 20
163.5378091845472
 30
0.0
  0
VERTEX
  5
A10C
  8
0
 10
131.64649766744739
 20
163.34653044885371
 30
0.0
  0
VERTEX
  5
A10D
  8
0
 10
131.71348642019899
 20
163.24729212616211
 30
0.0
  0
SEQEND
  5
A10E
  8
0
  0
POLYLINE
  5
68E3
  8
0
 66
     1
 10
0.0
 20
0.0
 30
0.0
  0
VERTEX
  5
A10F
  8
0
 10
148.45585164889971
 20
163.24729212616211
 30
0.0
  0
VERTEX
  5
A110
  8
0
 10
148.5196097662236
 20
163.34188866610171
 30
0.0
  0
VERTEX
  5
A111
  8
0
 10
148.6569355139535
 20
163.52779528023751
 30
0.0
  0
VERTEX
  5
A112
  8
0
 10
148.80694496868711
 20
163.70792377681749
 30
0.0
  0
VERTEX
  5
A113
  8
0
 10
148.88651410500489
 20
163.79532956291419
 30
0.0
  0
VERTEX
  5
A114
  8
0
 10
148.96900496104601
 20
163.88072199487399
 30
0.0
  0
VERTEX
  5
A115
  8
0
 10
149.14233877408449
 20
164.04480826878699
 30
0.0
  0
VERTEX
  5
A116
  8
0
 10
149.32601207554009
 20
164.19894420432769
 30
0.0
  0
VERTEX
  5
A117
  8
0
 10
149.51893467815751
 20
164.3420373116162
 30
0.0
  0
VERTEX
  5
A118
  8
0
 10
149.7199847409147
 20
164.47322349609109
 30
0.0
  0
VERTEX
  5
A119
  8
0
 10
149.92799457300251
 20
164.5918216572253
 30
0.0
  0
VERTEX
  5
A11A
  8
0
 10
150.03417270225529
 20
164.64620333033241
 30
0.0
  0
VERTEX
  5
A11B
  8
0
 10
150.1415535101612
 20
164.69722465584181
 30
0.0
  0
VERTEX
  5
A11C
  8
0
 10
150.35916276705271
 20
164.78901758320461
 30
0.0
  0
VERTEX
  5
A11D
  8
0
 10
150.57926118186921
 20
164.86698836908761
 30
0.0
  0
VERTEX
  5
A11E
  8
0
 10
150.80018851943291
 20
164.93111735053469
 30
0.0
  0
VERTEX
  5
A11F
  8
0
 10
151.02048196763911
 20
164.98165133090751
 30
0.0
  0
VERTEX
  5
A120
  8
0
 10
151.24463669223701
 20
165.01985443251471
 30
0.0
  0
VERTEX
  5
A121
  8
0
 10
151.35867834568791
 20
165.0343017157083
 30
0.0
  0
VERTEX
  5
A122
  8
0
 10
151.47379159994591
 20
165.0455244083696
 30
0.0
  0
VERTEX
  5
A123
  8
0
 10
151.70651295596031
 20
165.05800824584091
 30
0.0
  0
VERTEX
  5
A124
  8
0
 10
151.94137750652911
 20
165.05685569303211
 30
0.0
  0
VERTEX
  5
A125
  8
0
 10
152.05917006382501
 20
165.05107779136591
 30
0.0
  0
SEQEND
  5
A126
  8
0
  0
LINE
  5
68E4
  8
0
 10
152.05917006382501
 20
165.05107779136591
 30
0.0
 11
172.94802248485931
 21
163.71751164983741
 31
0.0
  0
POLYLINE
  5
68E5
  8
0
 66
     1
 10
0.0
 20
0.0
 30
0.0
  0
VERTEX
  5
A127
  8
0
 10
172.94802248485931
 20
163.71751164983741
 30
0.0
  0
VERTEX
  5
A128
  8
0
 10
173.04754836296229
 20
163.71998953491911
 30
0.0
  0
VERTEX
  5
A129
  8
0
 10
173.2400971181178
 20
163.73895348576769
 30
0.0
  0
VERTEX
  5
A12A
  8
0
 10
173.42359330197201
 20
163.77487622395051
 30
0.0
  0
VERTEX
  5
A12B
  8
0
 10
173.51174171500409
 20
163.7986003362106
 30
0.0
  0
VERTEX
  5
A12C
  8
0
 10
173.59737558858811
 20
163.82586143199109
 30
0.0
  0
VERTEX
  5
A12D
  8
0
 10
173.76122945126539
 20
163.89030218461761
 30
0.0
  0
VERTEX
  5
A12E
  8
0
 10
173.91514572131501
 20
163.9668910040356
 30
0.0
  0
VERTEX
  5
A12F
  8
0
 10
174.05887748693399
 20
164.054381719746
 30
0.0
  0
VERTEX
  5
A130
  8
0
 10
174.192200603212
 20
164.15161867462729
 30
0.0
  0
VERTEX
  5
A131
  8
0
 10
174.31491653010909
 20
164.257511420707
 30
0.0
  0
VERTEX
  5
A132
  8
0
 10
174.37224300354049
 20
164.31337635928759
 30
0.0
  0
VERTEX
  5
A133
  8
0
 10
174.42685748910301
 20
164.37101730145591
 30
0.0
  0
VERTEX
  5
A134
  8
0
 10
174.52794674760511
 20
164.49120038266781
 30
0.0
  0
VERTEX
  5
A135
  8
0
 10
174.61827638654901
 20
164.6173971540278
 30
0.0
  0
VERTEX
  5
A136
  8
0
 10
174.69780706672
 20
164.74887657041771
 30
0.0
  0
VERTEX
  5
A137
  8
0
 10
174.76648447714859
 20
164.884927730584
 30
0.0
  0
VERTEX
  5
A138
  8
0
 10
174.82425261536869
 20
165.02486419451191
 30
0.0
  0
VERTEX
  5
A139
  8
0
 10
174.8490281779053
 20
165.09607995205641
 30
0.0
  0
VERTEX
  5
A13A
  8
0
 10
174.87105553756359
 20
165.16801744767781
 30
0.0
  0
VERTEX
  5
A13B
  8
0
 10
174.9068389215584
 20
165.31373179977331
 30
0.0
  0
VERTEX
  5
A13C
  8
0
 10
174.93155128939779
 20
165.46136036335531
 30
0.0
  0
VERTEX
  5
A13D
  8
0
 10
174.93974087578721
 20
165.53569346801919
 30
0.0
  0
SEQEND
  5
A13E
  8
0
  0
LINE
  5
68E6
  8
0
 10
128.11016800527369
 20
172.3839455083089
 30
0.0
 11
107.22131558423931
 21
173.71751164983741
 31
0.0
  0
POLYLINE
  5
68E7
  8
0
 66
     1
 10
0.0
 20
0.0
 30
0.0
  0
VERTEX
  5
A13F
  8
0
 10
107.22131558423931
 20
173.71751164983741
 30
0.0
  0
VERTEX
  5
A140
  8
0
 10
107.1217897061361
 20
173.7150337647557
 30
0.0
  0
VERTEX
  5
A141
  8
0
 10
106.9292409509805
 20
173.69606981390709
 30
0.0
  0
VERTEX
  5
A142
  8
0
 10
106.7457447671262
 20
173.6601470757241
 30
0.0
  0
VERTEX
  5
A143
  8
0
 10
106.6575963540939
 20
173.63642296346401
 30
0.0
  0
VERTEX
  5
A144
  8
0
 10
106.5719624805099
 20
173.6091618676835
 30
0.0
  0
VERTEX
  5
A145
  8
0
 10
106.4081086178324
 20
173.54472111505669
 30
0.0
  0
VERTEX
  5
A146
  8
0
 10
106.25419234778271
 20
173.4681322956387
 30
0.0
  0
VERTEX
  5
A147
  8
0
 10
106.1104605821637
 20
173.3806415799281
 30
0.0
  0
VERTEX
  5
A148
  8
0
 10
105.9771374658856
 20
173.28340462504659
 30
0.0
  0
VERTEX
  5
A149
  8
0
 10
105.8544215389886
 20
173.1775118789667
 30
0.0
  0
VERTEX
  5
A14A
  8
0
 10
105.797095065557
 20
173.12164694038611
 30
0.0
  0
VERTEX
  5
A14B
  8
0
 10
105.74248057999461
 20
173.06400599821779
 30
0.0
  0
VERTEX
  5
A14C
  8
0
 10
105.64139132149261
 20
172.94382291700569
 30
0.0
  0
VERTEX
  5
A14D
  8
0
 10
105.551061682549
 20
172.8176261456459
 30
0.0
  0
VERTEX
  5
A14E
  8
0
 10
105.4715310023783
 20
172.68614672925651
 30
0.0
  0
VERTEX
  5
A14F
  8
0
 10
105.40285359195011
 20
172.55009556909059
 30
0.0
  0
VERTEX
  5
A150
  8
0
 10
105.34508545373021
 20
172.41015910516319
 30
0.0
  0
VERTEX
  5
A151
  8
0
 10
105.3203098911936
 20
172.33894334761891
 30
0.0
  0
VERTEX
  5
A152
  8
0
 10
105.29828253153531
 20
172.26700585199771
 30
0.0
  0
VERTEX
  5
A153
  8
0
 10
105.2624991475405
 20
172.1212914999021
 30
0.0
  0
VERTEX
  5
A154
  8
0
 10
105.237786779701
 20
171.97366293631941
 30
0.0
  0
VERTEX
  5
A155
  8
0
 10
105.22959719331151
 20
171.89932983165571
 30
0.0
  0
SEQEND
  5
A156
  8
0
  0
POLYLINE
  5
68E8
  8
0
 66
     1
 10
0.0
 20
0.0
 30
0.0
  0
VERTEX
  5
A157
  8
0
 10
174.93974087578721
 20
171.89932983165571
 30
0.0
  0
VERTEX
  5
A158
  8
0
 10
174.93155128939779
 20
171.9736629363195
 30
0.0
  0
VERTEX
  5
A159
  8
0
 10
174.9068389215584
 20
172.12129149990091
 30
0.0
  0
VERTEX
  5
A15A
  8
0
 10
174.87105553756371
 20
172.26700585199629
 30
0.0
  0
VERTEX
  5
A15B
  8
0
 10
174.84902817790541
 20
172.33894334761791
 30
0.0
  0
VERTEX
  5
A15C
  8
0
 10
174.82425261536881
 20
172.41015910516251
 30
0.0
  0
VERTEX
  5
A15D
  8
0
 10
174.76648447714859
 20
172.5500955690909
 30
0.0
  0
VERTEX
  5
A15E
  8
0
 10
174.69780706671969
 20
172.6861467292579
 30
0.0
  0
VERTEX
  5
A15F
  8
0
 10
174.6182763865483
 20
172.81762614564809
 30
0.0
  0
VERTEX
  5
A160
  8
0
 10
174.52794674760409
 20
172.94382291700839
 30
0.0
  0
VERTEX
  5
A161
  8
0
 10
174.42685748910191
 20
173.06400599822021
 30
0.0
  0
VERTEX
  5
A162
  8
0
 10
174.37224300353941
 20
173.1216469403883
 30
0.0
  0
VERTEX
  5
A163
  8
0
 10
174.31491653010801
 20
173.1775118789688
 30
0.0
  0
VERTEX
  5
A164
  8
0
 10
174.19220060321089
 20
173.28340462504841
 30
0.0
  0
VERTEX
  5
A165
  8
0
 10
174.05887748693289
 20
173.38064157992949
 30
0.0
  0
VERTEX
  5
A166
  8
0
 10
173.91514572131399
 20
173.46813229563969
 30
0.0
  0
VERTEX
  5
A167
  8
0
 10
173.76122945126451
 20
173.5447211150576
 30
0.0
  0
VERTEX
  5
A168
  8
0
 10
173.5973755885872
 20
173.60916186768389
 30
0.0
  0
VERTEX
  5
A169
  8
0
 10
173.5117417150033
 20
173.6364229634645
 30
0.0
  0
VERTEX
  5
A16A
  8
0
 10
173.42359330197129
 20
173.66014707572461
 30
0.0
  0
VERTEX
  5
A16B
  8
0
 10
173.24009711811721
 20
173.6960698139072
 30
0.0
  0
VERTEX
  5
A16C
  8
0
 10
173.04754836296209
 20
173.71503376475579
 30
0.0
  0
VERTEX
  5
A16D
  8
0
 10
172.94802248485931
 20
173.71751164983741
 30
0.0
  0
SEQEND
  5
A16E
  8
0
  0
LINE
  5
68E9
  8
0
 10
107.22131558423941
 20
163.71751164983741
 30
0.0
 11
128.11016800527369
 21
165.05107779136591
 31
0.0
  0
POLYLINE
  5
68EA
  8
0
 66
     1
 10
0.0
 20
0.0
 30
0.0
  0
VERTEX
  5
A16F
  8
0
 10
105.22959719331151
 20
165.53569346801919
 30
0.0
  0
VERTEX
  5
A170
  8
0
 10
105.237786779701
 20
165.46136036335531
 30
0.0
  0
VERTEX
  5
A171
  8
0
 10
105.2624991475403
 20
165.31373179977371
 30
0.0
  0
VERTEX
  5
A172
  8
0
 10
105.29828253153499
 20
165.1680174476783
 30
0.0
  0
VERTEX
  5
A173
  8
0
 10
105.3203098911933
 20
165.09607995205681
 30
0.0
  0
VERTEX
  5
A174
  8
0
 10
105.34508545372999
 20
165.02486419451219
 30
0.0
  0
VERTEX
  5
A175
  8
0
 10
105.4028535919502
 20
164.8849277305838
 30
0.0
  0
VERTEX
  5
A176
  8
0
 10
105.47153100237909
 20
164.74887657041691
 30
0.0
  0
VERTEX
  5
A177
  8
0
 10
105.5510616825505
 20
164.61739715402661
 30
0.0
  0
VERTEX
  5
A178
  8
0
 10
105.64139132149469
 20
164.49120038266631
 30
0.0
  0
VERTEX
  5
A179
  8
0
 10
105.74248057999689
 20
164.3710173014546
 30
0.0
  0
VERTEX
  5
A17A
  8
0
 10
105.7970950655594
 20
164.31337635928639
 30
0.0
  0
VERTEX
  5
A17B
  8
0
 10
105.85442153899081
 20
164.2575114207059
 30
0.0
  0
VERTEX
  5
A17C
  8
0
 10
105.97713746588791
 20
164.15161867462629
 30
0.0
  0
VERTEX
  5
A17D
  8
0
 10
106.1104605821659
 20
164.05438171974521
 30
0.0
  0
VERTEX
  5
A17E
  8
0
 10
106.25419234778479
 20
163.96689100403501
 30
0.0
  0
VERTEX
  5
A17F
  8
0
 10
106.4081086178344
 20
163.89030218461721
 30
0.0
  0
VERTEX
  5
A180
  8
0
 10
106.5719624805116
 20
163.8258614319908
 30
0.0
  0
VERTEX
  5
A181
  8
0
 10
106.6575963540955
 20
163.79860033621031
 30
0.0
  0
VERTEX
  5
A182
  8
0
 10
106.7457447671276
 20
163.77487622395029
 30
0.0
  0
VERTEX
  5
A183
  8
0
 10
106.92924095098149
 20
163.73895348576761
 30
0.0
  0
VERTEX
  5
A184
  8
0
 10
107.1217897061367
 20
163.71998953491911
 30
0.0
  0
VERTEX
  5
A185
  8
0
 10
107.22131558423951
 20
163.71751164983741
 30
0.0
  0
SEQEND
  5
A186
  8
0
  0
LINE
  5
68EB
  8
0
 10
172.94802248485931
 20
173.71751164983741
 30
0.0
 11
152.05917006382501
 21
172.3839455083089
 31
0.0
  0
POLYLINE
  5
68EC
  8
0
 66
     1
 10
0.0
 20
0.0
 30
0.0
  0
VERTEX
  5
A187
  8
0
 10
152.05917006382501
 20
172.3839455083089
 30
0.0
  0
VERTEX
  5
A188
  8
0
 10
151.94707563335069
 20
172.3783670233594
 30
0.0
  0
VERTEX
  5
A189
  8
0
 10
151.7194145964402
 20
172.37672030012641
 30
0.0
  0
VERTEX
  5
A18A
  8
0
 10
151.4884235315595
 20
172.3883126876693
 30
0.0
  0
VERTEX
  5
A18B
  8
0
 10
151.37216858474221
 20
172.39923236922999
 30
0.0
  0
VERTEX
  5
A18C
  8
0
 10
151.25566414431049
 20
172.41362620618449
 30
0.0
  0
VERTEX
  5
A18D
  8
0
 10
151.02265811214619
 20
172.45293772632809
 30
0.0
  0
VERTEX
  5
A18E
  8
0
 10
150.7909120370376
 20
172.50632356556571
 30
0.0
  0
VERTEX
  5
A18F
  8
0
 10
150.56191908049371
 20
172.57365798035039
 30
0.0
  0
VERTEX
  5
A190
  8
0
 10
150.3370409203076
 20
172.65465272418959
 30
0.0
  0
VERTEX
  5
A191
  8
0
 10
150.11750142451001
 20
172.74888815163939
 30
0.0
  0
VERTEX
  5
A192
  8
0
 10
150.01015087893111
 20
172.8007748826918
 30
0.0
  0
VERTEX
  5
A193
  8
0
 10
149.90462792975899
 20
172.85571213780031
 30
0.0
  0
VERTEX
  5
A194
  8
0
 10
149.6996665694694
 20
172.9742878312581
 30
0.0
  0
VERTEX
  5
A195
  8
0
 10
149.50374697240429
 20
173.10361144922919
 30
0.0
  0
VERTEX
  5
A196
  8
0
 10
149.3179129689384
 20
173.2424890082923
 30
0.0
  0
VERTEX
  5
A197
  8
0
 10
149.1430787911311
 20
173.38955539095721
 30
0.0
  0
VERTEX
  5
A198
  8
0
 10
148.97638590521461
 20
173.54690360721361
 30
0.0
  0
VERTEX
  5
A199
  8
0
 10
148.89547340084781
 20
173.63017076250659
 30
0.0
  0
VERTEX
  5
A19A
  8
0
 10
148.8164507810551
 20
173.71638117086539
 30
0.0
  0
VERTEX
  5
A19B
  8
0
 10
148.66481556983331
 20
173.89721404163851
 30
0.0
  0
VERTEX
  5
A19C
  8
0
 10
148.5228404588851
 20
174.08849276871149
 30
0.0
  0
VERTEX
  5
A19D
  8
0
 10
148.45585170537331
 20
174.18773108708999
 30
0.0
  0
SEQEND
  5
A19E
  8
0
  0
POLYLINE
  5
68ED
  8
0
 66
     1
 10
0.0
 20
0.0
 30
0.0
  0
VERTEX
  5
A19F
  8
0
 10
131.71348642019899
 20
174.1877311735127
 30
0.0
  0
VERTEX
  5
A1A0
  8
0
 10
131.6497283028751
 20
174.09313463357319
 30
0.0
  0
VERTEX
  5
A1A1
  8
0
 10
131.5124025551452
 20
173.9072280194373
 30
0.0
  0
VERTEX
  5
A1A2
  8
0
 10
131.36239310041159
 20
173.72709952285729
 30
0.0
  0
VERTEX
  5
A1A3
  8
0
 10
131.28282396409381
 20
173.63969373676059
 30
0.0
  0
VERTEX
  5
A1A4
  8
0
 10
131.20033310805269
 20
173.5543013048009
 30
0.0
  0
VERTEX
  5
A1A5
  8
0
 10
131.02699929501429
 20
173.3902150308879
 30
0.0
  0
VERTEX
  5
A1A6
  8
0
 10
130.84332599355869
 20
173.23607909534709
 30
0.0
  0
VERTEX
  5
A1A7
  8
0
 10
130.65040339094119
 20
173.09298598805859
 30
0.0
  0
VERTEX
  5
A1A8
  8
0
 10
130.449353328184
 20
172.96179980358369
 30
0.0
  0
VERTEX
  5
A1A9
  8
0
 10
130.24134349609611
 20
172.8432016424494
 30
0.0
  0
VERTEX
  5
A1AA
  8
0
 10
130.13516536684341
 20
172.78881996934251
 30
0.0
  0
VERTEX
  5
A1AB
  8
0
 10
130.02778455893761
 20
172.737798643833
 30
0.0
  0
VERTEX
  5
A1AC
  8
0
 10
129.81017530204591
 20
172.6460057164702
 30
0.0
  0
VERTEX
  5
A1AD
  8
0
 10
129.59007688722949
 20
172.56803493058709
 30
0.0
  0
VERTEX
  5
A1AE
  8
0
 10
129.36914954966579
 20
172.50390594914001
 30
0.0
  0
VERTEX
  5
A1AF
  8
0
 10
129.14885610145959
 20
172.4533719687673
 30
0.0
  0
VERTEX
  5
A1B0
  8
0
 10
128.92470137686169
 20
172.41516886716011
 30
0.0
  0
VERTEX
  5
A1B1
  8
0
 10
128.81065972341079
 20
172.40072158396649
 30
0.0
  0
VERTEX
  5
A1B2
  8
0
 10
128.69554646915279
 20
172.38949889130521
 30
0.0
  0
VERTEX
  5
A1B3
  8
0
 10
128.46282511313839
 20
172.3770150538339
 30
0.0
  0
VERTEX
  5
A1B4
  8
0
 10
128.22796056256951
 20
172.37816760664279
 30
0.0
  0
VERTEX
  5
A1B5
  8
0
 10
128.11016800527369
 20
172.3839455083089
 30
0.0
  0
SEQEND
  5
A1B6
  8
0
  0
LINE
  5
68EE
  8
0
 10
64.472004211615712
 20
113.7384704324611
 30
0.0
 11
55.63015650800682
 21
113.7384704324611
 31
0.0
  0
LINE
  5
68EF
  8
0
 10
50.051080359811273
 20
110.4887317111441
 30
0.0
 11
50.051080359811273
 21
77.738470432461156
 31
0.0
  0
LINE
  5
68F0
  8
0
 10
70.051080359811266
 20
77.738470432461156
 30
0.0
 11
70.051080359811266
 21
110.4887317111441
 31
0.0
  0
LINE
  5
68F1
  8
0
 10
50.051080359811273
 20
110.4887317111441
 30
0.0
 11
54.580860836136047
 21
110.4887317111441
 31
0.0
  0
LINE
  5
68F2
  8
0
 10
65.521299883486535
 20
85.738470432461085
 30
0.0
 11
54.580860836135997
 21
85.738470432461085
 31
0.0
  0
LINE
  5
68F3
  8
0
 10
65.521299883486535
 20
110.4887317111441
 30
0.0
 11
70.051080359811266
 21
110.4887317111441
 31
0.0
  0
LINE
  5
68F4
  8
0
 10
70.051080359811266
 20
77.738470432461156
 30
0.0
 11
50.051080359811273
 21
77.738470432461156
 31
0.0
  0
POLYLINE
  5
68F5
  8
0
 66
     1
 10
0.0
 20
0.0
 30
0.0
  0
VERTEX
  5
A1B7
  8
0
 10
64.965007402480381
 20
110.50198125003121
 30
0.0
  0
VERTEX
  5
A1B8
  8
0
 10
65.05104251301097
 20
110.4979875901133
 30
0.0
  0
VERTEX
  5
A1B9
  8
0
 10
65.231479128325901
 20
110.49209700956909
 30
0.0
  0
VERTEX
  5
A1BA
  8
0
 10
65.422306049273487
 20
110.4891084053952
 30
0.0
  0
VERTEX
  5
A1BB
  8
0
 10
65.521299883486535
 20
110.4887317111441
 30
0.0
  0
SEQEND
  5
A1BC
  8
0
  0
LINE
  5
68F6
  8
0
 10
65.521299883486535
 20
110.4887317111441
 30
0.0
 11
65.521299883486535
 21
85.738470432461085
 31
0.0
  0
POLYLINE
  5
68F7
  8
0
 66
     1
 10
0.0
 20
0.0
 30
0.0
  0
VERTEX
  5
A1BD
  8
0
 10
65.521299883486535
 20
85.738470432461085
 30
0.0
  0
VERTEX
  5
A1BE
  8
0
 10
65.428287831562244
 20
85.739070027792764
 30
0.0
  0
VERTEX
  5
A1BF
  8
0
 10
65.247947701190157
 20
85.743851934616146
 30
0.0
  0
VERTEX
  5
A1C0
  8
0
 10
65.075498891326987
 20
85.753371800696982
 30
0.0
  0
VERTEX
  5
A1C1
  8
0
 10
64.99235153899636
 20
85.759891200135584
 30
0.0
  0
VERTEX
  5
A1C2
  8
0
 10
64.911318648240041
 20
85.767573017812765
 30
0.0
  0
VERTEX
  5
A1C3
  8
0
 10
64.756082858139592
 20
85.786347123210817
 30
0.0
  0
VERTEX
  5
A1C4
  8
0
 10
64.610484741051067
 20
85.809525659174255
 30
0.0
  0
VERTEX
  5
A1C5
  8
0
 10
64.474783565135084
 20
85.836964564860409
 30
0.0
  0
VERTEX
  5
A1C6
  8
0
 10
64.34923804115013
 20
85.868514890520714
 30
0.0
  0
VERTEX
  5
A1C7
  8
0
 10
64.234316632097347
 20
85.903952514689806
 30
0.0
  0
VERTEX
  5
A1C8
  8
0
 10
64.180996648592526
 20
85.923038212616177
 30
0.0
  0
VERTEX
  5
A1C9
  8
0
 10
64.130455264744185
 20
85.94300192593937
 30
0.0
  0
VERTEX
  5
A1CA
  8
0
 10
64.037762670887304
 20
85.985465110859991
 30
0.0
  0
VERTEX
  5
A1CB
  8
0
 10
63.956348662486647
 20
86.031147358802798
 30
0.0
  0
VERTEX
  5
A1CC
  8
0
 10
63.886323233959018
 20
86.079857098748903
 30
0.0
  0
VERTEX
  5
A1CD
  8
0
 10
63.827806251711159
 20
86.131394503303397
 30
0.0
  0
VERTEX
  5
A1CE
  8
0
 10
63.78098832841394
 20
86.185447451731193
 30
0.0
  0
VERTEX
  5
A1CF
  8
0
 10
63.761977486070663
 20
86.213344323794104
 30
0.0
  0
VERTEX
  5
A1D0
  8
0
 10
63.745896699306492
 20
86.241789728123535
 30
0.0
  0
VERTEX
  5
A1D1
  8
0
 10
63.722519253366023
 20
86.300233173183585
 30
0.0
  0
VERTEX
  5
A1D2
  8
0
 10
63.71084404776613
 20
86.360582882532015
 30
0.0
  0
VERTEX
  5
A1D3
  8
0
 10
63.70938769295666
 20
86.391390163830394
 30
0.0
  0
SEQEND
  5
A1D4
  8
0
  0
POLYLINE
  5
68F8
  8
0
 66
     1
 10
0.0
 20
0.0
 30
0.0
  0
VERTEX
  5
A1D5
  8
0
 10
63.70938769295666
 20
86.391390163830394
 30
0.0
  0
VERTEX
  5
A1D6
  8
0
 10
63.709613907557269
 20
86.403648873692987
 30
0.0
  0
VERTEX
  5
A1D7
  8
0
 10
63.711421907104381
 20
86.428342171074519
 30
0.0
  0
VERTEX
  5
A1D8
  8
0
 10
63.715033508273187
 20
86.453261254613608
 30
0.0
  0
VERTEX
  5
A1D9
  8
0
 10
63.71751421828278
 20
86.465802227641234
 30
0.0
  0
SEQEND
  5
A1DA
  8
0
  0
POLYLINE
  5
68F9
  8
0
 66
     1
 10
0.0
 20
0.0
 30
0.0
  0
VERTEX
  5
A1DB
  8
0
 10
55.63015650800682
 20
113.7384704324611
 30
0.0
  0
VERTEX
  5
A1DC
  8
0
 10
55.611994197509908
 20
113.734760741332
 30
0.0
  0
VERTEX
  5
A1DD
  8
0
 10
55.574602206940853
 20
113.7037007314004
 30
0.0
  0
VERTEX
  5
A1DE
  8
0
 10
55.536329946146083
 20
113.63896095353969
 30
0.0
  0
VERTEX
  5
A1DF
  8
0
 10
55.517064556323099
 20
113.5935722935356
 30
0.0
  0
VERTEX
  5
A1E0
  8
0
 10
55.497818886140273
 20
113.5395274860157
 30
0.0
  0
VERTEX
  5
A1E1
  8
0
 10
55.459687691993707
 20
113.4061978730393
 30
0.0
  0
VERTEX
  5
A1E2
  8
0
 10
55.422529637224983
 20
113.2415734426045
 30
0.0
  0
VERTEX
  5
A1E3
  8
0
 10
55.38691933452057
 20
113.050090814208
 30
0.0
  0
VERTEX
  5
A1E4
  8
0
 10
55.353196355211111
 20
112.83656626865501
 30
0.0
  0
VERTEX
  5
A1E5
  8
0
 10
55.319452583414972
 20
112.5894370006573
 30
0.0
  0
VERTEX
  5
A1E6
  8
0
 10
55.302506479636442
 20
112.451887559874
 30
0.0
  0
VERTEX
  5
A1E7
  8
0
 10
55.285619603192998
 20
112.3053616066851
 30
0.0
  0
VERTEX
  5
A1E8
  8
0
 10
55.252329138228589
 20
111.987038935218
 30
0.0
  0
VERTEX
  5
A1E9
  8
0
 10
55.220149843761618
 20
111.63876042017731
 30
0.0
  0
VERTEX
  5
A1EA
  8
0
 10
55.18957868480399
 20
111.26632537645931
 30
0.0
  0
VERTEX
  5
A1EB
  8
0
 10
55.161052165194491
 20
110.87716886459719
 30
0.0
  0
VERTEX
  5
A1EC
  8
0
 10
55.134868283415898
 20
110.4791547621986
 30
0.0
  0
VERTEX
  5
A1ED
  8
0
 10
55.122205407711327
 20
110.27072426321131
 30
0.0
  0
VERTEX
  5
A1EE
  8
0
 10
55.109658040534413
 20
110.05273766108419
 30
0.0
  0
VERTEX
  5
A1EF
  8
0
 10
55.085204567099957
 20
109.5908289402457
 30
0.0
  0
VERTEX
  5
A1F0
  8
0
 10
55.062039392854409
 20
109.0996214910672
 30
0.0
  0
VERTEX
  5
A1F1
  8
0
 10
55.051080359811273
 20
108.8452927097912
 30
0.0
  0
SEQEND
  5
A1F2
  8
0
  0
POLYLINE
  5
68FA
  8
0
 66
     1
 10
0.0
 20
0.0
 30
0.0
  0
VERTEX
  5
A1F3
  8
0
 10
55.051080359811273
 20
97.031648155131052
 30
0.0
  0
VERTEX
  5
A1F4
  8
0
 10
55.057842743252053
 20
96.872878662098856
 30
0.0
  0
VERTEX
  5
A1F5
  8
0
 10
55.071879217102577
 20
96.561525324617605
 30
0.0
  0
VERTEX
  5
A1F6
  8
0
 10
55.086516609473932
 20
96.259960444644847
 30
0.0
  0
VERTEX
  5
A1F7
  8
0
 10
55.094026443018748
 20
96.113391498540253
 30
0.0
  0
VERTEX
  5
A1F8
  8
0
 10
55.10164374657662
 20
95.969897244176707
 30
0.0
  0
VERTEX
  5
A1F9
  8
0
 10
55.117135833348662
 20
95.692860515575489
 30
0.0
  0
VERTEX
  5
A1FA
  8
0
 10
55.132854070855359
 20
95.430203252016085
 30
0.0
  0
VERTEX
  5
A1FB
  8
0
 10
55.148786563419861
 20
95.180980362507853
 30
0.0
  0
VERTEX
  5
A1FC
  8
0
 10
55.165588603635769
 20
94.934956532090041
 30
0.0
  0
VERTEX
  5
A1FD
  8
0
 10
55.183301800375339
 20
94.692595071014807
 30
0.0
  0
VERTEX
  5
A1FE
  8
0
 10
55.192473418868047
 20
94.573467644326328
 30
0.0
  0
VERTEX
  5
A1FF
  8
0
 10
55.201839538153621
 20
94.456043693941524
 30
0.0
  0
VERTEX
  5
A200
  8
0
 10
55.221104328579109
 20
94.227231198825621
 30
0.0
  0
VERTEX
  5
A201
  8
0
 10
55.24098679251469
 20
94.007873498014646
 30
0.0
  0
VERTEX
  5
A202
  8
0
 10
55.261369116954
 20
93.799432079701546
 30
0.0
  0
VERTEX
  5
A203
  8
0
 10
55.282126066995012
 20
93.603111445409525
 30
0.0
  0
VERTEX
  5
A204
  8
0
 10
55.303118125749933
 20
93.419925830797183
 30
0.0
  0
VERTEX
  5
A205
  8
0
 10
55.313656331280953
 20
93.333507589513587
 30
0.0
  0
VERTEX
  5
A206
  8
0
 10
55.324197180346538
 20
93.250640116293766
 30
0.0
  0
VERTEX
  5
A207
  8
0
 10
55.345206927345629
 20
93.095772596563634
 30
0.0
  0
VERTEX
  5
A208
  8
0
 10
55.365985584412023
 20
92.955584603746956
 30
0.0
  0
VERTEX
  5
A209
  8
0
 10
55.37644430653549
 20
92.889730458436304
 30
0.0
  0
SEQEND
  5
A20A
  8
0
  0
POLYLINE
  5
68FB
  8
0
 66
     1
 10
0.0
 20
0.0
 30
0.0
  0
VERTEX
  5
A20B
  8
0
 10
55.37644430653549
 20
92.889730458436304
 30
0.0
  0
VERTEX
  5
A20C
  8
0
 10
55.532693855975509
 20
91.653871094455269
 30
0.0
  0
VERTEX
  5
A20D
  8
0
 10
55.862827437760281
 20
89.343581725589956
 30
0.0
  0
VERTEX
  5
A20E
  8
0
 10
56.208861830137131
 20
87.333329626521959
 30
0.0
  0
VERTEX
  5
A20F
  8
0
 10
56.384646501339802
 20
86.465802227641291
 30
0.0
  0
SEQEND
  5
A210
  8
0
  0
LINE
  5
68FC
  8
0
 10
55.051080359811273
 20
108.8452927097912
 30
0.0
 11
55.051080359811273
 21
97.031648155131052
 31
0.0
  0
POLYLINE
  5
68FD
  8
0
 66
     1
 10
0.0
 20
0.0
 30
0.0
  0
VERTEX
  5
A211
  8
0
 10
64.725716413087042
 20
92.889730458436304
 30
0.0
  0
VERTEX
  5
A212
  8
0
 10
64.7361751352108
 20
92.955584603748434
 30
0.0
  0
VERTEX
  5
A213
  8
0
 10
64.756953792277244
 20
93.095772596565254
 30
0.0
  0
VERTEX
  5
A214
  8
0
 10
64.777963539276215
 20
93.250640116295585
 30
0.0
  0
VERTEX
  5
A215
  8
0
 10
64.78850438834192
 20
93.333507589515534
 30
0.0
  0
VERTEX
  5
A216
  8
0
 10
64.799042593872883
 20
93.41992583079923
 30
0.0
  0
VERTEX
  5
A217
  8
0
 10
64.820034652627754
 20
93.603111445411741
 30
0.0
  0
VERTEX
  5
A218
  8
0
 10
64.840791602668816
 20
93.799432079703934
 30
0.0
  0
VERTEX
  5
A219
  8
0
 10
64.861173927108069
 20
94.007873498017148
 30
0.0
  0
VERTEX
  5
A21A
  8
0
 10
64.881056391043643
 20
94.227231198828306
 30
0.0
  0
VERTEX
  5
A21B
  8
0
 10
64.900321181469124
 20
94.456043693944252
 30
0.0
  0
VERTEX
  5
A21C
  8
0
 10
64.909687300754769
 20
94.573467644329185
 30
0.0
  0
VERTEX
  5
A21D
  8
0
 10
64.918858919247413
 20
94.692595071017664
 30
0.0
  0
VERTEX
  5
A21E
  8
0
 10
64.936572115986991
 20
94.934956532092883
 30
0.0
  0
VERTEX
  5
A21F
  8
0
 10
64.953374156203012
 20
95.180980362510795
 30
0.0
  0
VERTEX
  5
A220
  8
0
 10
64.9693066487674
 20
95.430203252019112
 30
0.0
  0
VERTEX
  5
A221
  8
0
 10
64.985024886274076
 20
95.692860515578673
 30
0.0
  0
VERTEX
  5
A222
  8
0
 10
65.000516973046189
 20
95.969897244180117
 30
0.0
  0
VERTEX
  5
A223
  8
0
 10
65.008134276604011
 20
96.113391498543706
 30
0.0
  0
VERTEX
  5
A224
  8
0
 10
65.015644110148827
 20
96.259960444648414
 30
0.0
  0
VERTEX
  5
A225
  8
0
 10
65.030281502520182
 20
96.561525324621371
 30
0.0
  0
VERTEX
  5
A226
  8
0
 10
65.044317976370706
 20
96.872878662102721
 30
0.0
  0
VERTEX
  5
A227
  8
0
 10
65.051080359811266
 20
97.031648155131052
 30
0.0
  0
SEQEND
  5
A228
  8
0
  0
POLYLINE
  5
68FE
  8
0
 66
     1
 10
0.0
 20
0.0
 30
0.0
  0
VERTEX
  5
A229
  8
0
 10
65.051080359811266
 20
108.8452927097912
 30
0.0
  0
VERTEX
  5
A22A
  8
0
 10
65.040121326768002
 20
109.09962149107101
 30
0.0
  0
VERTEX
  5
A22B
  8
0
 10
65.016956152522454
 20
109.5908289402491
 30
0.0
  0
VERTEX
  5
A22C
  8
0
 10
64.992502679088005
 20
110.05273766108721
 30
0.0
  0
VERTEX
  5
A22D
  8
0
 10
64.979955311911084
 20
110.27072426321401
 30
0.0
  0
VERTEX
  5
A22E
  8
0
 10
64.96729243620652
 20
110.47915476220111
 30
0.0
  0
VERTEX
  5
A22F
  8
0
 10
64.941108554427927
 20
110.8771688645996
 30
0.0
  0
VERTEX
  5
A230
  8
0
 10
64.912582034818428
 20
111.2663253764614
 30
0.0
  0
VERTEX
  5
A231
  8
0
 10
64.8820108758608
 20
111.6387604201791
 30
0.0
  0
VERTEX
  5
A232
  8
0
 10
64.849831581393886
 20
111.9870389352195
 30
0.0
  0
VERTEX
  5
A233
  8
0
 10
64.81654111642942
 20
112.3053616066863
 30
0.0
  0
VERTEX
  5
A234
  8
0
 10
64.799654239986097
 20
112.4518875598752
 30
0.0
  0
VERTEX
  5
A235
  8
0
 10
64.78270813620756
 20
112.58943700065819
 30
0.0
  0
VERTEX
  5
A236
  8
0
 10
64.748964364411307
 20
112.8365662686557
 30
0.0
  0
VERTEX
  5
A237
  8
0
 10
64.715241385101848
 20
113.0500908142085
 30
0.0
  0
VERTEX
  5
A238
  8
0
 10
64.679631082397549
 20
113.2415734426049
 30
0.0
  0
VERTEX
  5
A239
  8
0
 10
64.642473027628824
 20
113.4061978730396
 30
0.0
  0
VERTEX
  5
A23A
  8
0
 10
64.604341833482266
 20
113.5395274860159
 30
0.0
  0
VERTEX
  5
A23B
  8
0
 10
64.585096163299426
 20
113.5935722935357
 30
0.0
  0
VERTEX
  5
A23C
  8
0
 10
64.565830773476506
 20
113.63896095353969
 30
0.0
  0
VERTEX
  5
A23D
  8
0
 10
64.527558512681679
 20
113.7037007314004
 30
0.0
  0
VERTEX
  5
A23E
  8
0
 10
64.490166522112673
 20
113.734760741332
 30
0.0
  0
VERTEX
  5
A23F
  8
0
 10
64.472004211615712
 20
113.7384704324611
 30
0.0
  0
SEQEND
  5
A240
  8
0
  0
POLYLINE
  5
68FF
  8
0
 66
     1
 10
0.0
 20
0.0
 30
0.0
  0
VERTEX
  5
A241
  8
0
 10
63.71751421828278
 20
86.465802227641234
 30
0.0
  0
VERTEX
  5
A242
  8
0
 10
63.893298889485457
 20
87.333329626521959
 30
0.0
  0
VERTEX
  5
A243
  8
0
 10
64.239333281862315
 20
89.343581725589956
 30
0.0
  0
VERTEX
  5
A244
  8
0
 10
64.569466863647079
 20
91.653871094455212
 30
0.0
  0
VERTEX
  5
A245
  8
0
 10
64.725716413087042
 20
92.889730458436304
 30
0.0
  0
SEQEND
  5
A246
  8
0
  0
LINE
  5
6900
  8
0
 10
65.051080359811266
 20
108.8452927097912
 30
0.0
 11
65.051080359811266
 21
97.031648155131052
 31
0.0
  0
LINE
  5
6901
  8
0
 10
54.580860836136047
 20
110.4887317111441
 30
0.0
 11
54.580860836136047
 21
85.738470432461085
 31
0.0
  0
POLYLINE
  5
6902
  8
0
 66
     1
 10
0.0
 20
0.0
 30
0.0
  0
VERTEX
  5
A247
  8
0
 10
54.580860836135997
 20
110.4887317111441
 30
0.0
  0
VERTEX
  5
A248
  8
0
 10
54.67688259010103
 20
110.4890859095687
 30
0.0
  0
VERTEX
  5
A249
  8
0
 10
54.865525989798897
 20
110.4919745161307
 30
0.0
  0
VERTEX
  5
A24A
  8
0
 10
55.048177220803289
 20
110.4978653022163
 30
0.0
  0
VERTEX
  5
A24B
  8
0
 10
55.136742914962468
 20
110.5019602353706
 30
0.0
  0
SEQEND
  5
A24C
  8
0
  0
POLYLINE
  5
6903
  8
0
 66
     1
 10
0.0
 20
0.0
 30
0.0
  0
VERTEX
  5
A24D
  8
0
 10
56.384646501339802
 20
86.465802227641291
 30
0.0
  0
VERTEX
  5
A24E
  8
0
 10
56.38712724917238
 20
86.453261044798765
 30
0.0
  0
VERTEX
  5
A24F
  8
0
 10
56.390738853705642
 20
86.428341794112896
 30
0.0
  0
VERTEX
  5
A250
  8
0
 10
56.392546819758053
 20
86.403648664705202
 30
0.0
  0
VERTEX
  5
A251
  8
0
 10
56.392773026665928
 20
86.391390163830394
 30
0.0
  0
SEQEND
  5
A252
  8
0
  0
POLYLINE
  5
6904
  8
0
 66
     1
 10
0.0
 20
0.0
 30
0.0
  0
VERTEX
  5
A253
  8
0
 10
56.392773026665928
 20
86.391390163830394
 30
0.0
  0
VERTEX
  5
A254
  8
0
 10
56.391311889321599
 20
86.360532697567905
 30
0.0
  0
VERTEX
  5
A255
  8
0
 10
56.37959702137104
 20
86.300082576285035
 30
0.0
  0
VERTEX
  5
A256
  8
0
 10
56.356134894400007
 20
86.241536320418561
 30
0.0
  0
VERTEX
  5
A257
  8
0
 10
56.33999437111126
 20
86.213041348173405
 30
0.0
  0
VERTEX
  5
A258
  8
0
 10
56.320911789823157
 20
86.185096366609116
 30
0.0
  0
VERTEX
  5
A259
  8
0
 10
56.273913110270961
 20
86.130952315509717
 30
0.0
  0
VERTEX
  5
A25A
  8
0
 10
56.215223076198548
 20
86.079378297304515
 30
0.0
  0
VERTEX
  5
A25B
  8
0
 10
56.145037610162461
 20
86.030664968432674
 30
0.0
  0
VERTEX
  5
A25C
  8
0
 10
56.063476212388281
 20
85.984998667794045
 30
0.0
  0
VERTEX
  5
A25D
  8
0
 10
55.970659991772642
 20
85.942568550579097
 30
0.0
  0
VERTEX
  5
A25E
  8
0
 10
55.920069285999567
 20
85.92262695718307
 30
0.0
  0
VERTEX
  5
A25F
  8
0
 10
55.86671027902932
 20
85.903566611468818
 30
0.0
  0
VERTEX
  5
A260
  8
0
 10
55.751746550349957
 20
85.868187381170401
 30
0.0
  0
VERTEX
  5
A261
  8
0
 10
55.625901535024099
 20
85.836631605325465
 30
0.0
  0
VERTEX
  5
A262
  8
0
 10
55.489935023605852
 20
85.809212644659567
 30
0.0
  0
VERTEX
  5
A263
  8
0
 10
55.34445013517697
 20
85.786120276353344
 30
0.0
  0
VERTEX
  5
A264
  8
0
 10
55.189779294699939
 20
85.767463350283165
 30
0.0
  0
VERTEX
  5
A265
  8
0
 10
55.109102746115781
 20
85.759830138788104
 30
0.0
  0
VERTEX
  5
A266
  8
0
 10
55.026253880864907
 20
85.753343055213236
 30
0.0
  0
VERTEX
  5
A267
  8
0
 10
54.854203830417731
 20
85.743851561837459
 30
0.0
  0
VERTEX
  5
A268
  8
0
 10
54.673956765073711
 20
85.73907111995868
 30
0.0
  0
VERTEX
  5
A269
  8
0
 10
54.580860836135997
 20
85.738470432461085
 30
0.0
  0
SEQEND
  5
A26A
  8
0
  0
LINE
  5
6905
  8
1
 10
60.051080359811273
 20
71.795290332139075
 30
0.0
 11
60.051080359811273
 21
119.68165053278319
 31
0.0
  0
LINE
  5
6906
  8
2
 62
     2
 10
132.58466903454931
 20
104.7384704324613
 30
0.0
 11
147.58466903454931
 21
104.7384704324613
 31
0.0
  0
LINE
  5
6907
  8
2
 62
     2
 10
147.58466903454931
 20
110.4887317111441
 30
-0.0000000000000016
 11
147.58466903454931
 21
104.7384704324613
 31
0.0
  0
LINE
  5
6908
  8
2
 62
     2
 10
132.58466903454931
 20
110.4887317111441
 30
-0.0000000000000016
 11
132.58466903454931
 21
104.7384704324613
 31
0.0
  0
LINE
  5
6909
  8
2
 62
     2
 10
146.58466903454931
 20
77.738470432461213
 30
0.0
 11
146.58466903454931
 21
104.7384704324613
 31
0.0
  0
LINE
  5
690A
  8
2
 62
     2
 10
146.58466903454931
 20
97.738470432461156
 30
0.0
 11
133.58466903454919
 21
97.738470432461156
 31
0.0
  0
LINE
  5
690D
  8
2
 62
     2
 10
133.58466903454919
 20
77.738470432461213
 30
0.0
 11
133.58466903454919
 21
104.7384704324613
 31
0.0
  0
ARC
  5
6910
  8
0
 10
140.08466903454931
 20
103.45905914955171
 30
-0.0000000000000016
 40
10.27941128290936
 50
43.145975360487178
 51
136.8540246395128
  0
ARC
  5
6911
  8
0
 10
60.051080359811209
 20
103.45905914955171
 30
-0.0000000000000016
 40
10.27941128290936
 50
43.145975360487178
 51
62.58955591470685
  0
ARC
  5
6912
  8
0
 10
60.051080359811209
 20
103.45905914955171
 30
-0.0000000000000016
 40
10.27941128290936
 50
117.4104440852917
 51
136.8540246395128
  0
CIRCLE
  5
6913
  8
0
 10
140.08466903454951
 20
168.71751164983741
 30
0.0
 40
7.5
  0
CIRCLE
  5
6914
  8
0
 10
140.08466903454931
 20
168.71751164983741
 30
0.0
 40
0.7500000000000001
  0
CIRCLE
  5
6915
  8
0
 10
137.58466903454931
 20
168.71751164983741
 30
0.0
 40
0.7500000000000001
  0
CIRCLE
  5
6916
  8
0
 10
135.08466903454931
 20
168.71751164983741
 30
0.0
 40
0.7500000000000001
  0
CIRCLE
  5
6917
  8
0
 10
142.58466903454931
 20
168.71751164983741
 30
0.0
 40
0.7500000000000001
  0
CIRCLE
  5
6918
  8
0
 10
145.08466903454931
 20
168.71751164983741
 30
0.0
 40
0.7500000000000001
  0
ARC
  5
6919
  8
0
 10
140.08466903454951
 20
168.71751164983741
 30
0.0
 40
10.0
 50
33.162944778194209
 51
146.8370546302171
  0
ARC
  5
691A
  8
0
 10
140.08466903454951
 20
168.71751164983741
 30
0.0
 40
10.0
 50
213.1629453697829
 51
326.83705463029571
  0
LINE
  5
6945
  8
2
 10
135.58466903454951
 20
78.238470432461327
 30
0.0
 11
135.08466903454931
 21
77.738470432461156
 31
0.0
  0
LINE
  5
6946
  8
2
 10
144.58466903454919
 20
78.23847043246144
 30
0.0
 11
135.58466903454951
 21
78.238470432461327
 31
0.0
  0
LINE
  5
6947
  8
2
 10
144.58466903454919
 20
78.238470432461327
 30
0.0
 11
145.08466903454931
 21
77.738470432461156
 31
0.0
  0
LINE
  5
69D3
  8
2
 62
     2
 10
145.08466903454931
 20
97.738470432461156
 30
0.0
 11
145.08466903454931
 21
77.738470432461156
 31
0.0
  0
LINE
  5
69D4
  8
2
 62
     2
 10
144.58466903454931
 20
97.238470432460815
 30
0.0
 11
144.58466903454931
 21
78.238470432461497
 31
0.0
  0
LINE
  5
69D5
  8
2
 62
     2
 10
135.08466903454939
 20
97.738470432461156
 30
0.0
 11
135.08466903454931
 21
77.738470432461156
 31
0.0
  0
LINE
  5
69D6
  8
2
 62
     2
 10
135.58466903454931
 20
97.238470432460929
 30
0.0
 11
135.58466903454931
 21
78.238470432461327
 31
0.0
  0
LINE
  5
6A01
  8
2
 10
135.58466903454951
 20
97.238470432460986
 30
0.0
 11
135.08466903454931
 21
97.738470432461156
 31
0.0
  0
LINE
  5
6A02
  8
2
 10
144.58466903454919
 20
97.238470432460886
 30
0.0
 11
135.58466903454951
 21
97.238470432460986
 31
0.0
  0
LINE
  5
6A03
  8
2
 10
144.58466903454919
 20
97.238470432460986
 30
0.0
 11
145.08466903454931
 21
97.738470432461156
 31
0.0
  0
TEXT
  5
A020
  8
0
 62
     3
 10
0.0
 20
0.0
 30
0.0
 40
10.0
  1
EWN70A-SUS-GR
  7
STANDARD1
  0
ENDSEC
  0
EOF
