  0
SECTION
  2
HEADER
  9
$ACADVER
  1
AC1009
  9
$INSBASE
 10
0.0
 20
0.0
 30
0.0
  9
$EXTMIN
 10
0.0
 20
-2.960436562073669
 30
-0.0000000000000016
  9
$EXTMAX
 10
180.2131933258288
 20
184.79662317673811
 30
0.0000000000000002
  9
$LIMMIN
 10
0.0
 20
0.0
  9
$LIMMAX
 10
187.5
 20
135.0
  9
$ORTHOMODE
 70
     1
  9
$REGENMODE
 70
     1
  9
$FILLMODE
 70
     1
  9
$QTEXTMODE
 70
     0
  9
$MIRRTEXT
 70
     0
  9
$DRAGMODE
 70
     2
  9
$LTSCALE
 40
5.0
  9
$OSMODE
 70
  3071
  9
$ATTMODE
 70
     1
  9
$TEXTSIZE
 40
0.2
  9
$TRACEWID
 40
0.05
  9
$TEXTSTYLE
  7
STANDARD
  9
$CLAYER
  8
0
  9
$CELTYPE
  6
BYLAYER
  9
$CECOLOR
 62
     6
  9
$DIMSCALE
 40
1.0
  9
$DIMASZ
 40
3.0
  9
$DIMEXO
 40
2.0
  9
$DIMDLI
 40
0.3799999999999999
  9
$DIMRND
 40
0.0
  9
$DIMDLE
 40
0.0
  9
$DIMEXE
 40
2.0
  9
$DIMTP
 40
0.0
  9
$DIMTM
 40
0.0
  9
$DIMTXT
 40
3.2000000000000002
  9
$DIMCEN
 40
0.09
  9
$DIMTSZ
 40
0.0
  9
$DIMTOL
 70
     0
  9
$DIMLIM
 70
     0
  9
$DIMTIH
 70
     0
  9
$DIMTOH
 70
     0
  9
$DIMSE1
 70
     0
  9
$DIMSE2
 70
     0
  9
$DIMTAD
 70
     1
  9
$DIMZIN
 70
     8
  9
$DIMBLK
  1

  9
$DIMASO
 70
     0
  9
$DIMSHO
 70
     0
  9
$DIMPOST
  1

  9
$DIMAPOST
  1

  9
$DIMALT
 70
     0
  9
$DIMALTD
 70
     2
  9
$DIMALTF
 40
25.399999999999999
  9
$DIMLFAC
 40
1.0
  9
$DIMTOFL
 70
     0
  9
$DIMTVP
 40
1.6000000000000001
  9
$DIMTIX
 70
     1
  9
$DIMSOXD
 70
     0
  9
$DIMSAH
 70
     0
  9
$DIMBLK1
  1

  9
$DIMBLK2
  1

  9
$DIMSTYLE
  2
STANDARD
  9
$DIMCLRD
 70
     0
  9
$DIMCLRE
 70
     0
  9
$DIMCLRT
 70
     0
  9
$DIMTFAC
 40
1.0
  9
$DIMGAP
 40
1.0
  9
$LUNITS
 70
     2
  9
$LUPREC
 70
     4
  9
$SKETCHINC
 40
0.1
  9
$FILLETRAD
 40
0.4
  9
$AUNITS
 70
     0
  9
$AUPREC
 70
     0
  9
$MENU
  1
E:\r13\win\SUPPORT\ACAD
  9
$ELEVATION
 40
0.0
  9
$PELEVATION
 40
0.0
  9
$THICKNESS
 40
0.0
  9
$LIMCHECK
 70
     0
  9
$BLIPMODE
 70
     0
  9
$CHAMFERA
 40
0.0
  9
$CHAMFERB
 40
0.0
  9
$SKPOLY
 70
     0
  9
$TDCREATE
 40
2456129.6740617128
  9
$TDUPDATE
 40
2456598.6990445019
  9
$TDINDWG
 40
0.5152578241
  9
$TDUSRTIMER
 40
0.5152576505000001
  9
$USRTIMER
 70
     1
  9
$ANGBASE
 50
0.0
  9
$ANGDIR
 70
     0
  9
$PDMODE
 70
     0
  9
$PDSIZE
 40
0.0
  9
$PLINEWID
 40
0.0
  9
$COORDS
 70
     1
  9
$SPLFRAME
 70
     0
  9
$SPLINETYPE
 70
     6
  9
$SPLINESEGS
 70
     8
  9
$ATTDIA
 70
     0
  9
$ATTREQ
 70
     1
  9
$HANDLING
 70
     1
  9
$HANDSEED
  5
A7CD
  9
$SURFTAB1
 70
     6
  9
$SURFTAB2
 70
     6
  9
$SURFTYPE
 70
     6
  9
$SURFU
 70
     6
  9
$SURFV
 70
     6
  9
$UCSNAME
  2

  9
$UCSORG
 10
0.0
 20
0.0
 30
0.0
  9
$UCSXDIR
 10
1.0
 20
0.0
 30
0.0
  9
$UCSYDIR
 10
0.0
 20
1.0
 30
0.0
  9
$PUCSNAME
  2

  9
$PUCSORG
 10
0.0
 20
0.0
 30
0.0
  9
$PUCSXDIR
 10
1.0
 20
0.0
 30
0.0
  9
$PUCSYDIR
 10
0.0
 20
1.0
 30
0.0
  9
$USERI1
 70
     0
  9
$USERI2
 70
     1
  9
$USERI3
 70
     0
  9
$USERI4
 70
     0
  9
$USERI5
 70
     0
  9
$USERR1
 40
0.0
  9
$USERR2
 40
0.0
  9
$USERR3
 40
0.0
  9
$USERR4
 40
0.0
  9
$USERR5
 40
0.0
  9
$WORLDVIEW
 70
     1
  9
$SHADEDGE
 70
     3
  9
$SHADEDIF
 70
    70
  9
$TILEMODE
 70
     1
  9
$MAXACTVP
 70
    16
  9
$PLIMCHECK
 70
     0
  9
$PEXTMIN
 10
1.0000000000000000E+020
 20
1.0000000000000000E+020
 30
1.0000000000000000E+020
  9
$PEXTMAX
 10
-1.0000000000000000E+020
 20
-1.0000000000000000E+020
 30
-1.0000000000000000E+020
  9
$PLIMMIN
 10
0.0
 20
0.0
  9
$PLIMMAX
 10
12.0
 20
9.0
  9
$UNITMODE
 70
     0
  9
$VISRETAIN
 70
     0
  9
$PLINEGEN
 70
     0
  9
$PSLTSCALE
 70
     0
  0
ENDSEC
  0
SECTION
  2
TABLES
  0
TABLE
  2
VPORT
 70
     1
  0
VPORT
  2
*ACTIVE
 70
     0
 10
0.0
 20
0.0
 11
1.0
 21
1.0
 12
93.747139195326156
 22
115.9516809073157
 13
0.0
 23
0.0
 14
5.0
 24
5.0
 15
5.0
 25
5.0
 16
0.0
 26
0.0
 36
1.0
 17
0.0
 27
0.0
 37
0.0
 40
239.99442320719351
 41
1.831871345029239
 42
50.0
 43
0.0
 44
0.0
 50
0.0
 51
0.0
 71
     0
 72
   500
 73
     1
 74
     0
 75
     0
 76
     0
 77
     0
 78
     2
  0
ENDTAB
  0
TABLE
  2
LTYPE
 70
     3
  0
LTYPE
  2
CONTINUOUS
 70
     0
  3
Solid Line
 72
    65
 73
     0
 40
0.0
  0
LTYPE
  2
CENTER
 70
     0
  3
____ _ ____ _ ____ _ ____ _ ____ _ ____ _ ____
 72
    65
 73
     4
 40
2.0
 49
1.25
 49
-0.25
 49
0.25
 49
-0.25
  0
LTYPE
  2
PHANTOM2
 70
     0
  3
___ _ _ ___ _ _ ___ _ _ ___ _ _
 72
    65
 73
     6
 40
1.25
 49
0.625
 49
-0.125
 49
0.125
 49
-0.125
 49
0.125
 49
-0.125
  0
ENDTAB
  0
TABLE
  2
LAYER
 70
     4
  0
LAYER
  2
0
 70
     0
 62
     7
  6
CONTINUOUS
  0
LAYER
  2
1
 70
     0
 62
     1
  6
CENTER
  0
LAYER
  2
DEFPOINTS
 70
     0
 62
     7
  6
CONTINUOUS
  0
LAYER
  2
3
 70
     0
 62
     3
  6
CONTINUOUS
  0
ENDTAB
  0
TABLE
  2
STYLE
 70
     2
  0
STYLE
  2
STANDARD
 70
     0
 40
0.0
 41
1.0
 50
0.0
 71
     0
 42
0.2
  3
TXT
  4
BIGFONT
  0
STYLE
  2
STANDARD1
 70
     0
 40
0.0
 41
1.0
 50
0.0
 71
     0
 42
3.0
  3
txt
  4

  0
ENDTAB
  0
TABLE
  2
VIEW
 70
     0
  0
ENDTAB
  0
TABLE
  2
UCS
 70
     0
  0
ENDTAB
  0
TABLE
  2
APPID
 70
     7
  0
APPID
  2
ACAD
 70
     0
  0
APPID
  2
ACAD_MLEADERVER
 70
     0
  0
APPID
  2
ACAD_PSEXT
 70
     0
  0
APPID
  2
ACAD_EXEMPT_FROM_CAD_STANDARDS
 70
     0
  0
APPID
  2
ACAD_DSTYLE_DIMJAG
 70
     0
  0
APPID
  2
ACAD_DSTYLE_DIMTALN
 70
     0
  0
APPID
  2
ACAD_NAV_VCDISPLAY
 70
     0
  0
ENDTAB
  0
TABLE
  2
DIMSTYLE
 70
     1
  0
DIMSTYLE
  2
STANDARD
 70
     0
  3

  4

  5

  6

  7

 40
1.0
 41
0.18
 42
0.0625
 43
0.38
 44
0.18
 45
0.0
 46
0.0
 47
0.0
 48
0.0
140
0.18
141
0.09
142
0.0
143
25.399999999999999
144
1.0
145
0.0
146
1.0
147
0.09
 71
     0
 72
     0
 73
     1
 74
     1
 75
     0
 76
     0
 77
     0
 78
     0
170
     0
171
     2
172
     0
173
     0
174
     0
175
     0
176
     0
177
     0
178
     0
  0
ENDTAB
  0
ENDSEC
  0
SECTION
  2
BLOCKS
  0
BLOCK
  8
0
  2
$MODEL_SPACE
 70
     0
 10
0.0
 20
0.0
 30
0.0
  3
$MODEL_SPACE
  1

  0
ENDBLK
  5
9
  8
0
  0
BLOCK
 67
     1
  8
0
  2
$PAPER_SPACE
 70
     0
 10
0.0
 20
0.0
 30
0.0
  3
$PAPER_SPACE
  1

  0
ENDBLK
  5
E
 67
     1
  8
0
  0
ENDSEC
  0
SECTION
  2
ENTITIES
  0
LINE
  5
5025
  8
1
 10
140.08466903454939
 20
31.607609913894692
 30
0.0000000000000002
 11
140.08466903454931
 21
119.68165053278319
 31
0.0
  0
LINE
  5
5026
  8
0
 10
116.2919089530341
 20
113.7384704324611
 30
0.0
 11
115.8846690345494
 21
113.7384704324611
 31
0.0
  0
ARC
  5
5027
  8
0
 10
115.8846690345494
 20
102.9384704324611
 30
0.0
 40
10.800000000000001
 50
90.0
 51
248.5033330048735
  0
LINE
  5
5028
  8
0
 10
164.28466903454941
 20
113.7384704324611
 30
0.0
 11
163.8774291160646
 21
113.7384704324611
 31
0.0
  0
ARC
  5
5029
  8
0
 10
164.28466903454941
 20
102.9384704324611
 30
0.0
 40
10.80000000000001
 50
291.49666699512642
 51
90.0
  0
ARC
  5
502A
  8
0
 10
153.61697474645581
 20
172.1163768922903
 30
0.0
 40
89.526041666666103
 50
242.2461603245749
 51
254.76050568516891
  0
ARC
  5
502B
  8
0
 10
126.5523633226433
 20
172.1163768922892
 30
0.0
 40
89.52604166666498
 50
285.23949431483118
 51
297.75383967542501
  0
LINE
  5
502C
  8
0
 10
130.08466903454939
 20
85.738470432461085
 30
0.0
 11
130.08466903454939
 21
77.738470432461099
 31
0.0
  0
LINE
  5
502D
  8
0
 10
150.08466903454939
 20
77.738470432461099
 30
0.0
 11
150.08466903454939
 21
85.738470432461085
 31
0.0
  0
LINE
  5
5032
  8
0
 10
131.71348642019899
 20
110.488731711144
 30
0.0
 11
148.4558516488998
 21
110.488731711144
 31
0.0
  0
LINE
  5
5034
  8
0
 10
150.08466903454939
 20
77.738470432461099
 30
0.0
 11
130.08466903454939
 21
77.738470432461099
 31
0.0
  0
POLYLINE
  5
5035
  8
0
 66
     1
 10
0.0
 20
0.0
 30
0.0
  0
VERTEX
  5
A3D5
  8
0
 10
128.11016800527381
 20
110.9189258043496
 30
0.0
  0
VERTEX
  5
A3D6
  8
0
 10
128.22226243844449
 20
110.8983265278536
 30
0.0
  0
VERTEX
  5
A3D7
  8
0
 10
128.44992348089531
 20
110.85763499830701
 30
0.0
  0
VERTEX
  5
A3D8
  8
0
 10
128.68091455141959
 20
110.8179143296824
 30
0.0
  0
VERTEX
  5
A3D9
  8
0
 10
128.7971695010624
 20
110.79852290683991
 30
0.0
  0
VERTEX
  5
A3DA
  8
0
 10
128.91367394430429
 20
110.7794961251666
 30
0.0
  0
VERTEX
  5
A3DB
  8
0
 10
129.1466799819903
 20
110.74268037607131
 30
0.0
  0
VERTEX
  5
A3DC
  8
0
 10
129.37842606239809
 20
110.70774057951191
 30
0.0
  0
VERTEX
  5
A3DD
  8
0
 10
129.60741902391641
 20
110.6749239988699
 30
0.0
  0
VERTEX
  5
A3DE
  8
0
 10
129.832297188692
 20
110.64443546440179
 30
0.0
  0
VERTEX
  5
A3DF
  8
0
 10
130.05183668858791
 20
110.616440027336
 30
0.0
  0
VERTEX
  5
A3E0
  8
0
 10
130.15918723600211
 20
110.60342741343921
 30
0.0
  0
VERTEX
  5
A3E1
  8
0
 10
130.26471018685481
 20
110.5910941481587
 30
0.0
  0
VERTEX
  5
A3E2
  8
0
 10
130.46967155001281
 20
110.5685186018064
 30
0.0
  0
VERTEX
  5
A3E3
  8
0
 10
130.66559114924189
 20
110.548794404674
 30
0.0
  0
VERTEX
  5
A3E4
  8
0
 10
130.85142515411559
 20
110.53196565964799
 30
0.0
  0
VERTEX
  5
A3E5
  8
0
 10
131.02625933270409
 20
110.5180340849541
 30
0.0
  0
VERTEX
  5
A3E6
  8
0
 10
131.1929522206166
 20
110.5067341234235
 30
0.0
  0
VERTEX
  5
A3E7
  8
0
 10
131.2738647256536
 20
110.5020462935875
 30
0.0
  0
VERTEX
  5
A3E8
  8
0
 10
131.3528873458875
 20
110.49803325317301
 30
0.0
  0
VERTEX
  5
A3E9
  8
0
 10
131.50452255728419
 20
110.49211373925959
 30
0.0
  0
VERTEX
  5
A3EA
  8
0
 10
131.64649766744731
 20
110.48911028740579
 30
0.0
  0
VERTEX
  5
A3EB
  8
0
 10
131.71348642019899
 20
110.488731711144
 30
0.0
  0
SEQEND
  5
A3EC
  8
0
  0
POLYLINE
  5
5039
  8
0
 66
     1
 10
0.0
 20
0.0
 30
0.0
  0
VERTEX
  5
A3ED
  8
0
 10
148.4558516488998
 20
110.488731711144
 30
0.0
  0
VERTEX
  5
A3EE
  8
0
 10
148.5196097662236
 20
110.48907537255479
 30
0.0
  0
VERTEX
  5
A3EF
  8
0
 10
148.6569355139535
 20
110.4918773959168
 30
0.0
  0
VERTEX
  5
A3F0
  8
0
 10
148.80694496868711
 20
110.4975907453166
 30
0.0
  0
VERTEX
  5
A3F1
  8
0
 10
148.88651410500501
 20
110.50156225959429
 30
0.0
  0
VERTEX
  5
A3F2
  8
0
 10
148.96900496104601
 20
110.5062835904788
 30
0.0
  0
VERTEX
  5
A3F3
  8
0
 10
149.14233877408449
 20
110.51797942305841
 30
0.0
  0
VERTEX
  5
A3F4
  8
0
 10
149.32601207554001
 20
110.53265769652251
 30
0.0
  0
VERTEX
  5
A3F5
  8
0
 10
149.51893467815751
 20
110.5502537850774
 30
0.0
  0
VERTEX
  5
A3F6
  8
0
 10
149.7199847409147
 20
110.5706713536909
 30
0.0
  0
VERTEX
  5
A3F7
  8
0
 10
149.92799457300259
 20
110.5937850149374
 30
0.0
  0
VERTEX
  5
A3F8
  8
0
 10
150.0341727022554
 20
110.60629917723961
 30
0.0
  0
VERTEX
  5
A3F9
  8
0
 10
150.1415535101612
 20
110.6194179268838
 30
0.0
  0
VERTEX
  5
A3FA
  8
0
 10
150.35916276705279
 20
110.6473553850882
 30
0.0
  0
VERTEX
  5
A3FB
  8
0
 10
150.57926118186921
 20
110.67734800796021
 30
0.0
  0
VERTEX
  5
A3FC
  8
0
 10
150.80018851943291
 20
110.7091062797201
 30
0.0
  0
VERTEX
  5
A3FD
  8
0
 10
151.02048196763911
 20
110.74234442209119
 30
0.0
  0
VERTEX
  5
A3FE
  8
0
 10
151.24463669223701
 20
110.7777163990516
 30
0.0
  0
VERTEX
  5
A3FF
  8
0
 10
151.35867834568791
 20
110.79629888151
 30
0.0
  0
VERTEX
  5
A400
  8
0
 10
151.47379159994591
 20
110.81545154795189
 30
0.0
  0
VERTEX
  5
A401
  8
0
 10
151.70651295596031
 20
110.85537484443969
 30
0.0
  0
VERTEX
  5
A402
  8
0
 10
151.94137750652919
 20
110.8972893576222
 30
0.0
  0
VERTEX
  5
A403
  8
0
 10
152.05917006382501
 20
110.9189258043496
 30
0.0
  0
SEQEND
  5
A404
  8
0
  0
POLYLINE
  5
503C
  8
0
 10
152.05917006382481
 20
110.91892580434957
 30
0.0
 66
     1
 70
     8
  0
VERTEX
  8
0
  5
A5C5
 10
152.059
 20
110.919
 30
0.000000
  70
    32
  0
VERTEX
  8
0
  5
A5C6
 10
152.114
 20
110.929
 30
0.000000
  70
    32
  0
VERTEX
  8
0
  5
A5C7
 10
152.169
 20
110.939
 30
0.000000
  70
    32
  0
VERTEX
  8
0
  5
A5C8
 10
152.224
 20
110.950
 30
0.000000
  70
    32
  0
VERTEX
  8
0
  5
A5C9
 10
152.279
 20
110.960
 30
0.000000
  70
    32
  0
VERTEX
  8
0
  5
A5CA
 10
152.334
 20
110.970
 30
0.000000
  70
    32
  0
VERTEX
  8
0
  5
A5CB
 10
152.389
 20
110.981
 30
0.000000
  70
    32
  0
VERTEX
  8
0
  5
A5CC
 10
152.444
 20
110.991
 30
0.000000
  70
    32
  0
VERTEX
  8
0
  5
A5CD
 10
152.499
 20
111.002
 30
0.000000
  70
    32
  0
VERTEX
  8
0
  5
A5CE
 10
152.554
 20
111.013
 30
0.000000
  70
    32
  0
VERTEX
  8
0
  5
A5CF
 10
152.609
 20
111.023
 30
0.000000
  70
    32
  0
VERTEX
  8
0
  5
A5D0
 10
152.664
 20
111.034
 30
0.000000
  70
    32
  0
VERTEX
  8
0
  5
A5D1
 10
152.719
 20
111.045
 30
0.000000
  70
    32
  0
VERTEX
  8
0
  5
A5D2
 10
152.773
 20
111.055
 30
0.000000
  70
    32
  0
VERTEX
  8
0
  5
A5D3
 10
152.828
 20
111.066
 30
0.000000
  70
    32
  0
VERTEX
  8
0
  5
A5D4
 10
152.883
 20
111.077
 30
0.000000
  70
    32
  0
VERTEX
  8
0
  5
A5D5
 10
152.938
 20
111.088
 30
0.000000
  70
    32
  0
VERTEX
  8
0
  5
A5D6
 10
152.993
 20
111.099
 30
0.000000
  70
    32
  0
VERTEX
  8
0
  5
A5D7
 10
153.048
 20
111.110
 30
0.000000
  70
    32
  0
VERTEX
  8
0
  5
A5D8
 10
153.103
 20
111.121
 30
0.000000
  70
    32
  0
VERTEX
  8
0
  5
A5D9
 10
153.157
 20
111.132
 30
0.000000
  70
    32
  0
VERTEX
  8
0
  5
A5DA
 10
153.212
 20
111.143
 30
0.000000
  70
    32
  0
VERTEX
  8
0
  5
A5DB
 10
153.267
 20
111.154
 30
0.000000
  70
    32
  0
VERTEX
  8
0
  5
A5DC
 10
153.322
 20
111.166
 30
0.000000
  70
    32
  0
VERTEX
  8
0
  5
A5DD
 10
153.377
 20
111.177
 30
0.000000
  70
    32
  0
VERTEX
  8
0
  5
A5DE
 10
153.431
 20
111.188
 30
0.000000
  70
    32
  0
VERTEX
  8
0
  5
A5DF
 10
153.486
 20
111.200
 30
0.000000
  70
    32
  0
VERTEX
  8
0
  5
A5E0
 10
153.541
 20
111.211
 30
0.000000
  70
    32
  0
VERTEX
  8
0
  5
A5E1
 10
153.596
 20
111.223
 30
0.000000
  70
    32
  0
VERTEX
  8
0
  5
A5E2
 10
153.650
 20
111.234
 30
0.000000
  70
    32
  0
VERTEX
  8
0
  5
A5E3
 10
153.705
 20
111.246
 30
0.000000
  70
    32
  0
VERTEX
  8
0
  5
A5E4
 10
153.760
 20
111.257
 30
0.000000
  70
    32
  0
VERTEX
  8
0
  5
A5E5
 10
153.815
 20
111.269
 30
0.000000
  70
    32
  0
VERTEX
  8
0
  5
A5E6
 10
153.869
 20
111.281
 30
0.000000
  70
    32
  0
VERTEX
  8
0
  5
A5E7
 10
153.924
 20
111.292
 30
0.000000
  70
    32
  0
VERTEX
  8
0
  5
A5E8
 10
153.979
 20
111.304
 30
0.000000
  70
    32
  0
VERTEX
  8
0
  5
A5E9
 10
154.033
 20
111.316
 30
0.000000
  70
    32
  0
VERTEX
  8
0
  5
A5EA
 10
154.088
 20
111.328
 30
0.000000
  70
    32
  0
VERTEX
  8
0
  5
A5EB
 10
154.143
 20
111.340
 30
0.000000
  70
    32
  0
VERTEX
  8
0
  5
A5EC
 10
154.197
 20
111.352
 30
0.000000
  70
    32
  0
VERTEX
  8
0
  5
A5ED
 10
154.252
 20
111.364
 30
0.000000
  70
    32
  0
VERTEX
  8
0
  5
A5EE
 10
154.307
 20
111.376
 30
0.000000
  70
    32
  0
VERTEX
  8
0
  5
A5EF
 10
154.361
 20
111.388
 30
0.000000
  70
    32
  0
VERTEX
  8
0
  5
A5F0
 10
154.416
 20
111.400
 30
0.000000
  70
    32
  0
VERTEX
  8
0
  5
A5F1
 10
154.470
 20
111.412
 30
0.000000
  70
    32
  0
VERTEX
  8
0
  5
A5F2
 10
154.525
 20
111.424
 30
0.000000
  70
    32
  0
VERTEX
  8
0
  5
A5F3
 10
154.580
 20
111.437
 30
0.000000
  70
    32
  0
VERTEX
  8
0
  5
A5F4
 10
154.634
 20
111.449
 30
0.000000
  70
    32
  0
VERTEX
  8
0
  5
A5F5
 10
154.689
 20
111.461
 30
0.000000
  70
    32
  0
VERTEX
  8
0
  5
A5F6
 10
154.743
 20
111.474
 30
0.000000
  70
    32
  0
VERTEX
  8
0
  5
A5F7
 10
154.798
 20
111.486
 30
0.000000
  70
    32
  0
VERTEX
  8
0
  5
A5F8
 10
154.852
 20
111.499
 30
0.000000
  70
    32
  0
VERTEX
  8
0
  5
A5F9
 10
154.907
 20
111.511
 30
0.000000
  70
    32
  0
VERTEX
  8
0
  5
A5FA
 10
154.961
 20
111.524
 30
0.000000
  70
    32
  0
VERTEX
  8
0
  5
A5FB
 10
155.016
 20
111.537
 30
0.000000
  70
    32
  0
VERTEX
  8
0
  5
A5FC
 10
155.070
 20
111.549
 30
0.000000
  70
    32
  0
VERTEX
  8
0
  5
A5FD
 10
155.125
 20
111.562
 30
0.000000
  70
    32
  0
VERTEX
  8
0
  5
A5FE
 10
155.179
 20
111.575
 30
0.000000
  70
    32
  0
VERTEX
  8
0
  5
A5FF
 10
155.234
 20
111.588
 30
0.000000
  70
    32
  0
VERTEX
  8
0
  5
A600
 10
155.288
 20
111.601
 30
0.000000
  70
    32
  0
VERTEX
  8
0
  5
A601
 10
155.342
 20
111.614
 30
0.000000
  70
    32
  0
VERTEX
  8
0
  5
A602
 10
155.397
 20
111.627
 30
0.000000
  70
    32
  0
VERTEX
  8
0
  5
A603
 10
155.451
 20
111.640
 30
0.000000
  70
    32
  0
VERTEX
  8
0
  5
A604
 10
155.506
 20
111.653
 30
0.000000
  70
    32
  0
VERTEX
  8
0
  5
A605
 10
155.560
 20
111.666
 30
0.000000
  70
    32
  0
VERTEX
  8
0
  5
A606
 10
155.614
 20
111.679
 30
0.000000
  70
    32
  0
VERTEX
  8
0
  5
A607
 10
155.669
 20
111.692
 30
0.000000
  70
    32
  0
VERTEX
  8
0
  5
A608
 10
155.723
 20
111.705
 30
0.000000
  70
    32
  0
VERTEX
  8
0
  5
A609
 10
155.777
 20
111.719
 30
0.000000
  70
    32
  0
VERTEX
  8
0
  5
A60A
 10
155.832
 20
111.732
 30
0.000000
  70
    32
  0
VERTEX
  8
0
  5
A60B
 10
155.886
 20
111.745
 30
0.000000
  70
    32
  0
VERTEX
  8
0
  5
A60C
 10
155.940
 20
111.759
 30
0.000000
  70
    32
  0
VERTEX
  8
0
  5
A60D
 10
155.995
 20
111.772
 30
0.000000
  70
    32
  0
VERTEX
  8
0
  5
A60E
 10
156.049
 20
111.786
 30
0.000000
  70
    32
  0
VERTEX
  8
0
  5
A60F
 10
156.103
 20
111.799
 30
0.000000
  70
    32
  0
VERTEX
  8
0
  5
A610
 10
156.157
 20
111.813
 30
0.000000
  70
    32
  0
VERTEX
  8
0
  5
A611
 10
156.212
 20
111.827
 30
0.000000
  70
    32
  0
VERTEX
  8
0
  5
A612
 10
156.266
 20
111.840
 30
0.000000
  70
    32
  0
VERTEX
  8
0
  5
A613
 10
156.320
 20
111.854
 30
0.000000
  70
    32
  0
VERTEX
  8
0
  5
A614
 10
156.374
 20
111.868
 30
0.000000
  70
    32
  0
VERTEX
  8
0
  5
A615
 10
156.429
 20
111.882
 30
0.000000
  70
    32
  0
VERTEX
  8
0
  5
A616
 10
156.483
 20
111.896
 30
0.000000
  70
    32
  0
VERTEX
  8
0
  5
A617
 10
156.537
 20
111.910
 30
0.000000
  70
    32
  0
VERTEX
  8
0
  5
A618
 10
156.591
 20
111.924
 30
0.000000
  70
    32
  0
VERTEX
  8
0
  5
A619
 10
156.645
 20
111.938
 30
0.000000
  70
    32
  0
VERTEX
  8
0
  5
A61A
 10
156.699
 20
111.952
 30
0.000000
  70
    32
  0
VERTEX
  8
0
  5
A61B
 10
156.754
 20
111.966
 30
0.000000
  70
    32
  0
VERTEX
  8
0
  5
A61C
 10
156.808
 20
111.980
 30
0.000000
  70
    32
  0
VERTEX
  8
0
  5
A61D
 10
156.862
 20
111.994
 30
0.000000
  70
    32
  0
VERTEX
  8
0
  5
A61E
 10
156.916
 20
112.008
 30
0.000000
  70
    32
  0
VERTEX
  8
0
  5
A61F
 10
156.970
 20
112.023
 30
0.000000
  70
    32
  0
VERTEX
  8
0
  5
A620
 10
157.024
 20
112.037
 30
0.000000
  70
    32
  0
VERTEX
  8
0
  5
A621
 10
157.078
 20
112.051
 30
0.000000
  70
    32
  0
VERTEX
  8
0
  5
A622
 10
157.132
 20
112.066
 30
0.000000
  70
    32
  0
VERTEX
  8
0
  5
A623
 10
157.186
 20
112.080
 30
0.000000
  70
    32
  0
VERTEX
  8
0
  5
A624
 10
157.240
 20
112.095
 30
0.000000
  70
    32
  0
VERTEX
  8
0
  5
A625
 10
157.294
 20
112.109
 30
0.000000
  70
    32
  0
VERTEX
  8
0
  5
A626
 10
157.348
 20
112.124
 30
0.000000
  70
    32
  0
VERTEX
  8
0
  5
A627
 10
157.402
 20
112.139
 30
0.000000
  70
    32
  0
VERTEX
  8
0
  5
A628
 10
157.456
 20
112.153
 30
0.000000
  70
    32
  0
VERTEX
  8
0
  5
A629
 10
157.510
 20
112.168
 30
0.000000
  70
    32
  0
VERTEX
  8
0
  5
A62A
 10
157.564
 20
112.183
 30
0.000000
  70
    32
  0
VERTEX
  8
0
  5
A62B
 10
157.618
 20
112.198
 30
0.000000
  70
    32
  0
VERTEX
  8
0
  5
A62C
 10
157.672
 20
112.213
 30
0.000000
  70
    32
  0
VERTEX
  8
0
  5
A62D
 10
157.726
 20
112.228
 30
0.000000
  70
    32
  0
VERTEX
  8
0
  5
A62E
 10
157.780
 20
112.243
 30
0.000000
  70
    32
  0
VERTEX
  8
0
  5
A62F
 10
157.834
 20
112.258
 30
0.000000
  70
    32
  0
VERTEX
  8
0
  5
A630
 10
157.888
 20
112.273
 30
0.000000
  70
    32
  0
VERTEX
  8
0
  5
A631
 10
157.941
 20
112.288
 30
0.000000
  70
    32
  0
VERTEX
  8
0
  5
A632
 10
157.995
 20
112.303
 30
0.000000
  70
    32
  0
VERTEX
  8
0
  5
A633
 10
158.049
 20
112.318
 30
0.000000
  70
    32
  0
VERTEX
  8
0
  5
A634
 10
158.103
 20
112.333
 30
0.000000
  70
    32
  0
VERTEX
  8
0
  5
A635
 10
158.157
 20
112.349
 30
0.000000
  70
    32
  0
VERTEX
  8
0
  5
A636
 10
158.210
 20
112.364
 30
0.000000
  70
    32
  0
VERTEX
  8
0
  5
A637
 10
158.264
 20
112.379
 30
0.000000
  70
    32
  0
VERTEX
  8
0
  5
A638
 10
158.318
 20
112.395
 30
0.000000
  70
    32
  0
VERTEX
  8
0
  5
A639
 10
158.372
 20
112.410
 30
0.000000
  70
    32
  0
VERTEX
  8
0
  5
A63A
 10
158.426
 20
112.426
 30
0.000000
  70
    32
  0
VERTEX
  8
0
  5
A63B
 10
158.479
 20
112.441
 30
0.000000
  70
    32
  0
VERTEX
  8
0
  5
A63C
 10
158.533
 20
112.457
 30
0.000000
  70
    32
  0
VERTEX
  8
0
  5
A63D
 10
158.587
 20
112.473
 30
0.000000
  70
    32
  0
VERTEX
  8
0
  5
A63E
 10
158.640
 20
112.488
 30
0.000000
  70
    32
  0
VERTEX
  8
0
  5
A63F
 10
158.694
 20
112.504
 30
0.000000
  70
    32
  0
VERTEX
  8
0
  5
A640
 10
158.748
 20
112.520
 30
0.000000
  70
    32
  0
VERTEX
  8
0
  5
A641
 10
158.801
 20
112.536
 30
0.000000
  70
    32
  0
VERTEX
  8
0
  5
A642
 10
158.855
 20
112.552
 30
0.000000
  70
    32
  0
VERTEX
  8
0
  5
A643
 10
158.909
 20
112.567
 30
0.000000
  70
    32
  0
VERTEX
  8
0
  5
A644
 10
158.962
 20
112.583
 30
0.000000
  70
    32
  0
VERTEX
  8
0
  5
A645
 10
159.016
 20
112.599
 30
0.000000
  70
    32
  0
SEQEND
  8
0
  5
A646
  0
POLYLINE
  5
503D
  8
0
 66
     1
 10
0.0
 20
0.0
 30
0.0
  0
VERTEX
  5
A405
  8
0
 10
159.01591013913611
 20
112.5994204856967
 30
0.0
  0
VERTEX
  5
A406
  8
0
 10
159.1410989264329
 20
112.6604166048528
 30
0.0
  0
VERTEX
  5
A407
  8
0
 10
159.3906047206226
 20
112.776216755251
 30
0.0
  0
VERTEX
  5
A408
  8
0
 10
159.6380231750129
 20
112.8836766311328
 30
0.0
  0
VERTEX
  5
A409
  8
0
 10
159.76090930409271
 20
112.9343930316597
 30
0.0
  0
VERTEX
  5
A40A
  8
0
 10
159.88541218599039
 20
112.9840148254889
 30
0.0
  0
VERTEX
  5
A40B
  8
0
 10
160.14016437434839
 20
113.08012720441251
 30
0.0
  0
VERTEX
  5
A40C
  8
0
 10
160.4018686104807
 20
113.17145060619249
 30
0.0
  0
VERTEX
  5
A40D
  8
0
 10
160.669647169337
 20
113.2573184988439
 30
0.0
  0
VERTEX
  5
A40E
  8
0
 10
160.9426006237945
 20
113.33714907580369
 30
0.0
  0
VERTEX
  5
A40F
  8
0
 10
161.2198047501218
 20
113.41044549563379
 30
0.0
  0
VERTEX
  5
A410
  8
0
 10
161.35970331154201
 20
113.44451122573081
 30
0.0
  0
VERTEX
  5
A411
  8
0
 10
161.5003043680866
 20
113.476795757652
 30
0.0
  0
VERTEX
  5
A412
  8
0
 10
161.78312276916921
 20
113.5358765199653
 30
0.0
  0
VERTEX
  5
A413
  8
0
 10
162.06730835632419
 20
113.5874615380858
 30
0.0
  0
VERTEX
  5
A414
  8
0
 10
162.3518778130252
 20
113.6314079557648
 30
0.0
  0
VERTEX
  5
A415
  8
0
 10
162.63580159156459
 20
113.6676567282413
 30
0.0
  0
VERTEX
  5
A416
  8
0
 10
162.91803940613119
 20
113.69623967188529
 30
0.0
  0
VERTEX
  5
A417
  8
0
 10
163.05820035801821
 20
113.7076912051632
 30
0.0
  0
VERTEX
  5
A418
  8
0
 10
163.1975477616873
 20
113.7172790602807
 30
0.0
  0
VERTEX
  5
A419
  8
0
 10
163.47327136476861
 20
113.7309853996027
 30
0.0
  0
VERTEX
  5
A41A
  8
0
 10
163.74414459431981
 20
113.7376564987856
 30
0.0
  0
VERTEX
  5
A41B
  8
0
 10
163.8774291160646
 20
113.7384704324611
 30
0.0
  0
SEQEND
  5
A41C
  8
0
  0
POLYLINE
  5
5044
  8
0
 66
     1
 10
0.0
 20
0.0
 30
0.0
  0
VERTEX
  5
A41D
  8
0
 10
121.1534279299627
 20
112.5994204856967
 30
0.0
  0
VERTEX
  5
A41E
  8
0
 10
121.0282391426659
 20
112.6604166048528
 30
0.0
  0
VERTEX
  5
A41F
  8
0
 10
120.77873334847609
 20
112.776216755251
 30
0.0
  0
VERTEX
  5
A420
  8
0
 10
120.5313148940858
 20
112.8836766311328
 30
0.0
  0
VERTEX
  5
A421
  8
0
 10
120.40842876500599
 20
112.9343930316597
 30
0.0
  0
VERTEX
  5
A422
  8
0
 10
120.2839258831084
 20
112.9840148254889
 30
0.0
  0
VERTEX
  5
A423
  8
0
 10
120.0291736947504
 20
113.08012720441251
 30
0.0
  0
VERTEX
  5
A424
  8
0
 10
119.767469458618
 20
113.17145060619249
 30
0.0
  0
VERTEX
  5
A425
  8
0
 10
119.4996908997618
 20
113.2573184988439
 30
0.0
  0
VERTEX
  5
A426
  8
0
 10
119.22673744530429
 20
113.33714907580369
 30
0.0
  0
VERTEX
  5
A427
  8
0
 10
118.949533318977
 20
113.41044549563379
 30
0.0
  0
VERTEX
  5
A428
  8
0
 10
118.80963475755669
 20
113.44451122573081
 30
0.0
  0
VERTEX
  5
A429
  8
0
 10
118.6690337010121
 20
113.4767957576519
 30
0.0
  0
VERTEX
  5
A42A
  8
0
 10
118.3862152999296
 20
113.5358765199653
 30
0.0
  0
VERTEX
  5
A42B
  8
0
 10
118.1020297127745
 20
113.5874615380858
 30
0.0
  0
VERTEX
  5
A42C
  8
0
 10
117.8174602560736
 20
113.6314079557648
 30
0.0
  0
VERTEX
  5
A42D
  8
0
 10
117.5335364775342
 20
113.6676567282413
 30
0.0
  0
VERTEX
  5
A42E
  8
0
 10
117.2512986629676
 20
113.69623967188529
 30
0.0
  0
VERTEX
  5
A42F
  8
0
 10
117.1111377110805
 20
113.7076912051632
 30
0.0
  0
VERTEX
  5
A430
  8
0
 10
116.9717903074113
 20
113.7172790602807
 30
0.0
  0
VERTEX
  5
A431
  8
0
 10
116.69606670433009
 20
113.7309853996027
 30
0.0
  0
VERTEX
  5
A432
  8
0
 10
116.42519347477889
 20
113.7376564987856
 30
0.0
  0
VERTEX
  5
A433
  8
0
 10
116.2919089530341
 20
113.7384704324611
 30
0.0
  0
SEQEND
  5
A434
  8
0
  0
POLYLINE
  5
5047
  8
0
 10
121.15342792996242
 20
112.59942048569675
 30
0.0
 66
     1
 70
     8
  0
VERTEX
  8
0
  5
A647
 10
121.153
 20
112.599
 30
0.000000
  70
    32
  0
VERTEX
  8
0
  5
A648
 10
121.207
 20
112.583
 30
0.000000
  70
    32
  0
VERTEX
  8
0
  5
A649
 10
121.261
 20
112.567
 30
0.000000
  70
    32
  0
VERTEX
  8
0
  5
A64A
 10
121.314
 20
112.552
 30
0.000000
  70
    32
  0
VERTEX
  8
0
  5
A64B
 10
121.368
 20
112.536
 30
0.000000
  70
    32
  0
VERTEX
  8
0
  5
A64C
 10
121.422
 20
112.520
 30
0.000000
  70
    32
  0
VERTEX
  8
0
  5
A64D
 10
121.475
 20
112.504
 30
0.000000
  70
    32
  0
VERTEX
  8
0
  5
A64E
 10
121.529
 20
112.488
 30
0.000000
  70
    32
  0
VERTEX
  8
0
  5
A64F
 10
121.583
 20
112.473
 30
0.000000
  70
    32
  0
VERTEX
  8
0
  5
A650
 10
121.636
 20
112.457
 30
0.000000
  70
    32
  0
VERTEX
  8
0
  5
A651
 10
121.690
 20
112.441
 30
0.000000
  70
    32
  0
VERTEX
  8
0
  5
A652
 10
121.744
 20
112.426
 30
0.000000
  70
    32
  0
VERTEX
  8
0
  5
A653
 10
121.798
 20
112.410
 30
0.000000
  70
    32
  0
VERTEX
  8
0
  5
A654
 10
121.851
 20
112.395
 30
0.000000
  70
    32
  0
VERTEX
  8
0
  5
A655
 10
121.905
 20
112.379
 30
0.000000
  70
    32
  0
VERTEX
  8
0
  5
A656
 10
121.959
 20
112.364
 30
0.000000
  70
    32
  0
VERTEX
  8
0
  5
A657
 10
122.013
 20
112.349
 30
0.000000
  70
    32
  0
VERTEX
  8
0
  5
A658
 10
122.066
 20
112.333
 30
0.000000
  70
    32
  0
VERTEX
  8
0
  5
A659
 10
122.120
 20
112.318
 30
0.000000
  70
    32
  0
VERTEX
  8
0
  5
A65A
 10
122.174
 20
112.303
 30
0.000000
  70
    32
  0
VERTEX
  8
0
  5
A65B
 10
122.228
 20
112.288
 30
0.000000
  70
    32
  0
VERTEX
  8
0
  5
A65C
 10
122.282
 20
112.273
 30
0.000000
  70
    32
  0
VERTEX
  8
0
  5
A65D
 10
122.336
 20
112.258
 30
0.000000
  70
    32
  0
VERTEX
  8
0
  5
A65E
 10
122.390
 20
112.243
 30
0.000000
  70
    32
  0
VERTEX
  8
0
  5
A65F
 10
122.443
 20
112.228
 30
0.000000
  70
    32
  0
VERTEX
  8
0
  5
A660
 10
122.497
 20
112.213
 30
0.000000
  70
    32
  0
VERTEX
  8
0
  5
A661
 10
122.551
 20
112.198
 30
0.000000
  70
    32
  0
VERTEX
  8
0
  5
A662
 10
122.605
 20
112.183
 30
0.000000
  70
    32
  0
VERTEX
  8
0
  5
A663
 10
122.659
 20
112.168
 30
0.000000
  70
    32
  0
VERTEX
  8
0
  5
A664
 10
122.713
 20
112.153
 30
0.000000
  70
    32
  0
VERTEX
  8
0
  5
A665
 10
122.767
 20
112.139
 30
0.000000
  70
    32
  0
VERTEX
  8
0
  5
A666
 10
122.821
 20
112.124
 30
0.000000
  70
    32
  0
VERTEX
  8
0
  5
A667
 10
122.875
 20
112.109
 30
0.000000
  70
    32
  0
VERTEX
  8
0
  5
A668
 10
122.929
 20
112.095
 30
0.000000
  70
    32
  0
VERTEX
  8
0
  5
A669
 10
122.983
 20
112.080
 30
0.000000
  70
    32
  0
VERTEX
  8
0
  5
A66A
 10
123.037
 20
112.066
 30
0.000000
  70
    32
  0
VERTEX
  8
0
  5
A66B
 10
123.091
 20
112.051
 30
0.000000
  70
    32
  0
VERTEX
  8
0
  5
A66C
 10
123.145
 20
112.037
 30
0.000000
  70
    32
  0
VERTEX
  8
0
  5
A66D
 10
123.199
 20
112.023
 30
0.000000
  70
    32
  0
VERTEX
  8
0
  5
A66E
 10
123.253
 20
112.008
 30
0.000000
  70
    32
  0
VERTEX
  8
0
  5
A66F
 10
123.308
 20
111.994
 30
0.000000
  70
    32
  0
VERTEX
  8
0
  5
A670
 10
123.362
 20
111.980
 30
0.000000
  70
    32
  0
VERTEX
  8
0
  5
A671
 10
123.416
 20
111.966
 30
0.000000
  70
    32
  0
VERTEX
  8
0
  5
A672
 10
123.470
 20
111.952
 30
0.000000
  70
    32
  0
VERTEX
  8
0
  5
A673
 10
123.524
 20
111.938
 30
0.000000
  70
    32
  0
VERTEX
  8
0
  5
A674
 10
123.578
 20
111.924
 30
0.000000
  70
    32
  0
VERTEX
  8
0
  5
A675
 10
123.632
 20
111.910
 30
0.000000
  70
    32
  0
VERTEX
  8
0
  5
A676
 10
123.687
 20
111.896
 30
0.000000
  70
    32
  0
VERTEX
  8
0
  5
A677
 10
123.741
 20
111.882
 30
0.000000
  70
    32
  0
VERTEX
  8
0
  5
A678
 10
123.795
 20
111.868
 30
0.000000
  70
    32
  0
VERTEX
  8
0
  5
A679
 10
123.849
 20
111.854
 30
0.000000
  70
    32
  0
VERTEX
  8
0
  5
A67A
 10
123.903
 20
111.840
 30
0.000000
  70
    32
  0
VERTEX
  8
0
  5
A67B
 10
123.958
 20
111.827
 30
0.000000
  70
    32
  0
VERTEX
  8
0
  5
A67C
 10
124.012
 20
111.813
 30
0.000000
  70
    32
  0
VERTEX
  8
0
  5
A67D
 10
124.066
 20
111.799
 30
0.000000
  70
    32
  0
VERTEX
  8
0
  5
A67E
 10
124.120
 20
111.786
 30
0.000000
  70
    32
  0
VERTEX
  8
0
  5
A67F
 10
124.175
 20
111.772
 30
0.000000
  70
    32
  0
VERTEX
  8
0
  5
A680
 10
124.229
 20
111.759
 30
0.000000
  70
    32
  0
VERTEX
  8
0
  5
A681
 10
124.283
 20
111.745
 30
0.000000
  70
    32
  0
VERTEX
  8
0
  5
A682
 10
124.338
 20
111.732
 30
0.000000
  70
    32
  0
VERTEX
  8
0
  5
A683
 10
124.392
 20
111.719
 30
0.000000
  70
    32
  0
VERTEX
  8
0
  5
A684
 10
124.446
 20
111.705
 30
0.000000
  70
    32
  0
VERTEX
  8
0
  5
A685
 10
124.501
 20
111.692
 30
0.000000
  70
    32
  0
VERTEX
  8
0
  5
A686
 10
124.555
 20
111.679
 30
0.000000
  70
    32
  0
VERTEX
  8
0
  5
A687
 10
124.609
 20
111.666
 30
0.000000
  70
    32
  0
VERTEX
  8
0
  5
A688
 10
124.664
 20
111.653
 30
0.000000
  70
    32
  0
VERTEX
  8
0
  5
A689
 10
124.718
 20
111.640
 30
0.000000
  70
    32
  0
VERTEX
  8
0
  5
A68A
 10
124.773
 20
111.627
 30
0.000000
  70
    32
  0
VERTEX
  8
0
  5
A68B
 10
124.827
 20
111.614
 30
0.000000
  70
    32
  0
VERTEX
  8
0
  5
A68C
 10
124.881
 20
111.601
 30
0.000000
  70
    32
  0
VERTEX
  8
0
  5
A68D
 10
124.936
 20
111.588
 30
0.000000
  70
    32
  0
VERTEX
  8
0
  5
A68E
 10
124.990
 20
111.575
 30
0.000000
  70
    32
  0
VERTEX
  8
0
  5
A68F
 10
125.045
 20
111.562
 30
0.000000
  70
    32
  0
VERTEX
  8
0
  5
A690
 10
125.099
 20
111.549
 30
0.000000
  70
    32
  0
VERTEX
  8
0
  5
A691
 10
125.154
 20
111.537
 30
0.000000
  70
    32
  0
VERTEX
  8
0
  5
A692
 10
125.208
 20
111.524
 30
0.000000
  70
    32
  0
VERTEX
  8
0
  5
A693
 10
125.263
 20
111.511
 30
0.000000
  70
    32
  0
VERTEX
  8
0
  5
A694
 10
125.317
 20
111.499
 30
0.000000
  70
    32
  0
VERTEX
  8
0
  5
A695
 10
125.372
 20
111.486
 30
0.000000
  70
    32
  0
VERTEX
  8
0
  5
A696
 10
125.426
 20
111.474
 30
0.000000
  70
    32
  0
VERTEX
  8
0
  5
A697
 10
125.481
 20
111.461
 30
0.000000
  70
    32
  0
VERTEX
  8
0
  5
A698
 10
125.535
 20
111.449
 30
0.000000
  70
    32
  0
VERTEX
  8
0
  5
A699
 10
125.590
 20
111.437
 30
0.000000
  70
    32
  0
VERTEX
  8
0
  5
A69A
 10
125.644
 20
111.424
 30
0.000000
  70
    32
  0
VERTEX
  8
0
  5
A69B
 10
125.699
 20
111.412
 30
0.000000
  70
    32
  0
VERTEX
  8
0
  5
A69C
 10
125.754
 20
111.400
 30
0.000000
  70
    32
  0
VERTEX
  8
0
  5
A69D
 10
125.808
 20
111.388
 30
0.000000
  70
    32
  0
VERTEX
  8
0
  5
A69E
 10
125.863
 20
111.376
 30
0.000000
  70
    32
  0
VERTEX
  8
0
  5
A69F
 10
125.917
 20
111.364
 30
0.000000
  70
    32
  0
VERTEX
  8
0
  5
A6A0
 10
125.972
 20
111.352
 30
0.000000
  70
    32
  0
VERTEX
  8
0
  5
A6A1
 10
126.027
 20
111.340
 30
0.000000
  70
    32
  0
VERTEX
  8
0
  5
A6A2
 10
126.081
 20
111.328
 30
0.000000
  70
    32
  0
VERTEX
  8
0
  5
A6A3
 10
126.136
 20
111.316
 30
0.000000
  70
    32
  0
VERTEX
  8
0
  5
A6A4
 10
126.191
 20
111.304
 30
0.000000
  70
    32
  0
VERTEX
  8
0
  5
A6A5
 10
126.245
 20
111.292
 30
0.000000
  70
    32
  0
VERTEX
  8
0
  5
A6A6
 10
126.300
 20
111.281
 30
0.000000
  70
    32
  0
VERTEX
  8
0
  5
A6A7
 10
126.355
 20
111.269
 30
0.000000
  70
    32
  0
VERTEX
  8
0
  5
A6A8
 10
126.409
 20
111.257
 30
0.000000
  70
    32
  0
VERTEX
  8
0
  5
A6A9
 10
126.464
 20
111.246
 30
0.000000
  70
    32
  0
VERTEX
  8
0
  5
A6AA
 10
126.519
 20
111.234
 30
0.000000
  70
    32
  0
VERTEX
  8
0
  5
A6AB
 10
126.574
 20
111.223
 30
0.000000
  70
    32
  0
VERTEX
  8
0
  5
A6AC
 10
126.628
 20
111.211
 30
0.000000
  70
    32
  0
VERTEX
  8
0
  5
A6AD
 10
126.683
 20
111.200
 30
0.000000
  70
    32
  0
VERTEX
  8
0
  5
A6AE
 10
126.738
 20
111.188
 30
0.000000
  70
    32
  0
VERTEX
  8
0
  5
A6AF
 10
126.793
 20
111.177
 30
0.000000
  70
    32
  0
VERTEX
  8
0
  5
A6B0
 10
126.848
 20
111.166
 30
0.000000
  70
    32
  0
VERTEX
  8
0
  5
A6B1
 10
126.902
 20
111.154
 30
0.000000
  70
    32
  0
VERTEX
  8
0
  5
A6B2
 10
126.957
 20
111.143
 30
0.000000
  70
    32
  0
VERTEX
  8
0
  5
A6B3
 10
127.012
 20
111.132
 30
0.000000
  70
    32
  0
VERTEX
  8
0
  5
A6B4
 10
127.067
 20
111.121
 30
0.000000
  70
    32
  0
VERTEX
  8
0
  5
A6B5
 10
127.122
 20
111.110
 30
0.000000
  70
    32
  0
VERTEX
  8
0
  5
A6B6
 10
127.176
 20
111.099
 30
0.000000
  70
    32
  0
VERTEX
  8
0
  5
A6B7
 10
127.231
 20
111.088
 30
0.000000
  70
    32
  0
VERTEX
  8
0
  5
A6B8
 10
127.286
 20
111.077
 30
0.000000
  70
    32
  0
VERTEX
  8
0
  5
A6B9
 10
127.341
 20
111.066
 30
0.000000
  70
    32
  0
VERTEX
  8
0
  5
A6BA
 10
127.396
 20
111.055
 30
0.000000
  70
    32
  0
VERTEX
  8
0
  5
A6BB
 10
127.451
 20
111.045
 30
0.000000
  70
    32
  0
VERTEX
  8
0
  5
A6BC
 10
127.506
 20
111.034
 30
0.000000
  70
    32
  0
VERTEX
  8
0
  5
A6BD
 10
127.561
 20
111.023
 30
0.000000
  70
    32
  0
VERTEX
  8
0
  5
A6BE
 10
127.616
 20
111.013
 30
0.000000
  70
    32
  0
VERTEX
  8
0
  5
A6BF
 10
127.670
 20
111.002
 30
0.000000
  70
    32
  0
VERTEX
  8
0
  5
A6C0
 10
127.725
 20
110.991
 30
0.000000
  70
    32
  0
VERTEX
  8
0
  5
A6C1
 10
127.780
 20
110.981
 30
0.000000
  70
    32
  0
VERTEX
  8
0
  5
A6C2
 10
127.835
 20
110.970
 30
0.000000
  70
    32
  0
VERTEX
  8
0
  5
A6C3
 10
127.890
 20
110.960
 30
0.000000
  70
    32
  0
VERTEX
  8
0
  5
A6C4
 10
127.945
 20
110.950
 30
0.000000
  70
    32
  0
VERTEX
  8
0
  5
A6C5
 10
128.000
 20
110.939
 30
0.000000
  70
    32
  0
VERTEX
  8
0
  5
A6C6
 10
128.055
 20
110.929
 30
0.000000
  70
    32
  0
VERTEX
  8
0
  5
A6C7
 10
128.110
 20
110.919
 30
0.000000
  70
    32
  0
SEQEND
  8
0
  5
A6C8
  0
POLYLINE
  5
504D
  8
0
 66
     1
 10
0.0
 20
0.0
 30
0.0
  0
VERTEX
  5
A435
  8
0
 10
163.8774291160646
 20
113.7384704324611
 30
0.0
  0
VERTEX
  5
A436
  8
0
 10
163.74414459431989
 20
113.7376564987856
 30
0.0
  0
VERTEX
  5
A437
  8
0
 10
163.47327136476909
 20
113.7309853996027
 30
0.0
  0
VERTEX
  5
A438
  8
0
 10
163.1975477616881
 20
113.7172790602808
 30
0.0
  0
VERTEX
  5
A439
  8
0
 10
163.05820035801921
 20
113.7076912051633
 30
0.0
  0
VERTEX
  5
A43A
  8
0
 10
162.91803940613229
 20
113.69623967188539
 30
0.0
  0
VERTEX
  5
A43B
  8
0
 10
162.63580159156601
 20
113.6676567282414
 30
0.0
  0
VERTEX
  5
A43C
  8
0
 10
162.35187781302699
 20
113.631407955765
 30
0.0
  0
VERTEX
  5
A43D
  8
0
 10
162.06730835632629
 20
113.5874615380862
 30
0.0
  0
VERTEX
  5
A43E
  8
0
 10
161.78312276917171
 20
113.5358765199658
 30
0.0
  0
VERTEX
  5
A43F
  8
0
 10
161.50030436808939
 20
113.4767957576526
 30
0.0
  0
VERTEX
  5
A440
  8
0
 10
161.35970331154499
 20
113.4445112257315
 30
0.0
  0
VERTEX
  5
A441
  8
0
 10
161.21980475012481
 20
113.41044549563451
 30
0.0
  0
VERTEX
  5
A442
  8
0
 10
160.9426006237978
 20
113.3371490758046
 30
0.0
  0
VERTEX
  5
A443
  8
0
 10
160.66964716934061
 20
113.257318498845
 30
0.0
  0
VERTEX
  5
A444
  8
0
 10
160.40186861048451
 20
113.1714506061938
 30
0.0
  0
VERTEX
  5
A445
  8
0
 10
160.14016437435231
 20
113.080127204414
 30
0.0
  0
VERTEX
  5
A446
  8
0
 10
159.8854121859946
 20
112.9840148254905
 30
0.0
  0
VERTEX
  5
A447
  8
0
 10
159.760909304097
 20
112.9343930316614
 30
0.0
  0
VERTEX
  5
A448
  8
0
 10
159.6380231750172
 20
112.88367663113451
 30
0.0
  0
VERTEX
  5
A449
  8
0
 10
159.39060472062499
 20
112.77621675525199
 30
0.0
  0
VERTEX
  5
A44A
  8
0
 10
159.1410989264331
 20
112.6604166048529
 30
0.0
  0
VERTEX
  5
A44B
  8
0
 10
159.01591013913611
 20
112.5994204856967
 30
0.0
  0
SEQEND
  5
A44C
  8
0
  0
POLYLINE
  5
504E
  8
0
 10
116.20303090225561
 20
95.896453675877709
 30
0.0
 66
     1
 70
     8
  0
VERTEX
  8
0
  5
A6C9
 10
116.203
 20
95.8965
 30
0.000000
  70
    32
  0
VERTEX
  8
0
  5
A6CA
 10
116.548
 20
95.9049
 30
0.000000
  70
    32
  0
VERTEX
  8
0
  5
A6CB
 10
116.892
 20
95.9304
 30
0.000000
  70
    32
  0
VERTEX
  8
0
  5
A6CC
 10
117.234
 20
95.9727
 30
0.000000
  70
    32
  0
VERTEX
  8
0
  5
A6CD
 10
117.574
 20
96.0318
 30
0.000000
  70
    32
  0
VERTEX
  8
0
  5
A6CE
 10
117.911
 20
96.1075
 30
0.000000
  70
    32
  0
VERTEX
  8
0
  5
A6CF
 10
118.243
 20
96.1997
 30
0.000000
  70
    32
  0
VERTEX
  8
0
  5
A6D0
 10
118.571
 20
96.3081
 30
0.000000
  70
    32
  0
VERTEX
  8
0
  5
A6D1
 10
118.892
 20
96.4325
 30
0.000000
  70
    32
  0
VERTEX
  8
0
  5
A6D2
 10
119.208
 20
96.5726
 30
0.000000
  70
    32
  0
VERTEX
  8
0
  5
A6D3
 10
119.516
 20
96.7280
 30
0.000000
  70
    32
  0
VERTEX
  8
0
  5
A6D4
 10
119.816
 20
96.8983
 30
0.000000
  70
    32
  0
VERTEX
  8
0
  5
A6D5
 10
120.107
 20
97.0832
 30
0.000000
  70
    32
  0
VERTEX
  8
0
  5
A6D6
 10
120.389
 20
97.2823
 30
0.000000
  70
    32
  0
VERTEX
  8
0
  5
A6D7
 10
120.661
 20
97.4949
 30
0.000000
  70
    32
  0
VERTEX
  8
0
  5
A6D8
 10
120.923
 20
97.7207
 30
0.000000
  70
    32
  0
VERTEX
  8
0
  5
A6D9
 10
121.172
 20
97.9590
 30
0.000000
  70
    32
  0
VERTEX
  8
0
  5
A6DA
 10
121.410
 20
98.2093
 30
0.000000
  70
    32
  0
VERTEX
  8
0
  5
A6DB
 10
121.636
 20
98.4711
 30
0.000000
  70
    32
  0
VERTEX
  8
0
  5
A6DC
 10
121.848
 20
98.7435
 30
0.000000
  70
    32
  0
VERTEX
  8
0
  5
A6DD
 10
122.046
 20
99.0261
 30
0.000000
  70
    32
  0
VERTEX
  8
0
  5
A6DE
 10
122.231
 20
99.3182
 30
0.000000
  70
    32
  0
VERTEX
  8
0
  5
A6DF
 10
122.401
 20
99.6189
 30
0.000000
  70
    32
  0
VERTEX
  8
0
  5
A6E0
 10
122.556
 20
99.9276
 30
0.000000
  70
    32
  0
VERTEX
  8
0
  5
A6E1
 10
122.696
 20
100.244
 30
0.000000
  70
    32
  0
VERTEX
  8
0
  5
A6E2
 10
122.820
 20
100.566
 30
0.000000
  70
    32
  0
VERTEX
  8
0
  5
A6E3
 10
122.928
 20
100.894
 30
0.000000
  70
    32
  0
VERTEX
  8
0
  5
A6E4
 10
123.020
 20
101.227
 30
0.000000
  70
    32
  0
VERTEX
  8
0
  5
A6E5
 10
123.096
 20
101.565
 30
0.000000
  70
    32
  0
VERTEX
  8
0
  5
A6E6
 10
123.155
 20
101.905
 30
0.000000
  70
    32
  0
VERTEX
  8
0
  5
A6E7
 10
123.197
 20
102.248
 30
0.000000
  70
    32
  0
VERTEX
  8
0
  5
A6E8
 10
123.222
 20
102.593
 30
0.000000
  70
    32
  0
VERTEX
  8
0
  5
A6E9
 10
123.231
 20
102.938
 30
0.000000
  70
    32
  0
VERTEX
  8
0
  5
A6EA
 10
123.222
 20
103.284
 30
0.000000
  70
    32
  0
VERTEX
  8
0
  5
A6EB
 10
123.197
 20
103.629
 30
0.000000
  70
    32
  0
VERTEX
  8
0
  5
A6EC
 10
123.155
 20
103.972
 30
0.000000
  70
    32
  0
VERTEX
  8
0
  5
A6ED
 10
123.096
 20
104.312
 30
0.000000
  70
    32
  0
VERTEX
  8
0
  5
A6EE
 10
123.020
 20
104.650
 30
0.000000
  70
    32
  0
VERTEX
  8
0
  5
A6EF
 10
122.928
 20
104.983
 30
0.000000
  70
    32
  0
VERTEX
  8
0
  5
A6F0
 10
122.820
 20
105.311
 30
0.000000
  70
    32
  0
VERTEX
  8
0
  5
A6F1
 10
122.696
 20
105.633
 30
0.000000
  70
    32
  0
VERTEX
  8
0
  5
A6F2
 10
122.556
 20
105.949
 30
0.000000
  70
    32
  0
VERTEX
  8
0
  5
A6F3
 10
122.401
 20
106.258
 30
0.000000
  70
    32
  0
VERTEX
  8
0
  5
A6F4
 10
122.231
 20
106.559
 30
0.000000
  70
    32
  0
VERTEX
  8
0
  5
A6F5
 10
122.046
 20
106.851
 30
0.000000
  70
    32
  0
VERTEX
  8
0
  5
A6F6
 10
121.848
 20
107.133
 30
0.000000
  70
    32
  0
VERTEX
  8
0
  5
A6F7
 10
121.636
 20
107.406
 30
0.000000
  70
    32
  0
VERTEX
  8
0
  5
A6F8
 10
121.410
 20
107.668
 30
0.000000
  70
    32
  0
VERTEX
  8
0
  5
A6F9
 10
121.172
 20
107.918
 30
0.000000
  70
    32
  0
VERTEX
  8
0
  5
A6FA
 10
120.923
 20
108.156
 30
0.000000
  70
    32
  0
VERTEX
  8
0
  5
A6FB
 10
120.661
 20
108.382
 30
0.000000
  70
    32
  0
VERTEX
  8
0
  5
A6FC
 10
120.389
 20
108.595
 30
0.000000
  70
    32
  0
VERTEX
  8
0
  5
A6FD
 10
120.107
 20
108.794
 30
0.000000
  70
    32
  0
VERTEX
  8
0
  5
A6FE
 10
119.816
 20
108.979
 30
0.000000
  70
    32
  0
VERTEX
  8
0
  5
A6FF
 10
119.516
 20
109.149
 30
0.000000
  70
    32
  0
VERTEX
  8
0
  5
A700
 10
119.208
 20
109.304
 30
0.000000
  70
    32
  0
VERTEX
  8
0
  5
A701
 10
118.892
 20
109.444
 30
0.000000
  70
    32
  0
VERTEX
  8
0
  5
A702
 10
118.571
 20
109.569
 30
0.000000
  70
    32
  0
VERTEX
  8
0
  5
A703
 10
118.243
 20
109.677
 30
0.000000
  70
    32
  0
VERTEX
  8
0
  5
A704
 10
117.911
 20
109.769
 30
0.000000
  70
    32
  0
VERTEX
  8
0
  5
A705
 10
117.574
 20
109.845
 30
0.000000
  70
    32
  0
VERTEX
  8
0
  5
A706
 10
117.234
 20
109.904
 30
0.000000
  70
    32
  0
VERTEX
  8
0
  5
A707
 10
116.892
 20
109.947
 30
0.000000
  70
    32
  0
VERTEX
  8
0
  5
A708
 10
116.548
 20
109.972
 30
0.000000
  70
    32
  0
VERTEX
  8
0
  5
A709
 10
116.203
 20
109.980
 30
0.000000
  70
    32
  0
VERTEX
  8
0
  5
A70A
 10
115.858
 20
109.972
 30
0.000000
  70
    32
  0
VERTEX
  8
0
  5
A70B
 10
115.514
 20
109.947
 30
0.000000
  70
    32
  0
VERTEX
  8
0
  5
A70C
 10
115.172
 20
109.904
 30
0.000000
  70
    32
  0
VERTEX
  8
0
  5
A70D
 10
114.832
 20
109.845
 30
0.000000
  70
    32
  0
VERTEX
  8
0
  5
A70E
 10
114.495
 20
109.769
 30
0.000000
  70
    32
  0
VERTEX
  8
0
  5
A70F
 10
114.163
 20
109.677
 30
0.000000
  70
    32
  0
VERTEX
  8
0
  5
A710
 10
113.835
 20
109.569
 30
0.000000
  70
    32
  0
VERTEX
  8
0
  5
A711
 10
113.514
 20
109.444
 30
0.000000
  70
    32
  0
VERTEX
  8
0
  5
A712
 10
113.198
 20
109.304
 30
0.000000
  70
    32
  0
VERTEX
  8
0
  5
A713
 10
112.890
 20
109.149
 30
0.000000
  70
    32
  0
VERTEX
  8
0
  5
A714
 10
112.590
 20
108.979
 30
0.000000
  70
    32
  0
VERTEX
  8
0
  5
A715
 10
112.299
 20
108.794
 30
0.000000
  70
    32
  0
VERTEX
  8
0
  5
A716
 10
112.017
 20
108.595
 30
0.000000
  70
    32
  0
VERTEX
  8
0
  5
A717
 10
111.745
 20
108.382
 30
0.000000
  70
    32
  0
VERTEX
  8
0
  5
A718
 10
111.484
 20
108.156
 30
0.000000
  70
    32
  0
VERTEX
  8
0
  5
A719
 10
111.234
 20
107.918
 30
0.000000
  70
    32
  0
VERTEX
  8
0
  5
A71A
 10
110.996
 20
107.668
 30
0.000000
  70
    32
  0
VERTEX
  8
0
  5
A71B
 10
110.771
 20
107.406
 30
0.000000
  70
    32
  0
VERTEX
  8
0
  5
A71C
 10
110.558
 20
107.133
 30
0.000000
  70
    32
  0
VERTEX
  8
0
  5
A71D
 10
110.360
 20
106.851
 30
0.000000
  70
    32
  0
VERTEX
  8
0
  5
A71E
 10
110.175
 20
106.559
 30
0.000000
  70
    32
  0
VERTEX
  8
0
  5
A71F
 10
110.005
 20
106.258
 30
0.000000
  70
    32
  0
VERTEX
  8
0
  5
A720
 10
109.850
 20
105.949
 30
0.000000
  70
    32
  0
VERTEX
  8
0
  5
A721
 10
109.710
 20
105.633
 30
0.000000
  70
    32
  0
VERTEX
  8
0
  5
A722
 10
109.586
 20
105.311
 30
0.000000
  70
    32
  0
VERTEX
  8
0
  5
A723
 10
109.478
 20
104.983
 30
0.000000
  70
    32
  0
VERTEX
  8
0
  5
A724
 10
109.386
 20
104.650
 30
0.000000
  70
    32
  0
VERTEX
  8
0
  5
A725
 10
109.310
 20
104.312
 30
0.000000
  70
    32
  0
VERTEX
  8
0
  5
A726
 10
109.251
 20
103.972
 30
0.000000
  70
    32
  0
VERTEX
  8
0
  5
A727
 10
109.209
 20
103.629
 30
0.000000
  70
    32
  0
VERTEX
  8
0
  5
A728
 10
109.184
 20
103.284
 30
0.000000
  70
    32
  0
VERTEX
  8
0
  5
A729
 10
109.175
 20
102.938
 30
0.000000
  70
    32
  0
VERTEX
  8
0
  5
A72A
 10
109.184
 20
102.593
 30
0.000000
  70
    32
  0
VERTEX
  8
0
  5
A72B
 10
109.209
 20
102.248
 30
0.000000
  70
    32
  0
VERTEX
  8
0
  5
A72C
 10
109.251
 20
101.905
 30
0.000000
  70
    32
  0
VERTEX
  8
0
  5
A72D
 10
109.310
 20
101.565
 30
0.000000
  70
    32
  0
VERTEX
  8
0
  5
A72E
 10
109.386
 20
101.227
 30
0.000000
  70
    32
  0
VERTEX
  8
0
  5
A72F
 10
109.478
 20
100.894
 30
0.000000
  70
    32
  0
VERTEX
  8
0
  5
A730
 10
109.586
 20
100.566
 30
0.000000
  70
    32
  0
VERTEX
  8
0
  5
A731
 10
109.710
 20
100.244
 30
0.000000
  70
    32
  0
VERTEX
  8
0
  5
A732
 10
109.850
 20
99.9276
 30
0.000000
  70
    32
  0
VERTEX
  8
0
  5
A733
 10
110.005
 20
99.6189
 30
0.000000
  70
    32
  0
VERTEX
  8
0
  5
A734
 10
110.175
 20
99.3182
 30
0.000000
  70
    32
  0
VERTEX
  8
0
  5
A735
 10
110.360
 20
99.0261
 30
0.000000
  70
    32
  0
VERTEX
  8
0
  5
A736
 10
110.558
 20
98.7435
 30
0.000000
  70
    32
  0
VERTEX
  8
0
  5
A737
 10
110.771
 20
98.4711
 30
0.000000
  70
    32
  0
VERTEX
  8
0
  5
A738
 10
110.996
 20
98.2093
 30
0.000000
  70
    32
  0
VERTEX
  8
0
  5
A739
 10
111.234
 20
97.9590
 30
0.000000
  70
    32
  0
VERTEX
  8
0
  5
A73A
 10
111.484
 20
97.7207
 30
0.000000
  70
    32
  0
VERTEX
  8
0
  5
A73B
 10
111.745
 20
97.4949
 30
0.000000
  70
    32
  0
VERTEX
  8
0
  5
A73C
 10
112.017
 20
97.2823
 30
0.000000
  70
    32
  0
VERTEX
  8
0
  5
A73D
 10
112.299
 20
97.0832
 30
0.000000
  70
    32
  0
VERTEX
  8
0
  5
A73E
 10
112.590
 20
96.8983
 30
0.000000
  70
    32
  0
VERTEX
  8
0
  5
A73F
 10
112.890
 20
96.7280
 30
0.000000
  70
    32
  0
VERTEX
  8
0
  5
A740
 10
113.198
 20
96.5726
 30
0.000000
  70
    32
  0
VERTEX
  8
0
  5
A741
 10
113.514
 20
96.4325
 30
0.000000
  70
    32
  0
VERTEX
  8
0
  5
A742
 10
113.835
 20
96.3081
 30
0.000000
  70
    32
  0
VERTEX
  8
0
  5
A743
 10
114.163
 20
96.1997
 30
0.000000
  70
    32
  0
VERTEX
  8
0
  5
A744
 10
114.495
 20
96.1075
 30
0.000000
  70
    32
  0
VERTEX
  8
0
  5
A745
 10
114.832
 20
96.0318
 30
0.000000
  70
    32
  0
VERTEX
  8
0
  5
A746
 10
115.172
 20
95.9727
 30
0.000000
  70
    32
  0
VERTEX
  8
0
  5
A747
 10
115.514
 20
95.9304
 30
0.000000
  70
    32
  0
VERTEX
  8
0
  5
A748
 10
115.858
 20
95.9049
 30
0.000000
  70
    32
  0
VERTEX
  8
0
  5
A749
 10
116.203
 20
95.8965
 30
0.000000
  70
    32
  0
SEQEND
  8
0
  5
A74A
  0
POLYLINE
  5
504F
  8
0
 10
163.96630716684311
 20
109.98048718904441
 30
0.0
 66
     1
 70
     8
  0
VERTEX
  8
0
  5
A74B
 10
163.966
 20
109.980
 30
0.000000
  70
    32
  0
VERTEX
  8
0
  5
A74C
 10
163.621
 20
109.972
 30
0.000000
  70
    32
  0
VERTEX
  8
0
  5
A74D
 10
163.277
 20
109.947
 30
0.000000
  70
    32
  0
VERTEX
  8
0
  5
A74E
 10
162.935
 20
109.904
 30
0.000000
  70
    32
  0
VERTEX
  8
0
  5
A74F
 10
162.595
 20
109.845
 30
0.000000
  70
    32
  0
VERTEX
  8
0
  5
A750
 10
162.259
 20
109.769
 30
0.000000
  70
    32
  0
VERTEX
  8
0
  5
A751
 10
161.926
 20
109.677
 30
0.000000
  70
    32
  0
VERTEX
  8
0
  5
A752
 10
161.599
 20
109.569
 30
0.000000
  70
    32
  0
VERTEX
  8
0
  5
A753
 10
161.277
 20
109.444
 30
0.000000
  70
    32
  0
VERTEX
  8
0
  5
A754
 10
160.962
 20
109.304
 30
0.000000
  70
    32
  0
VERTEX
  8
0
  5
A755
 10
160.653
 20
109.149
 30
0.000000
  70
    32
  0
VERTEX
  8
0
  5
A756
 10
160.353
 20
108.979
 30
0.000000
  70
    32
  0
VERTEX
  8
0
  5
A757
 10
160.062
 20
108.794
 30
0.000000
  70
    32
  0
VERTEX
  8
0
  5
A758
 10
159.780
 20
108.595
 30
0.000000
  70
    32
  0
VERTEX
  8
0
  5
A759
 10
159.508
 20
108.382
 30
0.000000
  70
    32
  0
VERTEX
  8
0
  5
A75A
 10
159.247
 20
108.156
 30
0.000000
  70
    32
  0
VERTEX
  8
0
  5
A75B
 10
158.997
 20
107.918
 30
0.000000
  70
    32
  0
VERTEX
  8
0
  5
A75C
 10
158.759
 20
107.668
 30
0.000000
  70
    32
  0
VERTEX
  8
0
  5
A75D
 10
158.534
 20
107.406
 30
0.000000
  70
    32
  0
VERTEX
  8
0
  5
A75E
 10
158.322
 20
107.133
 30
0.000000
  70
    32
  0
VERTEX
  8
0
  5
A75F
 10
158.123
 20
106.851
 30
0.000000
  70
    32
  0
VERTEX
  8
0
  5
A760
 10
157.938
 20
106.559
 30
0.000000
  70
    32
  0
VERTEX
  8
0
  5
A761
 10
157.768
 20
106.258
 30
0.000000
  70
    32
  0
VERTEX
  8
0
  5
A762
 10
157.613
 20
105.949
 30
0.000000
  70
    32
  0
VERTEX
  8
0
  5
A763
 10
157.474
 20
105.633
 30
0.000000
  70
    32
  0
VERTEX
  8
0
  5
A764
 10
157.349
 20
105.311
 30
0.000000
  70
    32
  0
VERTEX
  8
0
  5
A765
 10
157.241
 20
104.983
 30
0.000000
  70
    32
  0
VERTEX
  8
0
  5
A766
 10
157.149
 20
104.650
 30
0.000000
  70
    32
  0
VERTEX
  8
0
  5
A767
 10
157.074
 20
104.312
 30
0.000000
  70
    32
  0
VERTEX
  8
0
  5
A768
 10
157.015
 20
103.972
 30
0.000000
  70
    32
  0
VERTEX
  8
0
  5
A769
 10
156.972
 20
103.629
 30
0.000000
  70
    32
  0
VERTEX
  8
0
  5
A76A
 10
156.947
 20
103.284
 30
0.000000
  70
    32
  0
VERTEX
  8
0
  5
A76B
 10
156.939
 20
102.938
 30
0.000000
  70
    32
  0
VERTEX
  8
0
  5
A76C
 10
156.947
 20
102.593
 30
0.000000
  70
    32
  0
VERTEX
  8
0
  5
A76D
 10
156.972
 20
102.248
 30
0.000000
  70
    32
  0
VERTEX
  8
0
  5
A76E
 10
157.015
 20
101.905
 30
0.000000
  70
    32
  0
VERTEX
  8
0
  5
A76F
 10
157.074
 20
101.565
 30
0.000000
  70
    32
  0
VERTEX
  8
0
  5
A770
 10
157.149
 20
101.227
 30
0.000000
  70
    32
  0
VERTEX
  8
0
  5
A771
 10
157.241
 20
100.894
 30
0.000000
  70
    32
  0
VERTEX
  8
0
  5
A772
 10
157.349
 20
100.566
 30
0.000000
  70
    32
  0
VERTEX
  8
0
  5
A773
 10
157.474
 20
100.244
 30
0.000000
  70
    32
  0
VERTEX
  8
0
  5
A774
 10
157.613
 20
99.9276
 30
0.000000
  70
    32
  0
VERTEX
  8
0
  5
A775
 10
157.768
 20
99.6189
 30
0.000000
  70
    32
  0
VERTEX
  8
0
  5
A776
 10
157.938
 20
99.3182
 30
0.000000
  70
    32
  0
VERTEX
  8
0
  5
A777
 10
158.123
 20
99.0261
 30
0.000000
  70
    32
  0
VERTEX
  8
0
  5
A778
 10
158.322
 20
98.7435
 30
0.000000
  70
    32
  0
VERTEX
  8
0
  5
A779
 10
158.534
 20
98.4711
 30
0.000000
  70
    32
  0
VERTEX
  8
0
  5
A77A
 10
158.759
 20
98.2093
 30
0.000000
  70
    32
  0
VERTEX
  8
0
  5
A77B
 10
158.997
 20
97.9590
 30
0.000000
  70
    32
  0
VERTEX
  8
0
  5
A77C
 10
159.247
 20
97.7207
 30
0.000000
  70
    32
  0
VERTEX
  8
0
  5
A77D
 10
159.508
 20
97.4949
 30
0.000000
  70
    32
  0
VERTEX
  8
0
  5
A77E
 10
159.780
 20
97.2823
 30
0.000000
  70
    32
  0
VERTEX
  8
0
  5
A77F
 10
160.062
 20
97.0832
 30
0.000000
  70
    32
  0
VERTEX
  8
0
  5
A780
 10
160.353
 20
96.8983
 30
0.000000
  70
    32
  0
VERTEX
  8
0
  5
A781
 10
160.653
 20
96.7280
 30
0.000000
  70
    32
  0
VERTEX
  8
0
  5
A782
 10
160.962
 20
96.5726
 30
0.000000
  70
    32
  0
VERTEX
  8
0
  5
A783
 10
161.277
 20
96.4325
 30
0.000000
  70
    32
  0
VERTEX
  8
0
  5
A784
 10
161.599
 20
96.3081
 30
0.000000
  70
    32
  0
VERTEX
  8
0
  5
A785
 10
161.926
 20
96.1997
 30
0.000000
  70
    32
  0
VERTEX
  8
0
  5
A786
 10
162.259
 20
96.1075
 30
0.000000
  70
    32
  0
VERTEX
  8
0
  5
A787
 10
162.595
 20
96.0318
 30
0.000000
  70
    32
  0
VERTEX
  8
0
  5
A788
 10
162.935
 20
95.9727
 30
0.000000
  70
    32
  0
VERTEX
  8
0
  5
A789
 10
163.277
 20
95.9304
 30
0.000000
  70
    32
  0
VERTEX
  8
0
  5
A78A
 10
163.621
 20
95.9049
 30
0.000000
  70
    32
  0
VERTEX
  8
0
  5
A78B
 10
163.966
 20
95.8965
 30
0.000000
  70
    32
  0
VERTEX
  8
0
  5
A78C
 10
164.311
 20
95.9049
 30
0.000000
  70
    32
  0
VERTEX
  8
0
  5
A78D
 10
164.655
 20
95.9304
 30
0.000000
  70
    32
  0
VERTEX
  8
0
  5
A78E
 10
164.997
 20
95.9727
 30
0.000000
  70
    32
  0
VERTEX
  8
0
  5
A78F
 10
165.337
 20
96.0318
 30
0.000000
  70
    32
  0
VERTEX
  8
0
  5
A790
 10
165.674
 20
96.1075
 30
0.000000
  70
    32
  0
VERTEX
  8
0
  5
A791
 10
166.006
 20
96.1997
 30
0.000000
  70
    32
  0
VERTEX
  8
0
  5
A792
 10
166.334
 20
96.3081
 30
0.000000
  70
    32
  0
VERTEX
  8
0
  5
A793
 10
166.656
 20
96.4325
 30
0.000000
  70
    32
  0
VERTEX
  8
0
  5
A794
 10
166.971
 20
96.5726
 30
0.000000
  70
    32
  0
VERTEX
  8
0
  5
A795
 10
167.279
 20
96.7280
 30
0.000000
  70
    32
  0
VERTEX
  8
0
  5
A796
 10
167.579
 20
96.8983
 30
0.000000
  70
    32
  0
VERTEX
  8
0
  5
A797
 10
167.871
 20
97.0832
 30
0.000000
  70
    32
  0
VERTEX
  8
0
  5
A798
 10
168.153
 20
97.2823
 30
0.000000
  70
    32
  0
VERTEX
  8
0
  5
A799
 10
168.425
 20
97.4949
 30
0.000000
  70
    32
  0
VERTEX
  8
0
  5
A79A
 10
168.686
 20
97.7207
 30
0.000000
  70
    32
  0
VERTEX
  8
0
  5
A79B
 10
168.936
 20
97.9590
 30
0.000000
  70
    32
  0
VERTEX
  8
0
  5
A79C
 10
169.173
 20
98.2093
 30
0.000000
  70
    32
  0
VERTEX
  8
0
  5
A79D
 10
169.399
 20
98.4711
 30
0.000000
  70
    32
  0
VERTEX
  8
0
  5
A79E
 10
169.611
 20
98.7435
 30
0.000000
  70
    32
  0
VERTEX
  8
0
  5
A79F
 10
169.810
 20
99.0261
 30
0.000000
  70
    32
  0
VERTEX
  8
0
  5
A7A0
 10
169.994
 20
99.3182
 30
0.000000
  70
    32
  0
VERTEX
  8
0
  5
A7A1
 10
170.164
 20
99.6189
 30
0.000000
  70
    32
  0
VERTEX
  8
0
  5
A7A2
 10
170.319
 20
99.9276
 30
0.000000
  70
    32
  0
VERTEX
  8
0
  5
A7A3
 10
170.459
 20
100.244
 30
0.000000
  70
    32
  0
VERTEX
  8
0
  5
A7A4
 10
170.583
 20
100.566
 30
0.000000
  70
    32
  0
VERTEX
  8
0
  5
A7A5
 10
170.691
 20
100.894
 30
0.000000
  70
    32
  0
VERTEX
  8
0
  5
A7A6
 10
170.783
 20
101.227
 30
0.000000
  70
    32
  0
VERTEX
  8
0
  5
A7A7
 10
170.859
 20
101.565
 30
0.000000
  70
    32
  0
VERTEX
  8
0
  5
A7A8
 10
170.918
 20
101.905
 30
0.000000
  70
    32
  0
VERTEX
  8
0
  5
A7A9
 10
170.960
 20
102.248
 30
0.000000
  70
    32
  0
VERTEX
  8
0
  5
A7AA
 10
170.986
 20
102.593
 30
0.000000
  70
    32
  0
VERTEX
  8
0
  5
A7AB
 10
170.994
 20
102.938
 30
0.000000
  70
    32
  0
VERTEX
  8
0
  5
A7AC
 10
170.986
 20
103.284
 30
0.000000
  70
    32
  0
VERTEX
  8
0
  5
A7AD
 10
170.960
 20
103.629
 30
0.000000
  70
    32
  0
VERTEX
  8
0
  5
A7AE
 10
170.918
 20
103.972
 30
0.000000
  70
    32
  0
VERTEX
  8
0
  5
A7AF
 10
170.859
 20
104.312
 30
0.000000
  70
    32
  0
VERTEX
  8
0
  5
A7B0
 10
170.783
 20
104.650
 30
0.000000
  70
    32
  0
VERTEX
  8
0
  5
A7B1
 10
170.691
 20
104.983
 30
0.000000
  70
    32
  0
VERTEX
  8
0
  5
A7B2
 10
170.583
 20
105.311
 30
0.000000
  70
    32
  0
VERTEX
  8
0
  5
A7B3
 10
170.459
 20
105.633
 30
0.000000
  70
    32
  0
VERTEX
  8
0
  5
A7B4
 10
170.319
 20
105.949
 30
0.000000
  70
    32
  0
VERTEX
  8
0
  5
A7B5
 10
170.164
 20
106.258
 30
0.000000
  70
    32
  0
VERTEX
  8
0
  5
A7B6
 10
169.994
 20
106.559
 30
0.000000
  70
    32
  0
VERTEX
  8
0
  5
A7B7
 10
169.810
 20
106.851
 30
0.000000
  70
    32
  0
VERTEX
  8
0
  5
A7B8
 10
169.611
 20
107.133
 30
0.000000
  70
    32
  0
VERTEX
  8
0
  5
A7B9
 10
169.399
 20
107.406
 30
0.000000
  70
    32
  0
VERTEX
  8
0
  5
A7BA
 10
169.173
 20
107.668
 30
0.000000
  70
    32
  0
VERTEX
  8
0
  5
A7BB
 10
168.936
 20
107.918
 30
0.000000
  70
    32
  0
VERTEX
  8
0
  5
A7BC
 10
168.686
 20
108.156
 30
0.000000
  70
    32
  0
VERTEX
  8
0
  5
A7BD
 10
168.425
 20
108.382
 30
0.000000
  70
    32
  0
VERTEX
  8
0
  5
A7BE
 10
168.153
 20
108.595
 30
0.000000
  70
    32
  0
VERTEX
  8
0
  5
A7BF
 10
167.871
 20
108.794
 30
0.000000
  70
    32
  0
VERTEX
  8
0
  5
A7C0
 10
167.579
 20
108.979
 30
0.000000
  70
    32
  0
VERTEX
  8
0
  5
A7C1
 10
167.279
 20
109.149
 30
0.000000
  70
    32
  0
VERTEX
  8
0
  5
A7C2
 10
166.971
 20
109.304
 30
0.000000
  70
    32
  0
VERTEX
  8
0
  5
A7C3
 10
166.656
 20
109.444
 30
0.000000
  70
    32
  0
VERTEX
  8
0
  5
A7C4
 10
166.334
 20
109.569
 30
0.000000
  70
    32
  0
VERTEX
  8
0
  5
A7C5
 10
166.006
 20
109.677
 30
0.000000
  70
    32
  0
VERTEX
  8
0
  5
A7C6
 10
165.674
 20
109.769
 30
0.000000
  70
    32
  0
VERTEX
  8
0
  5
A7C7
 10
165.337
 20
109.845
 30
0.000000
  70
    32
  0
VERTEX
  8
0
  5
A7C8
 10
164.997
 20
109.904
 30
0.000000
  70
    32
  0
VERTEX
  8
0
  5
A7C9
 10
164.655
 20
109.947
 30
0.000000
  70
    32
  0
VERTEX
  8
0
  5
A7CA
 10
164.311
 20
109.972
 30
0.000000
  70
    32
  0
VERTEX
  8
0
  5
A7CB
 10
163.966
 20
109.980
 30
0.000000
  70
    32
  0
SEQEND
  8
0
  5
A7CC
  0
LINE
  5
55AC
  8
1
 10
140.08466903454939
 20
152.63840012293659
 30
0.0
 11
140.08466903454939
 21
184.79662317673811
 31
0.0
  0
LINE
  5
55AD
  8
1
 10
180.2131933258288
 20
168.71751164983729
 30
0.0
 11
99.956144743269974
 21
168.71751164983729
 31
0.0
  0
ARC
  5
55AE
  8
0
 10
140.08466903454951
 20
168.71751164983729
 30
0.0
 40
35.000000000000142
 50
174.78409142954729
 51
185.2159085704526
  0
ARC
  5
55AF
  8
0
 10
140.08466903454919
 20
168.71751164983729
 30
0.0
 40
35.000000000000121
 50
354.7840914295474
 51
5.215908570452636
  0
LINE
  5
55B0
  8
0
 10
123.2141135121892
 20
172.68928042386361
 30
0.0
 11
123.2307408769591
 21
172.69545322913621
 31
0.0
  0
LINE
  5
55B1
  8
0
 10
156.93859719213961
 20
172.69545322913621
 30
0.0
 11
156.9552245569094
 21
172.68928042386361
 31
0.0
  0
POLYLINE
  5
55B6
  8
0
 66
     1
 10
0.0
 20
0.0
 30
0.0
  0
VERTEX
  5
A44D
  8
0
 10
128.11016800527369
 20
165.05107779136591
 30
0.0
  0
VERTEX
  5
A44E
  8
0
 10
128.22226243844449
 20
165.0566562764117
 30
0.0
  0
VERTEX
  5
A44F
  8
0
 10
128.44992348089531
 20
165.0583029993735
 30
0.0
  0
VERTEX
  5
A450
  8
0
 10
128.68091455141959
 20
165.04671061090579
 30
0.0
  0
VERTEX
  5
A451
  8
0
 10
128.79716950106231
 20
165.0357909286293
 30
0.0
  0
VERTEX
  5
A452
  8
0
 10
128.91367394430441
 20
165.02139709078779
 30
0.0
  0
VERTEX
  5
A453
  8
0
 10
129.1466799819903
 20
164.98208556835769
 30
0.0
  0
VERTEX
  5
A454
  8
0
 10
129.37842606239809
 20
164.92869972616381
 30
0.0
  0
VERTEX
  5
A455
  8
0
 10
129.60741902391629
 20
164.86136530778589
 30
0.0
  0
VERTEX
  5
A456
  8
0
 10
129.832297188692
 20
164.78037055975199
 30
0.0
  0
VERTEX
  5
A457
  8
0
 10
130.05183668858791
 20
164.68613512757199
 30
0.0
  0
VERTEX
  5
A458
  8
0
 10
130.159187236002
 20
164.63424839398041
 30
0.0
  0
VERTEX
  5
A459
  8
0
 10
130.26471018685481
 20
164.57931113623209
 30
0.0
  0
VERTEX
  5
A45A
  8
0
 10
130.46967155001281
 20
164.4607354372425
 30
0.0
  0
VERTEX
  5
A45B
  8
0
 10
130.66559114924189
 20
164.33141181350109
 30
0.0
  0
VERTEX
  5
A45C
  8
0
 10
130.85142515411559
 20
164.19253424856711
 30
0.0
  0
VERTEX
  5
A45D
  8
0
 10
131.02625933270409
 20
164.04546785993841
 30
0.0
  0
VERTEX
  5
A45E
  8
0
 10
131.1929522206166
 20
163.88811963574841
 30
0.0
  0
VERTEX
  5
A45F
  8
0
 10
131.2738647256536
 20
163.8048524763534
 30
0.0
  0
VERTEX
  5
A460
  8
0
 10
131.35288734588741
 20
163.7186420638219
 30
0.0
  0
VERTEX
  5
A461
  8
0
 10
131.5045225572841
 20
163.5378091845472
 30
0.0
  0
VERTEX
  5
A462
  8
0
 10
131.64649766744731
 20
163.3465304488536
 30
0.0
  0
VERTEX
  5
A463
  8
0
 10
131.71348642019899
 20
163.24729212616211
 30
0.0
  0
SEQEND
  5
A464
  8
0
  0
POLYLINE
  5
55B7
  8
0
 66
     1
 10
0.0
 20
0.0
 30
0.0
  0
VERTEX
  5
A465
  8
0
 10
148.45585164889971
 20
163.24729212616211
 30
0.0
  0
VERTEX
  5
A466
  8
0
 10
148.51960976622371
 20
163.3418886661016
 30
0.0
  0
VERTEX
  5
A467
  8
0
 10
148.6569355139535
 20
163.52779528023751
 30
0.0
  0
VERTEX
  5
A468
  8
0
 10
148.80694496868711
 20
163.70792377681741
 30
0.0
  0
VERTEX
  5
A469
  8
0
 10
148.88651410500489
 20
163.79532956291411
 30
0.0
  0
VERTEX
  5
A46A
  8
0
 10
148.96900496104601
 20
163.88072199487399
 30
0.0
  0
VERTEX
  5
A46B
  8
0
 10
149.14233877408449
 20
164.04480826878691
 30
0.0
  0
VERTEX
  5
A46C
  8
0
 10
149.32601207554001
 20
164.19894420432769
 30
0.0
  0
VERTEX
  5
A46D
  8
0
 10
149.51893467815751
 20
164.34203731161611
 30
0.0
  0
VERTEX
  5
A46E
  8
0
 10
149.7199847409147
 20
164.47322349609101
 30
0.0
  0
VERTEX
  5
A46F
  8
0
 10
149.92799457300251
 20
164.5918216572253
 30
0.0
  0
VERTEX
  5
A470
  8
0
 10
150.03417270225529
 20
164.6462033303323
 30
0.0
  0
VERTEX
  5
A471
  8
0
 10
150.1415535101612
 20
164.69722465584169
 30
0.0
  0
VERTEX
  5
A472
  8
0
 10
150.35916276705279
 20
164.7890175832045
 30
0.0
  0
VERTEX
  5
A473
  8
0
 10
150.57926118186921
 20
164.86698836908749
 30
0.0
  0
VERTEX
  5
A474
  8
0
 10
150.80018851943291
 20
164.93111735053469
 30
0.0
  0
VERTEX
  5
A475
  8
0
 10
151.02048196763911
 20
164.9816513309074
 30
0.0
  0
VERTEX
  5
A476
  8
0
 10
151.24463669223701
 20
165.01985443251471
 30
0.0
  0
VERTEX
  5
A477
  8
0
 10
151.35867834568791
 20
165.0343017157083
 30
0.0
  0
VERTEX
  5
A478
  8
0
 10
151.47379159994591
 20
165.04552440836949
 30
0.0
  0
VERTEX
  5
A479
  8
0
 10
151.70651295596031
 20
165.05800824584091
 30
0.0
  0
VERTEX
  5
A47A
  8
0
 10
151.94137750652911
 20
165.05685569303199
 30
0.0
  0
VERTEX
  5
A47B
  8
0
 10
152.05917006382501
 20
165.05107779136591
 30
0.0
  0
SEQEND
  5
A47C
  8
0
  0
LINE
  5
55B8
  8
0
 10
152.05917006382501
 20
165.05107779136591
 30
0.0
 11
172.94802248485931
 21
163.71751164983741
 31
0.0
  0
POLYLINE
  5
55B9
  8
0
 66
     1
 10
0.0
 20
0.0
 30
0.0
  0
VERTEX
  5
A47D
  8
0
 10
172.94802248485931
 20
163.71751164983741
 30
0.0
  0
VERTEX
  5
A47E
  8
0
 10
173.0475483629624
 20
163.71998953491899
 30
0.0
  0
VERTEX
  5
A47F
  8
0
 10
173.2400971181178
 20
163.73895348576761
 30
0.0
  0
VERTEX
  5
A480
  8
0
 10
173.42359330197201
 20
163.7748762239504
 30
0.0
  0
VERTEX
  5
A481
  8
0
 10
173.51174171500409
 20
163.79860033621051
 30
0.0
  0
VERTEX
  5
A482
  8
0
 10
173.59737558858811
 20
163.82586143199109
 30
0.0
  0
VERTEX
  5
A483
  8
0
 10
173.76122945126539
 20
163.89030218461761
 30
0.0
  0
VERTEX
  5
A484
  8
0
 10
173.91514572131501
 20
163.9668910040356
 30
0.0
  0
VERTEX
  5
A485
  8
0
 10
174.05887748693399
 20
164.054381719746
 30
0.0
  0
VERTEX
  5
A486
  8
0
 10
174.192200603212
 20
164.15161867462729
 30
0.0
  0
VERTEX
  5
A487
  8
0
 10
174.31491653010909
 20
164.25751142070689
 30
0.0
  0
VERTEX
  5
A488
  8
0
 10
174.37224300354049
 20
164.3133763592875
 30
0.0
  0
VERTEX
  5
A489
  8
0
 10
174.42685748910301
 20
164.37101730145579
 30
0.0
  0
VERTEX
  5
A48A
  8
0
 10
174.52794674760511
 20
164.4912003826677
 30
0.0
  0
VERTEX
  5
A48B
  8
0
 10
174.61827638654901
 20
164.6173971540278
 30
0.0
  0
VERTEX
  5
A48C
  8
0
 10
174.69780706672
 20
164.74887657041759
 30
0.0
  0
VERTEX
  5
A48D
  8
0
 10
174.76648447714859
 20
164.884927730584
 30
0.0
  0
VERTEX
  5
A48E
  8
0
 10
174.82425261536869
 20
165.02486419451191
 30
0.0
  0
VERTEX
  5
A48F
  8
0
 10
174.8490281779053
 20
165.0960799520563
 30
0.0
  0
VERTEX
  5
A490
  8
0
 10
174.87105553756359
 20
165.1680174476777
 30
0.0
  0
VERTEX
  5
A491
  8
0
 10
174.9068389215584
 20
165.31373179977331
 30
0.0
  0
VERTEX
  5
A492
  8
0
 10
174.93155128939779
 20
165.46136036335531
 30
0.0
  0
VERTEX
  5
A493
  8
0
 10
174.93974087578721
 20
165.53569346801919
 30
0.0
  0
SEQEND
  5
A494
  8
0
  0
LINE
  5
55BA
  8
0
 10
128.11016800527369
 20
172.38394550830881
 30
0.0
 11
107.22131558423941
 21
173.71751164983741
 31
0.0
  0
POLYLINE
  5
55BB
  8
0
 66
     1
 10
0.0
 20
0.0
 30
0.0
  0
VERTEX
  5
A495
  8
0
 10
107.22131558423931
 20
173.71751164983741
 30
0.0
  0
VERTEX
  5
A496
  8
0
 10
107.1217897061361
 20
173.71503376475559
 30
0.0
  0
VERTEX
  5
A497
  8
0
 10
106.9292409509805
 20
173.696069813907
 30
0.0
  0
VERTEX
  5
A498
  8
0
 10
106.7457447671261
 20
173.6601470757241
 30
0.0
  0
VERTEX
  5
A499
  8
0
 10
106.6575963540939
 20
173.63642296346401
 30
0.0
  0
VERTEX
  5
A49A
  8
0
 10
106.5719624805098
 20
173.60916186768341
 30
0.0
  0
VERTEX
  5
A49B
  8
0
 10
106.4081086178324
 20
173.54472111505669
 30
0.0
  0
VERTEX
  5
A49C
  8
0
 10
106.25419234778271
 20
173.46813229563861
 30
0.0
  0
VERTEX
  5
A49D
  8
0
 10
106.1104605821637
 20
173.38064157992801
 30
0.0
  0
VERTEX
  5
A49E
  8
0
 10
105.9771374658856
 20
173.2834046250465
 30
0.0
  0
VERTEX
  5
A49F
  8
0
 10
105.8544215389885
 20
173.17751187896661
 30
0.0
  0
VERTEX
  5
A4A0
  8
0
 10
105.7970950655571
 20
173.121646940386
 30
0.0
  0
VERTEX
  5
A4A1
  8
0
 10
105.74248057999461
 20
173.06400599821771
 30
0.0
  0
VERTEX
  5
A4A2
  8
0
 10
105.64139132149261
 20
172.94382291700569
 30
0.0
  0
VERTEX
  5
A4A3
  8
0
 10
105.551061682549
 20
172.8176261456459
 30
0.0
  0
VERTEX
  5
A4A4
  8
0
 10
105.4715310023783
 20
172.68614672925639
 30
0.0
  0
VERTEX
  5
A4A5
  8
0
 10
105.40285359195001
 20
172.55009556909059
 30
0.0
  0
VERTEX
  5
A4A6
  8
0
 10
105.34508545373021
 20
172.4101591051631
 30
0.0
  0
VERTEX
  5
A4A7
  8
0
 10
105.3203098911936
 20
172.33894334761891
 30
0.0
  0
VERTEX
  5
A4A8
  8
0
 10
105.29828253153531
 20
172.26700585199771
 30
0.0
  0
VERTEX
  5
A4A9
  8
0
 10
105.2624991475405
 20
172.12129149990199
 30
0.0
  0
VERTEX
  5
A4AA
  8
0
 10
105.237786779701
 20
171.97366293631941
 30
0.0
  0
VERTEX
  5
A4AB
  8
0
 10
105.22959719331151
 20
171.89932983165559
 30
0.0
  0
SEQEND
  5
A4AC
  8
0
  0
POLYLINE
  5
55BC
  8
0
 66
     1
 10
0.0
 20
0.0
 30
0.0
  0
VERTEX
  5
A4AD
  8
0
 10
174.93974087578721
 20
171.89932983165559
 30
0.0
  0
VERTEX
  5
A4AE
  8
0
 10
174.9315512893977
 20
171.9736629363195
 30
0.0
  0
VERTEX
  5
A4AF
  8
0
 10
174.90683892155849
 20
172.12129149990091
 30
0.0
  0
VERTEX
  5
A4B0
  8
0
 10
174.87105553756371
 20
172.26700585199629
 30
0.0
  0
VERTEX
  5
A4B1
  8
0
 10
174.84902817790541
 20
172.33894334761791
 30
0.0
  0
VERTEX
  5
A4B2
  8
0
 10
174.82425261536881
 20
172.41015910516239
 30
0.0
  0
VERTEX
  5
A4B3
  8
0
 10
174.76648447714851
 20
172.55009556909079
 30
0.0
  0
VERTEX
  5
A4B4
  8
0
 10
174.69780706671969
 20
172.68614672925781
 30
0.0
  0
VERTEX
  5
A4B5
  8
0
 10
174.61827638654819
 20
172.81762614564801
 30
0.0
  0
VERTEX
  5
A4B6
  8
0
 10
174.52794674760409
 20
172.94382291700839
 30
0.0
  0
VERTEX
  5
A4B7
  8
0
 10
174.42685748910191
 20
173.0640059982201
 30
0.0
  0
VERTEX
  5
A4B8
  8
0
 10
174.37224300353941
 20
173.1216469403883
 30
0.0
  0
VERTEX
  5
A4B9
  8
0
 10
174.31491653010801
 20
173.1775118789688
 30
0.0
  0
VERTEX
  5
A4BA
  8
0
 10
174.19220060321089
 20
173.28340462504841
 30
0.0
  0
VERTEX
  5
A4BB
  8
0
 10
174.058877486933
 20
173.3806415799294
 30
0.0
  0
VERTEX
  5
A4BC
  8
0
 10
173.91514572131399
 20
173.46813229563969
 30
0.0
  0
VERTEX
  5
A4BD
  8
0
 10
173.76122945126451
 20
173.5447211150576
 30
0.0
  0
VERTEX
  5
A4BE
  8
0
 10
173.59737558858731
 20
173.60916186768389
 30
0.0
  0
VERTEX
  5
A4BF
  8
0
 10
173.51174171500341
 20
173.63642296346441
 30
0.0
  0
VERTEX
  5
A4C0
  8
0
 10
173.42359330197129
 20
173.6601470757245
 30
0.0
  0
VERTEX
  5
A4C1
  8
0
 10
173.24009711811721
 20
173.69606981390709
 30
0.0
  0
VERTEX
  5
A4C2
  8
0
 10
173.04754836296209
 20
173.71503376475579
 30
0.0
  0
VERTEX
  5
A4C3
  8
0
 10
172.94802248485931
 20
173.71751164983741
 30
0.0
  0
SEQEND
  5
A4C4
  8
0
  0
LINE
  5
55BD
  8
0
 10
107.22131558423941
 20
163.71751164983741
 30
0.0
 11
128.11016800527369
 21
165.05107779136591
 31
0.0
  0
POLYLINE
  5
55BE
  8
0
 66
     1
 10
0.0
 20
0.0
 30
0.0
  0
VERTEX
  5
A4C5
  8
0
 10
105.22959719331151
 20
165.53569346801919
 30
0.0
  0
VERTEX
  5
A4C6
  8
0
 10
105.237786779701
 20
165.4613603633552
 30
0.0
  0
VERTEX
  5
A4C7
  8
0
 10
105.2624991475403
 20
165.31373179977371
 30
0.0
  0
VERTEX
  5
A4C8
  8
0
 10
105.29828253153499
 20
165.16801744767821
 30
0.0
  0
VERTEX
  5
A4C9
  8
0
 10
105.3203098911933
 20
165.09607995205681
 30
0.0
  0
VERTEX
  5
A4CA
  8
0
 10
105.34508545372989
 20
165.02486419451219
 30
0.0
  0
VERTEX
  5
A4CB
  8
0
 10
105.4028535919502
 20
164.88492773058371
 30
0.0
  0
VERTEX
  5
A4CC
  8
0
 10
105.47153100237909
 20
164.7488765704168
 30
0.0
  0
VERTEX
  5
A4CD
  8
0
 10
105.5510616825505
 20
164.61739715402649
 30
0.0
  0
VERTEX
  5
A4CE
  8
0
 10
105.64139132149469
 20
164.49120038266631
 30
0.0
  0
VERTEX
  5
A4CF
  8
0
 10
105.74248057999689
 20
164.37101730145449
 30
0.0
  0
VERTEX
  5
A4D0
  8
0
 10
105.7970950655594
 20
164.31337635928631
 30
0.0
  0
VERTEX
  5
A4D1
  8
0
 10
105.85442153899091
 20
164.25751142070581
 30
0.0
  0
VERTEX
  5
A4D2
  8
0
 10
105.97713746588791
 20
164.15161867462629
 30
0.0
  0
VERTEX
  5
A4D3
  8
0
 10
106.1104605821659
 20
164.05438171974521
 30
0.0
  0
VERTEX
  5
A4D4
  8
0
 10
106.25419234778479
 20
163.96689100403501
 30
0.0
  0
VERTEX
  5
A4D5
  8
0
 10
106.4081086178344
 20
163.8903021846171
 30
0.0
  0
VERTEX
  5
A4D6
  8
0
 10
106.5719624805116
 20
163.8258614319908
 30
0.0
  0
VERTEX
  5
A4D7
  8
0
 10
106.6575963540955
 20
163.79860033621031
 30
0.0
  0
VERTEX
  5
A4D8
  8
0
 10
106.7457447671276
 20
163.77487622395029
 30
0.0
  0
VERTEX
  5
A4D9
  8
0
 10
106.92924095098149
 20
163.73895348576761
 30
0.0
  0
VERTEX
  5
A4DA
  8
0
 10
107.1217897061367
 20
163.71998953491899
 30
0.0
  0
VERTEX
  5
A4DB
  8
0
 10
107.22131558423951
 20
163.71751164983741
 30
0.0
  0
SEQEND
  5
A4DC
  8
0
  0
LINE
  5
55BF
  8
0
 10
172.94802248485931
 20
173.71751164983741
 30
0.0
 11
152.05917006382489
 21
172.38394550830881
 31
0.0
  0
POLYLINE
  5
55C0
  8
0
 66
     1
 10
0.0
 20
0.0
 30
0.0
  0
VERTEX
  5
A4DD
  8
0
 10
152.05917006382501
 20
172.38394550830881
 30
0.0
  0
VERTEX
  5
A4DE
  8
0
 10
151.94707563335069
 20
172.37836702335929
 30
0.0
  0
VERTEX
  5
A4DF
  8
0
 10
151.71941459644029
 20
172.37672030012629
 30
0.0
  0
VERTEX
  5
A4E0
  8
0
 10
151.4884235315595
 20
172.38831268766921
 30
0.0
  0
VERTEX
  5
A4E1
  8
0
 10
151.37216858474221
 20
172.39923236922999
 30
0.0
  0
VERTEX
  5
A4E2
  8
0
 10
151.25566414431049
 20
172.4136262061844
 30
0.0
  0
VERTEX
  5
A4E3
  8
0
 10
151.02265811214619
 20
172.45293772632809
 30
0.0
  0
VERTEX
  5
A4E4
  8
0
 10
150.7909120370376
 20
172.50632356556559
 30
0.0
  0
VERTEX
  5
A4E5
  8
0
 10
150.56191908049379
 20
172.5736579803503
 30
0.0
  0
VERTEX
  5
A4E6
  8
0
 10
150.3370409203076
 20
172.65465272418959
 30
0.0
  0
VERTEX
  5
A4E7
  8
0
 10
150.11750142451001
 20
172.74888815163939
 30
0.0
  0
VERTEX
  5
A4E8
  8
0
 10
150.0101508789312
 20
172.80077488269171
 30
0.0
  0
VERTEX
  5
A4E9
  8
0
 10
149.90462792975899
 20
172.8557121378002
 30
0.0
  0
VERTEX
  5
A4EA
  8
0
 10
149.6996665694694
 20
172.9742878312581
 30
0.0
  0
VERTEX
  5
A4EB
  8
0
 10
149.50374697240429
 20
173.10361144922911
 30
0.0
  0
VERTEX
  5
A4EC
  8
0
 10
149.3179129689384
 20
173.24248900829221
 30
0.0
  0
VERTEX
  5
A4ED
  8
0
 10
149.14307879113119
 20
173.3895553909571
 30
0.0
  0
VERTEX
  5
A4EE
  8
0
 10
148.97638590521461
 20
173.54690360721349
 30
0.0
  0
VERTEX
  5
A4EF
  8
0
 10
148.89547340084781
 20
173.63017076250659
 30
0.0
  0
VERTEX
  5
A4F0
  8
0
 10
148.8164507810551
 20
173.71638117086539
 30
0.0
  0
VERTEX
  5
A4F1
  8
0
 10
148.66481556983331
 20
173.89721404163851
 30
0.0
  0
VERTEX
  5
A4F2
  8
0
 10
148.5228404588851
 20
174.0884927687114
 30
0.0
  0
VERTEX
  5
A4F3
  8
0
 10
148.45585170537331
 20
174.1877310870899
 30
0.0
  0
SEQEND
  5
A4F4
  8
0
  0
POLYLINE
  5
55C1
  8
0
 66
     1
 10
0.0
 20
0.0
 30
0.0
  0
VERTEX
  5
A4F5
  8
0
 10
131.71348642019899
 20
174.18773117351259
 30
0.0
  0
VERTEX
  5
A4F6
  8
0
 10
131.6497283028751
 20
174.0931346335731
 30
0.0
  0
VERTEX
  5
A4F7
  8
0
 10
131.5124025551452
 20
173.90722801943721
 30
0.0
  0
VERTEX
  5
A4F8
  8
0
 10
131.36239310041159
 20
173.7270995228572
 30
0.0
  0
VERTEX
  5
A4F9
  8
0
 10
131.28282396409381
 20
173.63969373676051
 30
0.0
  0
VERTEX
  5
A4FA
  8
0
 10
131.20033310805269
 20
173.55430130480079
 30
0.0
  0
VERTEX
  5
A4FB
  8
0
 10
131.02699929501421
 20
173.39021503088779
 30
0.0
  0
VERTEX
  5
A4FC
  8
0
 10
130.84332599355869
 20
173.23607909534701
 30
0.0
  0
VERTEX
  5
A4FD
  8
0
 10
130.65040339094119
 20
173.09298598805859
 30
0.0
  0
VERTEX
  5
A4FE
  8
0
 10
130.44935332818409
 20
172.96179980358369
 30
0.0
  0
VERTEX
  5
A4FF
  8
0
 10
130.24134349609619
 20
172.8432016424494
 30
0.0
  0
VERTEX
  5
A500
  8
0
 10
130.13516536684341
 20
172.7888199693424
 30
0.0
  0
VERTEX
  5
A501
  8
0
 10
130.02778455893761
 20
172.73779864383289
 30
0.0
  0
VERTEX
  5
A502
  8
0
 10
129.81017530204591
 20
172.64600571647011
 30
0.0
  0
VERTEX
  5
A503
  8
0
 10
129.59007688722949
 20
172.56803493058709
 30
0.0
  0
VERTEX
  5
A504
  8
0
 10
129.36914954966579
 20
172.50390594914001
 30
0.0
  0
VERTEX
  5
A505
  8
0
 10
129.14885610145959
 20
172.45337196876719
 30
0.0
  0
VERTEX
  5
A506
  8
0
 10
128.92470137686169
 20
172.41516886715999
 30
0.0
  0
VERTEX
  5
A507
  8
0
 10
128.81065972341079
 20
172.4007215839664
 30
0.0
  0
VERTEX
  5
A508
  8
0
 10
128.69554646915279
 20
172.38949889130521
 30
0.0
  0
VERTEX
  5
A509
  8
0
 10
128.46282511313839
 20
172.37701505383379
 30
0.0
  0
VERTEX
  5
A50A
  8
0
 10
128.22796056256959
 20
172.37816760664271
 30
0.0
  0
VERTEX
  5
A50B
  8
0
 10
128.11016800527369
 20
172.38394550830881
 30
0.0
  0
SEQEND
  5
A50C
  8
0
  0
LINE
  5
5670
  8
0
 10
64.47200421161574
 20
113.7384704324611
 30
0.0
 11
55.630156508006849
 21
113.7384704324611
 31
0.0
  0
LINE
  5
5671
  8
0
 10
50.051080359811287
 20
110.488731711144
 30
0.0
 11
50.051080359811287
 21
77.738470432461099
 31
0.0
  0
LINE
  5
5672
  8
0
 10
70.051080359811294
 20
77.738470432461099
 30
0.0
 11
70.051080359811294
 21
110.488731711144
 31
0.0
  0
LINE
  5
5676
  8
0
 10
50.051080359811287
 20
110.488731711144
 30
0.0
 11
54.580860836136047
 21
110.488731711144
 31
0.0
  0
LINE
  5
5677
  8
0
 10
65.521299883486563
 20
85.738470432461042
 30
0.0
 11
54.580860836136019
 21
85.738470432461042
 31
0.0
  0
LINE
  5
5678
  8
0
 10
65.521299883486563
 20
110.488731711144
 30
0.0
 11
70.051080359811294
 21
110.488731711144
 31
0.0
  0
LINE
  5
5679
  8
0
 10
70.051080359811294
 20
77.738470432461099
 30
0.0
 11
50.051080359811287
 21
77.738470432461099
 31
0.0
  0
POLYLINE
  5
567A
  8
0
 66
     1
 10
0.0
 20
0.0
 30
0.0
  0
VERTEX
  5
A50D
  8
0
 10
64.965007402480381
 20
110.50198125003121
 30
0.0
  0
VERTEX
  5
A50E
  8
0
 10
65.051042513010941
 20
110.4979875901132
 30
0.0
  0
VERTEX
  5
A50F
  8
0
 10
65.231479128325901
 20
110.49209700956899
 30
0.0
  0
VERTEX
  5
A510
  8
0
 10
65.422306049273516
 20
110.4891084053951
 30
0.0
  0
VERTEX
  5
A511
  8
0
 10
65.521299883486563
 20
110.488731711144
 30
0.0
  0
SEQEND
  5
A512
  8
0
  0
LINE
  5
567B
  8
0
 10
65.521299883486563
 20
110.488731711144
 30
0.0
 11
65.521299883486563
 21
85.738470432461042
 31
0.0
  0
POLYLINE
  5
567C
  8
0
 66
     1
 10
0.0
 20
0.0
 30
0.0
  0
VERTEX
  5
A513
  8
0
 10
65.521299883486563
 20
85.738470432461042
 30
0.0
  0
VERTEX
  5
A514
  8
0
 10
65.428287831562244
 20
85.739070027792707
 30
0.0
  0
VERTEX
  5
A515
  8
0
 10
65.247947701190157
 20
85.743851934616075
 30
0.0
  0
VERTEX
  5
A516
  8
0
 10
65.075498891327015
 20
85.753371800696925
 30
0.0
  0
VERTEX
  5
A517
  8
0
 10
64.99235153899636
 20
85.759891200135542
 30
0.0
  0
VERTEX
  5
A518
  8
0
 10
64.911318648240041
 20
85.767573017812694
 30
0.0
  0
VERTEX
  5
A519
  8
0
 10
64.756082858139564
 20
85.786347123210746
 30
0.0
  0
VERTEX
  5
A51A
  8
0
 10
64.610484741051067
 20
85.809525659174184
 30
0.0
  0
VERTEX
  5
A51B
  8
0
 10
64.474783565135056
 20
85.836964564860367
 30
0.0
  0
VERTEX
  5
A51C
  8
0
 10
64.34923804115013
 20
85.868514890520643
 30
0.0
  0
VERTEX
  5
A51D
  8
0
 10
64.234316632097347
 20
85.903952514689763
 30
0.0
  0
VERTEX
  5
A51E
  8
0
 10
64.180996648592554
 20
85.92303821261612
 30
0.0
  0
VERTEX
  5
A51F
  8
0
 10
64.130455264744171
 20
85.943001925939313
 30
0.0
  0
VERTEX
  5
A520
  8
0
 10
64.037762670887332
 20
85.985465110859934
 30
0.0
  0
VERTEX
  5
A521
  8
0
 10
63.956348662486619
 20
86.031147358802727
 30
0.0
  0
VERTEX
  5
A522
  8
0
 10
63.88632323395899
 20
86.079857098748846
 30
0.0
  0
VERTEX
  5
A523
  8
0
 10
63.827806251711188
 20
86.131394503303355
 30
0.0
  0
VERTEX
  5
A524
  8
0
 10
63.780988328413969
 20
86.185447451731136
 30
0.0
  0
VERTEX
  5
A525
  8
0
 10
63.761977486070663
 20
86.213344323794047
 30
0.0
  0
VERTEX
  5
A526
  8
0
 10
63.745896699306492
 20
86.241789728123479
 30
0.0
  0
VERTEX
  5
A527
  8
0
 10
63.722519253366052
 20
86.300233173183514
 30
0.0
  0
VERTEX
  5
A528
  8
0
 10
63.710844047766102
 20
86.360582882531943
 30
0.0
  0
VERTEX
  5
A529
  8
0
 10
63.70938769295666
 20
86.391390163830351
 30
0.0
  0
SEQEND
  5
A52A
  8
0
  0
POLYLINE
  5
567D
  8
0
 66
     1
 10
0.0
 20
0.0
 30
0.0
  0
VERTEX
  5
A52B
  8
0
 10
63.70938769295666
 20
86.391390163830351
 30
0.0
  0
VERTEX
  5
A52C
  8
0
 10
63.709613907557269
 20
86.403648873692916
 30
0.0
  0
VERTEX
  5
A52D
  8
0
 10
63.711421907104352
 20
86.428342171074476
 30
0.0
  0
VERTEX
  5
A52E
  8
0
 10
63.715033508273223
 20
86.453261254613551
 30
0.0
  0
VERTEX
  5
A52F
  8
0
 10
63.71751421828278
 20
86.465802227641177
 30
0.0
  0
SEQEND
  5
A530
  8
0
  0
POLYLINE
  5
567F
  8
0
 66
     1
 10
0.0
 20
0.0
 30
0.0
  0
VERTEX
  5
A531
  8
0
 10
55.630156508006849
 20
113.7384704324611
 30
0.0
  0
VERTEX
  5
A532
  8
0
 10
55.61199419750988
 20
113.7347607413319
 30
0.0
  0
VERTEX
  5
A533
  8
0
 10
55.574602206940881
 20
113.7037007314003
 30
0.0
  0
VERTEX
  5
A534
  8
0
 10
55.536329946146061
 20
113.63896095353959
 30
0.0
  0
VERTEX
  5
A535
  8
0
 10
55.517064556323128
 20
113.5935722935356
 30
0.0
  0
VERTEX
  5
A536
  8
0
 10
55.497818886140287
 20
113.5395274860156
 30
0.0
  0
VERTEX
  5
A537
  8
0
 10
55.459687691993729
 20
113.4061978730392
 30
0.0
  0
VERTEX
  5
A538
  8
0
 10
55.422529637224983
 20
113.24157344260441
 30
0.0
  0
VERTEX
  5
A539
  8
0
 10
55.386919334520599
 20
113.05009081420791
 30
0.0
  0
VERTEX
  5
A53A
  8
0
 10
55.353196355211139
 20
112.83656626865491
 30
0.0
  0
VERTEX
  5
A53B
  8
0
 10
55.319452583414943
 20
112.5894370006572
 30
0.0
  0
VERTEX
  5
A53C
  8
0
 10
55.302506479636399
 20
112.451887559874
 30
0.0
  0
VERTEX
  5
A53D
  8
0
 10
55.285619603193027
 20
112.305361606685
 30
0.0
  0
VERTEX
  5
A53E
  8
0
 10
55.252329138228589
 20
111.9870389352179
 30
0.0
  0
VERTEX
  5
A53F
  8
0
 10
55.220149843761646
 20
111.63876042017721
 30
0.0
  0
VERTEX
  5
A540
  8
0
 10
55.189578684804019
 20
111.26632537645931
 30
0.0
  0
VERTEX
  5
A541
  8
0
 10
55.161052165194491
 20
110.87716886459719
 30
0.0
  0
VERTEX
  5
A542
  8
0
 10
55.134868283415919
 20
110.4791547621985
 30
0.0
  0
VERTEX
  5
A543
  8
0
 10
55.122205407711313
 20
110.27072426321121
 30
0.0
  0
VERTEX
  5
A544
  8
0
 10
55.109658040534413
 20
110.05273766108419
 30
0.0
  0
VERTEX
  5
A545
  8
0
 10
55.085204567099957
 20
109.5908289402457
 30
0.0
  0
VERTEX
  5
A546
  8
0
 10
55.062039392854381
 20
109.0996214910671
 30
0.0
  0
VERTEX
  5
A547
  8
0
 10
55.051080359811287
 20
108.8452927097911
 30
0.0
  0
SEQEND
  5
A548
  8
0
  0
POLYLINE
  5
5680
  8
0
 66
     1
 10
0.0
 20
0.0
 30
0.0
  0
VERTEX
  5
A549
  8
0
 10
55.051080359811287
 20
97.031648155130995
 30
0.0
  0
VERTEX
  5
A54A
  8
0
 10
55.057842743252017
 20
96.872878662098799
 30
0.0
  0
VERTEX
  5
A54B
  8
0
 10
55.071879217102612
 20
96.561525324617548
 30
0.0
  0
VERTEX
  5
A54C
  8
0
 10
55.086516609473932
 20
96.259960444644776
 30
0.0
  0
VERTEX
  5
A54D
  8
0
 10
55.094026443018748
 20
96.113391498540182
 30
0.0
  0
VERTEX
  5
A54E
  8
0
 10
55.101643746576599
 20
95.969897244176664
 30
0.0
  0
VERTEX
  5
A54F
  8
0
 10
55.117135833348698
 20
95.692860515575433
 30
0.0
  0
VERTEX
  5
A550
  8
0
 10
55.132854070855359
 20
95.430203252016042
 30
0.0
  0
VERTEX
  5
A551
  8
0
 10
55.148786563419833
 20
95.180980362507796
 30
0.0
  0
VERTEX
  5
A552
  8
0
 10
55.165588603635797
 20
94.934956532089984
 30
0.0
  0
VERTEX
  5
A553
  8
0
 10
55.183301800375368
 20
94.692595071014736
 30
0.0
  0
VERTEX
  5
A554
  8
0
 10
55.192473418868019
 20
94.573467644326286
 30
0.0
  0
VERTEX
  5
A555
  8
0
 10
55.201839538153649
 20
94.456043693941453
 30
0.0
  0
VERTEX
  5
A556
  8
0
 10
55.221104328579138
 20
94.227231198825564
 30
0.0
  0
VERTEX
  5
A557
  8
0
 10
55.240986792514718
 20
94.007873498014604
 30
0.0
  0
VERTEX
  5
A558
  8
0
 10
55.261369116954
 20
93.799432079701475
 30
0.0
  0
VERTEX
  5
A559
  8
0
 10
55.282126066995033
 20
93.603111445409468
 30
0.0
  0
VERTEX
  5
A55A
  8
0
 10
55.303118125749961
 20
93.419925830797126
 30
0.0
  0
VERTEX
  5
A55B
  8
0
 10
55.313656331280932
 20
93.333507589513545
 30
0.0
  0
VERTEX
  5
A55C
  8
0
 10
55.324197180346573
 20
93.250640116293695
 30
0.0
  0
VERTEX
  5
A55D
  8
0
 10
55.3452069273456
 20
93.095772596563549
 30
0.0
  0
VERTEX
  5
A55E
  8
0
 10
55.365985584412023
 20
92.955584603746914
 30
0.0
  0
VERTEX
  5
A55F
  8
0
 10
55.376444306535518
 20
92.889730458436233
 30
0.0
  0
SEQEND
  5
A560
  8
0
  0
POLYLINE
  5
5681
  8
0
 66
     1
 10
0.0
 20
0.0
 30
0.0
  0
VERTEX
  5
A561
  8
0
 10
55.376444306535518
 20
92.889730458436233
 30
0.0
  0
VERTEX
  5
A562
  8
0
 10
55.532693855975509
 20
91.653871094455212
 30
0.0
  0
VERTEX
  5
A563
  8
0
 10
55.862827437760281
 20
89.3435817255899
 30
0.0
  0
VERTEX
  5
A564
  8
0
 10
56.208861830137131
 20
87.333329626521888
 30
0.0
  0
VERTEX
  5
A565
  8
0
 10
56.38464650133983
 20
86.465802227641234
 30
0.0
  0
SEQEND
  5
A566
  8
0
  0
LINE
  5
5682
  8
0
 10
55.051080359811287
 20
108.8452927097911
 30
0.0
 11
55.051080359811287
 21
97.031648155130995
 31
0.0
  0
POLYLINE
  5
5685
  8
0
 66
     1
 10
0.0
 20
0.0
 30
0.0
  0
VERTEX
  5
A567
  8
0
 10
64.725716413087071
 20
92.889730458436233
 30
0.0
  0
VERTEX
  5
A568
  8
0
 10
64.736175135210772
 20
92.955584603748378
 30
0.0
  0
VERTEX
  5
A569
  8
0
 10
64.756953792277244
 20
93.095772596565212
 30
0.0
  0
VERTEX
  5
A56A
  8
0
 10
64.777963539276243
 20
93.250640116295529
 30
0.0
  0
VERTEX
  5
A56B
  8
0
 10
64.788504388341892
 20
93.333507589515477
 30
0.0
  0
VERTEX
  5
A56C
  8
0
 10
64.799042593872883
 20
93.419925830799173
 30
0.0
  0
VERTEX
  5
A56D
  8
0
 10
64.820034652627783
 20
93.603111445411685
 30
0.0
  0
VERTEX
  5
A56E
  8
0
 10
64.840791602668816
 20
93.799432079703877
 30
0.0
  0
VERTEX
  5
A56F
  8
0
 10
64.861173927108084
 20
94.007873498017076
 30
0.0
  0
VERTEX
  5
A570
  8
0
 10
64.881056391043671
 20
94.227231198828235
 30
0.0
  0
VERTEX
  5
A571
  8
0
 10
64.900321181469167
 20
94.456043693944196
 30
0.0
  0
VERTEX
  5
A572
  8
0
 10
64.909687300754769
 20
94.573467644329114
 30
0.0
  0
VERTEX
  5
A573
  8
0
 10
64.918858919247413
 20
94.692595071017578
 30
0.0
  0
VERTEX
  5
A574
  8
0
 10
64.936572115986962
 20
94.934956532092826
 30
0.0
  0
VERTEX
  5
A575
  8
0
 10
64.953374156202983
 20
95.180980362510752
 30
0.0
  0
VERTEX
  5
A576
  8
0
 10
64.969306648767414
 20
95.430203252019055
 30
0.0
  0
VERTEX
  5
A577
  8
0
 10
64.985024886274061
 20
95.692860515578616
 30
0.0
  0
VERTEX
  5
A578
  8
0
 10
65.000516973046189
 20
95.969897244180075
 30
0.0
  0
VERTEX
  5
A579
  8
0
 10
65.008134276604011
 20
96.113391498543663
 30
0.0
  0
VERTEX
  5
A57A
  8
0
 10
65.015644110148827
 20
96.259960444648357
 30
0.0
  0
VERTEX
  5
A57B
  8
0
 10
65.030281502520182
 20
96.5615253246213
 30
0.0
  0
VERTEX
  5
A57C
  8
0
 10
65.044317976370735
 20
96.872878662102664
 30
0.0
  0
VERTEX
  5
A57D
  8
0
 10
65.051080359811294
 20
97.031648155130995
 30
0.0
  0
SEQEND
  5
A57E
  8
0
  0
POLYLINE
  5
5686
  8
0
 66
     1
 10
0.0
 20
0.0
 30
0.0
  0
VERTEX
  5
A57F
  8
0
 10
65.051080359811294
 20
108.8452927097911
 30
0.0
  0
VERTEX
  5
A580
  8
0
 10
65.04012132676803
 20
109.09962149107091
 30
0.0
  0
VERTEX
  5
A581
  8
0
 10
65.016956152522454
 20
109.590828940249
 30
0.0
  0
VERTEX
  5
A582
  8
0
 10
64.992502679088034
 20
110.05273766108721
 30
0.0
  0
VERTEX
  5
A583
  8
0
 10
64.979955311911112
 20
110.27072426321401
 30
0.0
  0
VERTEX
  5
A584
  8
0
 10
64.967292436206492
 20
110.47915476220101
 30
0.0
  0
VERTEX
  5
A585
  8
0
 10
64.941108554427956
 20
110.8771688645995
 30
0.0
  0
VERTEX
  5
A586
  8
0
 10
64.912582034818399
 20
111.2663253764613
 30
0.0
  0
VERTEX
  5
A587
  8
0
 10
64.8820108758608
 20
111.638760420179
 30
0.0
  0
VERTEX
  5
A588
  8
0
 10
64.849831581393843
 20
111.9870389352194
 30
0.0
  0
VERTEX
  5
A589
  8
0
 10
64.81654111642942
 20
112.3053616066863
 30
0.0
  0
VERTEX
  5
A58A
  8
0
 10
64.799654239986054
 20
112.4518875598751
 30
0.0
  0
VERTEX
  5
A58B
  8
0
 10
64.782708136207532
 20
112.58943700065809
 30
0.0
  0
VERTEX
  5
A58C
  8
0
 10
64.748964364411336
 20
112.8365662686557
 30
0.0
  0
VERTEX
  5
A58D
  8
0
 10
64.715241385101876
 20
113.0500908142085
 30
0.0
  0
VERTEX
  5
A58E
  8
0
 10
64.67963108239752
 20
113.2415734426049
 30
0.0
  0
VERTEX
  5
A58F
  8
0
 10
64.642473027628796
 20
113.4061978730396
 30
0.0
  0
VERTEX
  5
A590
  8
0
 10
64.604341833482223
 20
113.5395274860158
 30
0.0
  0
VERTEX
  5
A591
  8
0
 10
64.585096163299397
 20
113.5935722935357
 30
0.0
  0
VERTEX
  5
A592
  8
0
 10
64.565830773476506
 20
113.63896095353969
 30
0.0
  0
VERTEX
  5
A593
  8
0
 10
64.527558512681708
 20
113.7037007314003
 30
0.0
  0
VERTEX
  5
A594
  8
0
 10
64.490166522112673
 20
113.7347607413319
 30
0.0
  0
VERTEX
  5
A595
  8
0
 10
64.47200421161574
 20
113.7384704324611
 30
0.0
  0
SEQEND
  5
A596
  8
0
  0
POLYLINE
  5
5687
  8
0
 66
     1
 10
0.0
 20
0.0
 30
0.0
  0
VERTEX
  5
A597
  8
0
 10
63.71751421828278
 20
86.465802227641177
 30
0.0
  0
VERTEX
  5
A598
  8
0
 10
63.893298889485457
 20
87.333329626521888
 30
0.0
  0
VERTEX
  5
A599
  8
0
 10
64.239333281862315
 20
89.3435817255899
 30
0.0
  0
VERTEX
  5
A59A
  8
0
 10
64.569466863647079
 20
91.653871094455155
 30
0.0
  0
VERTEX
  5
A59B
  8
0
 10
64.725716413087071
 20
92.889730458436233
 30
0.0
  0
SEQEND
  5
A59C
  8
0
  0
LINE
  5
5689
  8
0
 10
65.051080359811294
 20
108.8452927097911
 30
0.0
 11
65.051080359811294
 21
97.031648155130995
 31
0.0
  0
LINE
  5
568C
  8
0
 10
54.580860836136047
 20
110.488731711144
 30
0.0
 11
54.580860836136047
 21
85.738470432461042
 31
0.0
  0
POLYLINE
  5
568D
  8
0
 66
     1
 10
0.0
 20
0.0
 30
0.0
  0
VERTEX
  5
A59D
  8
0
 10
54.580860836136019
 20
110.488731711144
 30
0.0
  0
VERTEX
  5
A59E
  8
0
 10
54.676882590101002
 20
110.4890859095686
 30
0.0
  0
VERTEX
  5
A59F
  8
0
 10
54.865525989798869
 20
110.4919745161306
 30
0.0
  0
VERTEX
  5
A5A0
  8
0
 10
55.048177220803289
 20
110.4978653022162
 30
0.0
  0
VERTEX
  5
A5A1
  8
0
 10
55.136742914962468
 20
110.5019602353705
 30
0.0
  0
SEQEND
  5
A5A2
  8
0
  0
POLYLINE
  5
568E
  8
0
 66
     1
 10
0.0
 20
0.0
 30
0.0
  0
VERTEX
  5
A5A3
  8
0
 10
56.38464650133983
 20
86.465802227641234
 30
0.0
  0
VERTEX
  5
A5A4
  8
0
 10
56.387127249172401
 20
86.453261044798694
 30
0.0
  0
VERTEX
  5
A5A5
  8
0
 10
56.39073885370567
 20
86.428341794112839
 30
0.0
  0
VERTEX
  5
A5A6
  8
0
 10
56.392546819758032
 20
86.403648664705145
 30
0.0
  0
VERTEX
  5
A5A7
  8
0
 10
56.392773026665928
 20
86.391390163830351
 30
0.0
  0
SEQEND
  5
A5A8
  8
0
  0
POLYLINE
  5
568F
  8
0
 66
     1
 10
0.0
 20
0.0
 30
0.0
  0
VERTEX
  5
A5A9
  8
0
 10
56.392773026665928
 20
86.391390163830351
 30
0.0
  0
VERTEX
  5
A5AA
  8
0
 10
56.391311889321571
 20
86.360532697567862
 30
0.0
  0
VERTEX
  5
A5AB
  8
0
 10
56.37959702137104
 20
86.300082576284979
 30
0.0
  0
VERTEX
  5
A5AC
  8
0
 10
56.356134894400007
 20
86.241536320418504
 30
0.0
  0
VERTEX
  5
A5AD
  8
0
 10
56.339994371111281
 20
86.213041348173363
 30
0.0
  0
VERTEX
  5
A5AE
  8
0
 10
56.320911789823128
 20
86.185096366609059
 30
0.0
  0
VERTEX
  5
A5AF
  8
0
 10
56.273913110270939
 20
86.13095231550966
 30
0.0
  0
VERTEX
  5
A5B0
  8
0
 10
56.215223076198548
 20
86.079378297304444
 30
0.0
  0
VERTEX
  5
A5B1
  8
0
 10
56.14503761016249
 20
86.030664968432632
 30
0.0
  0
VERTEX
  5
A5B2
  8
0
 10
56.063476212388309
 20
85.984998667794002
 30
0.0
  0
VERTEX
  5
A5B3
  8
0
 10
55.970659991772663
 20
85.942568550579054
 30
0.0
  0
VERTEX
  5
A5B4
  8
0
 10
55.920069285999539
 20
85.922626957183013
 30
0.0
  0
VERTEX
  5
A5B5
  8
0
 10
55.866710279029348
 20
85.903566611468747
 30
0.0
  0
VERTEX
  5
A5B6
  8
0
 10
55.751746550349957
 20
85.868187381170344
 30
0.0
  0
VERTEX
  5
A5B7
  8
0
 10
55.62590153502412
 20
85.836631605325408
 30
0.0
  0
VERTEX
  5
A5B8
  8
0
 10
55.489935023605817
 20
85.80921264465951
 30
0.0
  0
VERTEX
  5
A5B9
  8
0
 10
55.344450135176942
 20
85.786120276353302
 30
0.0
  0
VERTEX
  5
A5BA
  8
0
 10
55.189779294699918
 20
85.767463350283094
 30
0.0
  0
VERTEX
  5
A5BB
  8
0
 10
55.109102746115809
 20
85.759830138788061
 30
0.0
  0
VERTEX
  5
A5BC
  8
0
 10
55.026253880864942
 20
85.753343055213179
 30
0.0
  0
VERTEX
  5
A5BD
  8
0
 10
54.854203830417703
 20
85.743851561837403
 30
0.0
  0
VERTEX
  5
A5BE
  8
0
 10
54.67395676507369
 20
85.739071119958624
 30
0.0
  0
VERTEX
  5
A5BF
  8
0
 10
54.580860836136019
 20
85.738470432461042
 30
0.0
  0
SEQEND
  5
A5C0
  8
0
  0
LINE
  5
5D09
  8
1
 10
60.051080359811287
 20
31.607609913894692
 30
0.0000000000000002
 11
60.051080359811287
 21
119.68165053278319
 31
0.0
  0
ARC
  5
5D53
  8
0
 10
140.08466903454931
 20
103.45905914955171
 30
-0.0000000000000016
 40
10.27941128290936
 50
43.145975360487462
 51
136.85402463951249
  0
ARC
  5
5D90
  8
0
 10
60.051080359811209
 20
103.45905914955171
 30
-0.0000000000000016
 40
10.27941128290936
 50
43.145975360487462
 51
62.58955591470685
  0
ARC
  5
5D91
  8
0
 10
60.051080359811209
 20
103.45905914955171
 30
-0.0000000000000016
 40
10.27941128290936
 50
117.41044408529309
 51
136.85402463951249
  0
CIRCLE
  5
5EE5
  8
0
 10
140.08466903454951
 20
168.71751164983729
 30
0.0
 40
7.5
  0
CIRCLE
  5
5EE6
  8
0
 10
140.08466903454939
 20
168.71751164983729
 30
0.0
 40
0.7500000000000001
  0
CIRCLE
  5
5EE7
  8
0
 10
137.58466903454939
 20
168.71751164983729
 30
0.0
 40
0.7500000000000001
  0
CIRCLE
  5
5EE8
  8
0
 10
135.08466903454939
 20
168.71751164983729
 30
0.0
 40
0.7500000000000001
  0
CIRCLE
  5
5EE9
  8
0
 10
142.58466903454939
 20
168.71751164983729
 30
0.0
 40
0.7500000000000001
  0
CIRCLE
  5
5EEA
  8
0
 10
145.08466903454939
 20
168.71751164983729
 30
0.0
 40
0.7500000000000001
  0
ARC
  5
96E5
  8
0
 10
140.08466903454939
 20
168.71751164983729
 30
0.0
 40
10.0
 50
33.162944778229317
 51
146.8370546302524
  0
ARC
  5
96E6
  8
0
 10
140.08466903454939
 20
168.71751164983729
 30
0.0
 40
10.0
 50
213.1629453697438
 51
326.83705463026018
  0
LINE
  5
A110
  8
3
 62
     3
 10
136.21920643248151
 20
75.738470432461327
 30
0.0
 11
136.21920643248151
 21
38.371470227509349
 31
0.0
  0
LINE
  5
A111
  8
0
 10
135.08466903454939
 20
77.738470432461099
 30
0.0
 11
135.08466903454939
 21
40.3365466438147
 31
0.0
  0
LINE
  5
A112
  8
0
 10
145.08466903454959
 20
77.738470432461099
 30
0.0
 11
145.08466903454959
 21
40.336546643814472
 31
0.0
  0
LINE
  5
A113
  8
3
 62
     3
 10
143.95013163661741
 20
75.738470432461327
 30
0.0
 11
143.95013163661741
 21
38.371470227509242
 31
0.0
  0
LINE
  5
A114
  8
0
 10
136.58466903454951
 20
37.738470432461099
 30
0.0
 11
143.58466903454939
 21
37.738470432461092
 31
0.0
  0
LINE
  5
A115
  8
0
 10
135.08466903454959
 20
40.336546643814472
 30
0.0
 11
145.08466903454959
 21
40.336546643814472
 31
0.0
  0
LINE
  5
A116
  8
0
 10
136.58466903454951
 20
37.738470432461099
 30
0.0
 11
135.08466903454959
 21
40.336546643814472
 31
0.0
  0
LINE
  5
A11A
  8
0
 10
143.58466903454939
 20
37.738470432461099
 30
0.0
 11
145.08466903454959
 21
40.336546643814472
 31
0.0
  0
LINE
  5
A11C
  8
0
 10
145.08466903454959
 20
75.738470432461327
 30
0.0
 11
135.08466903454939
 21
75.738470432461327
 31
0.0
  0
LINE
  5
A11D
  8
3
 62
     3
 10
136.21920643248151
 20
75.738470432461327
 30
0.0
 11
135.08466903454939
 21
76.873007830393249
 31
0.0
  0
LINE
  5
A11F
  8
3
 62
     3
 10
143.9501316366173
 20
75.738470432461327
 30
0.0
 11
145.08466903454939
 21
76.873007830393249
 31
0.0
  0
LINE
  5
A126
  8
3
 62
     3
 10
56.185617757743472
 20
75.738470432461327
 30
0.0
 11
56.185617757743472
 21
38.371470227509349
 31
0.0
  0
LINE
  5
A127
  8
0
 10
55.051080359811323
 20
77.738470432461099
 30
0.0
 11
55.051080359811323
 21
40.3365466438147
 31
0.0
  0
LINE
  5
A128
  8
0
 10
65.051080359811493
 20
77.738470432461099
 30
0.0
 11
65.051080359811493
 21
40.336546643814472
 31
0.0
  0
LINE
  5
A129
  8
3
 62
     3
 10
63.916542961879337
 20
75.738470432461327
 30
0.0
 11
63.916542961879337
 21
38.371470227509242
 31
0.0
  0
LINE
  5
A12C
  8
0
 10
56.551080359811429
 20
37.738470432461099
 30
0.0
 11
55.051080359811493
 21
40.336546643814472
 31
0.0
  0
LINE
  5
A12E
  8
0
 10
65.051080359811493
 20
40.336546643814472
 30
0.0
 11
55.051080359811479
 21
40.336546643814472
 31
0.0
  0
LINE
  5
A12F
  8
0
 10
63.551080359811323
 20
37.738470432461099
 30
0.0
 11
56.551080359811429
 21
37.738470432461099
 31
0.0
  0
LINE
  5
A130
  8
0
 10
63.551080359811323
 20
37.738470432461099
 30
0.0
 11
65.051080359811493
 21
40.336546643814472
 31
0.0
  0
LINE
  5
A132
  8
0
 10
65.051080359811493
 20
75.738470432461327
 30
0.0
 11
55.051080359811323
 21
75.738470432461327
 31
0.0
  0
LINE
  5
A133
  8
3
 62
     3
 10
56.185617757743472
 20
75.738470432461327
 30
0.0
 11
55.051080359811323
 21
76.873007830393249
 31
0.0
  0
LINE
  5
A134
  8
3
 62
     3
 10
63.916542961879173
 20
75.738470432461327
 30
0.0
 11
65.051080359811323
 21
76.873007830393249
 31
0.0
  0
TEXT
  5
A376
  8
0
 62
     3
 10
0.0
 20
0.0
 30
0.0
 40
10.0
  1
EWN70AX40-BR
  7
STANDARD1
  0
ENDSEC
  0
EOF
