  0
SECTION
  2
HEADER
  9
$ACADVER
  1
AC1009
  9
$INSBASE
 10
0.0
 20
0.0
 30
0.0
  9
$EXTMIN
 10
0.0
 20
-2.960436562073669
 30
0.0
  9
$EXTMAX
 10
115.675306957708
 20
95.000000000000057
 30
0.0
  9
$LIMMIN
 10
0.0
 20
0.0
  9
$LIMMAX
 10
187.5
 20
135.0
  9
$ORTHOMODE
 70
     1
  9
$REGENMODE
 70
     1
  9
$FILLMODE
 70
     1
  9
$QTEXTMODE
 70
     0
  9
$MIRRTEXT
 70
     0
  9
$DRAGMODE
 70
     2
  9
$LTSCALE
 40
5.0
  9
$OSMODE
 70
    37
  9
$ATTMODE
 70
     1
  9
$TEXTSIZE
 40
4.000000000000048
  9
$TRACEWID
 40
0.05
  9
$TEXTSTYLE
  7
STANDARD
  9
$CLAYER
  8
0
  9
$CELTYPE
  6
BYLAYER
  9
$CECOLOR
 62
   256
  9
$DIMSCALE
 40
0.5
  9
$DIMASZ
 40
3.0
  9
$DIMEXO
 40
2.0
  9
$DIMDLI
 40
0.38
  9
$DIMRND
 40
0.0
  9
$DIMDLE
 40
0.0
  9
$DIMEXE
 40
2.0
  9
$DIMTP
 40
0.0
  9
$DIMTM
 40
0.0
  9
$DIMTXT
 40
3.2000000000000002
  9
$DIMCEN
 40
0.09
  9
$DIMTSZ
 40
0.0
  9
$DIMTOL
 70
     0
  9
$DIMLIM
 70
     0
  9
$DIMTIH
 70
     0
  9
$DIMTOH
 70
     0
  9
$DIMSE1
 70
     0
  9
$DIMSE2
 70
     0
  9
$DIMTAD
 70
     1
  9
$DIMZIN
 70
     0
  9
$DIMBLK
  1

  9
$DIMASO
 70
     1
  9
$DIMSHO
 70
     0
  9
$DIMPOST
  1

  9
$DIMAPOST
  1

  9
$DIMALT
 70
     0
  9
$DIMALTD
 70
     2
  9
$DIMALTF
 40
25.399999999999999
  9
$DIMLFAC
 40
1.0
  9
$DIMTOFL
 70
     0
  9
$DIMTVP
 40
1.6000000000000001
  9
$DIMTIX
 70
     1
  9
$DIMSOXD
 70
     0
  9
$DIMSAH
 70
     0
  9
$DIMBLK1
  1

  9
$DIMBLK2
  1

  9
$DIMSTYLE
  2
STANDARD
  9
$DIMCLRD
 70
     0
  9
$DIMCLRE
 70
     0
  9
$DIMCLRT
 70
     0
  9
$DIMTFAC
 40
1.0
  9
$DIMGAP
 40
0.09
  9
$LUNITS
 70
     2
  9
$LUPREC
 70
     4
  9
$SKETCHINC
 40
0.1
  9
$FILLETRAD
 40
1.8999999999999999
  9
$AUNITS
 70
     0
  9
$AUPREC
 70
     0
  9
$MENU
  1
E:\r13\win\SUPPORT\ACAD
  9
$ELEVATION
 40
0.0
  9
$PELEVATION
 40
0.0
  9
$THICKNESS
 40
0.0
  9
$LIMCHECK
 70
     0
  9
$BLIPMODE
 70
     0
  9
$CHAMFERA
 40
0.0
  9
$CHAMFERB
 40
0.0
  9
$SKPOLY
 70
     0
  9
$TDCREATE
 40
2449839.7834143522
  9
$TDUPDATE
 40
2459432.6836002548
  9
$TDINDWG
 40
0.1730704051
  9
$TDUSRTIMER
 40
0.1730704051
  9
$USRTIMER
 70
     1
  9
$ANGBASE
 50
0.0
  9
$ANGDIR
 70
     0
  9
$PDMODE
 70
     0
  9
$PDSIZE
 40
0.0
  9
$PLINEWID
 40
0.0
  9
$COORDS
 70
     1
  9
$SPLFRAME
 70
     0
  9
$SPLINETYPE
 70
     6
  9
$SPLINESEGS
 70
     8
  9
$ATTDIA
 70
     0
  9
$ATTREQ
 70
     1
  9
$HANDLING
 70
     1
  9
$HANDSEED
  5
C46
  9
$SURFTAB1
 70
     6
  9
$SURFTAB2
 70
     6
  9
$SURFTYPE
 70
     6
  9
$SURFU
 70
     6
  9
$SURFV
 70
     6
  9
$UCSNAME
  2

  9
$UCSORG
 10
0.0
 20
0.0
 30
0.0
  9
$UCSXDIR
 10
1.0
 20
0.0
 30
0.0
  9
$UCSYDIR
 10
0.0
 20
1.0
 30
0.0
  9
$PUCSNAME
  2

  9
$PUCSORG
 10
0.0
 20
0.0
 30
0.0
  9
$PUCSXDIR
 10
1.0
 20
0.0
 30
0.0
  9
$PUCSYDIR
 10
0.0
 20
1.0
 30
0.0
  9
$USERI1
 70
     0
  9
$USERI2
 70
     1
  9
$USERI3
 70
     1
  9
$USERI4
 70
     0
  9
$USERI5
 70
     0
  9
$USERR1
 40
0.0
  9
$USERR2
 40
0.0
  9
$USERR3
 40
0.0
  9
$USERR4
 40
0.0
  9
$USERR5
 40
0.0
  9
$WORLDVIEW
 70
     1
  9
$SHADEDGE
 70
     3
  9
$SHADEDIF
 70
    70
  9
$TILEMODE
 70
     1
  9
$MAXACTVP
 70
    16
  9
$PLIMCHECK
 70
     0
  9
$PEXTMIN
 10
1.0000000000000000E+020
 20
1.0000000000000000E+020
 30
1.0000000000000000E+020
  9
$PEXTMAX
 10
-1.0000000000000000E+020
 20
-1.0000000000000000E+020
 30
-1.0000000000000000E+020
  9
$PLIMMIN
 10
0.0
 20
0.0
  9
$PLIMMAX
 10
12.0
 20
9.0
  9
$UNITMODE
 70
     0
  9
$VISRETAIN
 70
     0
  9
$PLINEGEN
 70
     0
  9
$PSLTSCALE
 70
     0
  0
ENDSEC
  0
SECTION
  2
TABLES
  0
TABLE
  2
VPORT
 70
     1
  0
VPORT
  2
*ACTIVE
 70
     0
 10
0.0
 20
0.0
 11
1.0
 21
1.0
 12
106.07148468421001
 22
46.019865404563738
 13
0.0
 23
0.0
 14
5.0
 24
5.0
 15
5.0
 25
5.0
 16
0.0
 26
0.0
 36
1.0
 17
0.0
 27
0.0
 37
0.0
 40
98.824009581169165
 41
2.3805970149253728
 42
50.0
 43
0.0
 44
0.0
 50
0.0
 51
0.0
 71
     0
 72
   500
 73
     1
 74
     0
 75
     0
 76
     0
 77
     0
 78
     2
  0
ENDTAB
  0
TABLE
  2
LTYPE
 70
     4
  0
LTYPE
  2
CONTINUOUS
 70
     0
  3
Solid Line
 72
    65
 73
     0
 40
0.0
  0
LTYPE
  2
CENTER
 70
     0
  3
____ _ ____ _ ____ _ ____ _ ____ _ ____ _ ____
 72
    65
 73
     4
 40
2.0
 49
1.25
 49
-0.25
 49
0.25
 49
-0.25
  0
LTYPE
  2
HIDDEN
 70
     0
  3
_ _ _ _ _ _ _ _ _ _ _ _ _ _ _ _ _ _ _ _ _ _ _
 72
    65
 73
     2
 40
0.375
 49
0.25
 49
-0.125
  0
LTYPE
  2
PHANTOM2
 70
     0
  3
___ _ _ ___ _ _ ___ _ _ ___ _ _
 72
    65
 73
     6
 40
1.25
 49
0.625
 49
-0.125
 49
0.125
 49
-0.125
 49
0.125
 49
-0.125
  0
ENDTAB
  0
TABLE
  2
LAYER
 70
     4
  0
LAYER
  2
0
 70
     0
 62
     7
  6
CONTINUOUS
  0
LAYER
  2
1
 70
     0
 62
     1
  6
CENTER
  0
LAYER
  2
2
 70
     0
 62
     2
  6
HIDDEN
  0
LAYER
  2
3
 70
     0
 62
     3
  6
CONTINUOUS
  0
ENDTAB
  0
TABLE
  2
STYLE
 70
     2
  0
STYLE
  2
STANDARD
 70
     0
 40
0.0
 41
1.0
 50
0.0
 71
     0
 42
4.000000000000048
  3
TXT
  4
BIGFONT
  0
STYLE
  2
STANDARD1
 70
     0
 40
0.0
 41
1.0
 50
0.0
 71
     0
 42
3.0
  3
txt
  4

  0
ENDTAB
  0
TABLE
  2
VIEW
 70
     1
  0
VIEW
  2
ALL
 70
     0
 40
179.5384664489153
 10
135.0
 20
89.769233224457665
 41
0.0
 11
0.0
 21
0.0
 31
1.0
 12
0.0
 22
0.0
 32
0.0
 42
0.0
 43
0.0
 44
0.0
 50
0.0
 71
     0
  0
ENDTAB
  0
TABLE
  2
UCS
 70
     0
  0
ENDTAB
  0
TABLE
  2
APPID
 70
     5
  0
APPID
  2
ACAD
 70
     0
  0
APPID
  2
GENIUS_GENOREF_13
 70
     0
  0
APPID
  2
ACAD_MLEADERVER
 70
     0
  0
APPID
  2
ACAD_EXEMPT_FROM_CAD_STANDARDS
 70
     0
  0
APPID
  2
ACAD_NAV_VCDISPLAY
 70
     0
  0
ENDTAB
  0
TABLE
  2
DIMSTYLE
 70
     1
  0
DIMSTYLE
  2
STANDARD
 70
     0
  3

  4

  5

  6

  7

 40
1.0
 41
0.18
 42
0.0625
 43
0.38
 44
0.18
 45
0.0
 46
0.0
 47
0.0
 48
0.0
140
0.18
141
0.09
142
0.0
143
25.399999999999999
144
1.0
145
0.0
146
1.0
147
0.09
 71
     0
 72
     0
 73
     1
 74
     1
 75
     0
 76
     0
 77
     0
 78
     0
170
     0
171
     2
172
     0
173
     0
174
     0
175
     0
176
     0
177
     0
178
     0
  0
ENDTAB
  0
ENDSEC
  0
SECTION
  2
BLOCKS
  0
BLOCK
  8
0
  2
$MODEL_SPACE
 70
     0
 10
0.0
 20
0.0
 30
0.0
  3
$MODEL_SPACE
  1

  0
ENDBLK
  5
36C
  8
0
  0
BLOCK
 67
     1
  8
0
  2
$PAPER_SPACE
 70
     0
 10
0.0
 20
0.0
 30
0.0
  3
$PAPER_SPACE
  1

  0
ENDBLK
  5
36A
 67
     1
  8
0
  0
ENDSEC
  0
SECTION
  2
ENTITIES
  0
TEXT
  5
57E
  8
0
 62
     3
 10
0.0
 20
0.0
 30
0.0
 40
10.0
  1
FGK12-M4X10-FS
  7
STANDARD1
  0
CIRCLE
  5
715
  8
0
 10
49.999999999999972
 20
59.000000000000021
 30
0.0
 40
5.25
  0
CIRCLE
  5
716
  8
0
 10
49.999999999999972
 20
59.000000000000021
 30
0.0
 40
4.3125000000000027
  0
POLYLINE
  5
717
  8
0
 66
     1
 10
0.0
 20
0.0
 30
0.0
  0
VERTEX
  5
B5D
  8
0
 10
46.949999999999967
 20
58.350000000000001
 30
0.0
  0
VERTEX
  5
B5E
  8
0
 10
46.88291119913751
 20
58.361587970663152
 30
0.0
  0
VERTEX
  5
B5F
  8
0
 10
46.822998957080813
 20
58.395498430113349
 30
0.0
  0
VERTEX
  5
B60
  8
0
 10
46.778419613910003
 20
58.447237306821897
 30
0.0
  0
VERTEX
  5
B61
  8
0
 10
46.75412938943721
 20
58.509568528127573
 30
0.0
  0
VERTEX
  5
B62
  8
0
 10
46.749999999999972
 20
58.550000000000011
 30
0.0
  0
SEQEND
  5
B63
  8
0
  0
LINE
  5
718
  8
0
 10
46.749999999999972
 20
58.550000000000011
 30
0.0
 11
46.749999999999972
 21
59.450000000000017
 31
0.0
  0
POLYLINE
  5
719
  8
0
 66
     1
 10
0.0
 20
0.0
 30
0.0
  0
VERTEX
  5
B64
  8
0
 10
46.749999999999972
 20
59.450000000000017
 30
0.0
  0
VERTEX
  5
B65
  8
0
 10
46.760671753610517
 20
59.514457855371532
 30
0.0
  0
VERTEX
  5
B66
  8
0
 10
46.791532429691443
 20
59.572016511835557
 30
0.0
  0
VERTEX
  5
B67
  8
0
 10
46.839251929659689
 20
59.616537878321751
 30
0.0
  0
VERTEX
  5
B68
  8
0
 10
46.899625387330239
 20
59.643552056042772
 30
0.0
  0
VERTEX
  5
B69
  8
0
 10
46.950000000028297
 20
59.65000000000002
 30
0.0
  0
SEQEND
  5
B6A
  8
0
  0
LINE
  5
71A
  8
0
 10
46.950000000028297
 20
59.65000000000002
 30
0.0
 11
53.049999999999969
 21
59.65000000000002
 31
0.0
  0
POLYLINE
  5
71B
  8
0
 66
     1
 10
0.0
 20
0.0
 30
0.0
  0
VERTEX
  5
B6B
  8
0
 10
53.049999999999969
 20
59.65000000000002
 30
0.0
  0
VERTEX
  5
B6C
  8
0
 10
53.117088800862433
 20
59.638412029336877
 30
0.0
  0
VERTEX
  5
B6D
  8
0
 10
53.17700104291913
 20
59.604501569886679
 30
0.0
  0
VERTEX
  5
B6E
  8
0
 10
53.22158038608994
 20
59.552762693178117
 30
0.0
  0
VERTEX
  5
B6F
  8
0
 10
53.245870610562733
 20
59.490431471872462
 30
0.0
  0
VERTEX
  5
B70
  8
0
 10
53.249999999999972
 20
59.450000000000017
 30
0.0
  0
SEQEND
  5
B71
  8
0
  0
LINE
  5
71C
  8
0
 10
53.249999999999972
 20
59.450000000000017
 30
0.0
 11
53.249999999999972
 21
58.550000000000011
 31
0.0
  0
POLYLINE
  5
71D
  8
0
 66
     1
 10
0.0
 20
0.0
 30
0.0
  0
VERTEX
  5
B72
  8
0
 10
53.249999999999972
 20
58.550000000000011
 30
0.0
  0
VERTEX
  5
B73
  8
0
 10
53.23932824638942
 20
58.485542144628504
 30
0.0
  0
VERTEX
  5
B74
  8
0
 10
53.208467570308493
 20
58.427983488164472
 30
0.0
  0
VERTEX
  5
B75
  8
0
 10
53.16074807034024
 20
58.383462121678271
 30
0.0
  0
VERTEX
  5
B76
  8
0
 10
53.100374612669711
 20
58.356447943957257
 30
0.0
  0
VERTEX
  5
B77
  8
0
 10
53.049999999999969
 20
58.350000000000001
 30
0.0
  0
SEQEND
  5
B78
  8
0
  0
LINE
  5
71E
  8
0
 10
53.049999999999969
 20
58.350000000000001
 30
0.0
 11
46.949999999999967
 21
58.350000000000001
 31
0.0
  0
LINE
  5
71F
  8
1
 10
40.999999999999943
 20
59.000000000000021
 30
0.0
 11
58.99999999999995
 21
59.000000000000021
 31
0.0
  0
LINE
  5
720
  8
1
 10
50.0
 20
50.0
 30
0.0
 11
50.0
 21
68.0
 31
0.0
  0
CIRCLE
  5
721
  8
0
 10
49.999999999999943
 20
59.0
 30
0.0
 40
6.0
  0
LINE
  5
723
  8
0
 10
89.249999999999943
 20
53.0
 30
0.0
 11
83.469132279084391
 21
53.000000000000007
 31
0.0
  0
LINE
  5
72F
  8
0
 10
88.799999999999926
 20
53.105799532183688
 30
0.0
 11
83.469132279084391
 21
53.105799532183688
 31
0.0
  0
POLYLINE
  5
731
  8
0
 66
     1
 10
0.0
 20
0.0
 30
0.0
  0
VERTEX
  5
B79
  8
0
 10
82.997125189622551
 20
53.960440667825658
 30
0.0
  0
VERTEX
  5
B7A
  8
0
 10
82.966572522695202
 20
53.957721316139988
 30
0.0
  0
VERTEX
  5
B7B
  8
0
 10
82.926069164876694
 20
53.936945256429539
 30
0.0
  0
VERTEX
  5
B7C
  8
0
 10
82.909364242539027
 20
53.895197711932013
 30
0.0
  0
VERTEX
  5
B7D
  8
0
 10
82.916048784698859
 20
53.84323776326228
 30
0.0
  0
VERTEX
  5
B7E
  8
0
 10
82.94089847405192
 20
53.778408820151768
 30
0.0
  0
VERTEX
  5
B7F
  8
0
 10
82.980144834905843
 20
53.706434497952728
 30
0.0
  0
VERTEX
  5
B80
  8
0
 10
83.031807601401511
 20
53.62725700499054
 30
0.0
  0
VERTEX
  5
B81
  8
0
 10
83.098149902886036
 20
53.536723066339292
 30
0.0
  0
VERTEX
  5
B82
  8
0
 10
83.173598707794653
 20
53.441713637989182
 30
0.0
  0
VERTEX
  5
B83
  8
0
 10
83.255633689243766
 20
53.344115864925783
 30
0.0
  0
VERTEX
  5
B84
  8
0
 10
83.359744232621765
 20
53.225707846220033
 30
0.0
  0
VERTEX
  5
B85
  8
0
 10
83.469132279084391
 20
53.105799532183688
 30
0.0
  0
SEQEND
  5
B86
  8
0
  0
LINE
  5
732
  8
0
 10
88.799999999999926
 20
64.922409638554214
 30
0.0
 11
83.469132279084391
 21
64.922409638554214
 31
0.0
  0
LINE
  5
734
  8
2
 10
82.379369514710959
 20
59.65000000000002
 30
0.0
 11
83.969132279084405
 21
59.65000000000002
 31
0.0
  0
LINE
  5
735
  8
2
 10
82.379369514714597
 20
58.350000000000001
 30
0.0
 11
83.969132279084405
 21
58.350000000000001
 31
0.0
  0
LINE
  5
736
  8
2
 10
83.969132279084405
 20
59.65000000000002
 30
0.0
 11
83.969132279084405
 21
58.350000000000001
 31
0.0
  0
POLYLINE
  5
738
  8
0
 66
     1
 10
0.0
 20
0.0
 30
0.0
  0
VERTEX
  5
B87
  8
0
 10
82.379369514714597
 20
58.350000000000001
 30
0.0
  0
VERTEX
  5
B88
  8
0
 10
82.394726696109785
 20
58.361587970663152
 30
0.0
  0
VERTEX
  5
B89
  8
0
 10
82.407611637358855
 20
58.395498430113349
 30
0.0
  0
VERTEX
  5
B8A
  8
0
 10
82.41627527235579
 20
58.447237306821897
 30
0.0
  0
VERTEX
  5
B8B
  8
0
 10
82.419813402622452
 20
58.509568528127573
 30
0.0
  0
VERTEX
  5
B8C
  8
0
 10
82.41938308779774
 20
58.550000000000011
 30
0.0
  0
SEQEND
  5
B8D
  8
0
  0
POLYLINE
  5
73A
  8
0
 66
     1
 10
0.0
 20
0.0
 30
0.0
  0
VERTEX
  5
B8E
  8
0
 10
82.419383087797726
 20
59.450000000000017
 30
0.0
  0
VERTEX
  5
B8F
  8
0
 10
82.419110822436181
 20
59.514457855371532
 30
0.0
  0
VERTEX
  5
B90
  8
0
 10
82.413866971237397
 20
59.572016511835557
 30
0.0
  0
VERTEX
  5
B91
  8
0
 10
82.404215513653284
 20
59.616537878321751
 30
0.0
  0
VERTEX
  5
B92
  8
0
 10
82.390980365244573
 20
59.643552056042772
 30
0.0
  0
VERTEX
  5
B93
  8
0
 10
82.379369514710959
 20
59.65000000000002
 30
0.0
  0
SEQEND
  5
B94
  8
0
  0
LINE
  5
73B
  8
0
 10
82.379369514710959
 20
59.65000000000002
 30
0.0
 11
82.000000000170843
 21
59.65000000000002
 31
0.0
  0
ARC
  5
73C
  8
0
 10
96.964155581061164
 20
58.613637251830141
 30
0.0
 40
14.999999999999989
 50
161.74434633748541
 51
176.0381745512106
  0
ARC
  5
73D
  8
0
 10
96.964155581061036
 20
59.386362748169873
 30
0.0
 40
14.999999999999851
 50
183.96179249003279
 51
198.25565366251459
  0
LINE
  5
73F
  8
0
 10
88.799999999999926
 20
64.155063731525487
 30
0.0
 11
83.469132279084391
 21
64.155063731525487
 31
0.0
  0
POLYLINE
  5
741
  8
0
 66
     1
 10
0.0
 20
0.0
 30
0.0
  0
VERTEX
  5
B95
  8
0
 10
83.241870501358036
 20
62.886535140681119
 30
0.0
  0
VERTEX
  5
B96
  8
0
 10
83.255657236402584
 20
62.886682335051773
 30
0.0
  0
VERTEX
  5
B97
  8
0
 10
83.359756733095281
 20
62.89596172608374
 30
0.0
  0
VERTEX
  5
B98
  8
0
 10
83.469132279084391
 20
62.918594255452021
 30
0.0
  0
SEQEND
  5
B99
  8
0
  0
LINE
  5
742
  8
0
 10
88.799999999999926
 20
53.763711198574853
 30
0.0
 11
83.469132279084434
 21
53.763711198574853
 31
0.0
  0
LINE
  5
743
  8
0
 10
92.949999999999946
 20
54.250000000000007
 30
0.0
 11
89.999999999999943
 21
54.250000000000007
 31
0.0
  0
LINE
  5
744
  8
0
 10
89.999999999999943
 20
63.750000000000007
 30
0.0
 11
92.949999999999946
 21
63.750000000000007
 31
0.0
  0
LINE
  5
745
  8
0
 10
93.699999999999946
 20
55.000000000000007
 30
0.0
 11
92.949999999999946
 21
54.250000000000007
 31
0.0
  0
LINE
  5
746
  8
0
 10
92.949999999999946
 20
63.750000000000007
 30
0.0
 11
93.699999999999946
 21
63.000000000000007
 31
0.0
  0
LINE
  5
747
  8
0
 10
92.949999999999946
 20
63.750000000000007
 30
0.0
 11
92.949999999999946
 21
54.250000000000007
 31
0.0
  0
LINE
  5
748
  8
0
 10
93.699999999999946
 20
63.000000000000007
 30
0.0
 11
93.699999999999946
 21
55.000000000000007
 31
0.0
  0
LINE
  5
74E
  8
0
 10
88.799999999999926
 20
55.205849771425228
 30
0.0
 11
83.469132279084391
 21
55.205849771425228
 31
0.0
  0
LINE
  5
74F
  8
0
 10
88.799999999999926
 20
62.918594255452021
 30
0.0
 11
83.469132279084391
 21
62.918594255452021
 31
0.0
  0
LINE
  5
750
  8
0
 10
88.799999999999926
 20
60.975606212364319
 30
0.0
 11
83.469132279084391
 21
60.975606212364319
 31
0.0
  0
LINE
  5
751
  8
0
 10
88.799999999999926
 20
56.871740590020593
 30
0.0
 11
83.469132279084391
 21
56.871740590020593
 31
0.0
  0
LINE
  5
752
  8
0
 10
88.799999999999926
 20
59.081225069899702
 30
0.0
 11
83.469132279084391
 21
59.081225069899702
 31
0.0
  0
LINE
  5
754
  8
0
 10
88.799999999999926
 20
65.0
 30
0.0
 11
89.249999999999943
 21
65.0
 31
0.0
  0
LINE
  5
755
  8
0
 10
88.799999999999955
 20
65.000000000000014
 30
0.0
 11
88.799999999999969
 21
53.0
 31
0.0
  0
LINE
  5
756
  8
0
 10
89.999999999999943
 20
53.75
 30
0.0
 11
89.249999999999943
 21
53.0
 31
0.0
  0
LINE
  5
757
  8
0
 10
89.249999999999943
 20
65.0
 30
0.0
 11
89.999999999999943
 21
64.25
 31
0.0
  0
LINE
  5
758
  8
0
 10
89.999999999999915
 20
64.249999999999986
 30
0.0
 11
89.999999999999915
 21
53.749999999999993
 31
0.0
  0
LINE
  5
759
  8
0
 10
89.249999999999943
 20
65.000000000000014
 30
0.0
 11
89.249999999999943
 21
53.0
 31
0.0
  0
LINE
  5
75A
  8
0
 10
83.469132279084391
 20
60.975606212364319
 30
0.0
 11
83.469132279084391
 21
62.918594255452021
 31
0.0
  0
POLYLINE
  5
75B
  8
0
 66
     1
 10
0.0
 20
0.0
 30
0.0
  0
VERTEX
  5
B9A
  8
0
 10
83.469132279084391
 20
60.975606212364319
 30
0.0
  0
VERTEX
  5
B9B
  8
0
 10
83.336767837424745
 20
60.855865892929053
 30
0.0
  0
VERTEX
  5
B9C
  8
0
 10
83.21244757056202
 20
60.717995329529629
 30
0.0
  0
VERTEX
  5
B9D
  8
0
 10
83.101248275922629
 20
60.56233052209933
 30
0.0
  0
VERTEX
  5
B9E
  8
0
 10
83.026406092444844
 20
60.427153625993888
 30
0.0
  0
VERTEX
  5
B9F
  8
0
 10
82.966584669982751
 20
60.281446591474847
 30
0.0
  0
VERTEX
  5
BA0
  8
0
 10
82.926075099563406
 20
60.125396916850377
 30
0.0
  0
VERTEX
  5
BA1
  8
0
 10
82.909364840517
 20
59.965737736092457
 30
0.0
  0
VERTEX
  5
BA2
  8
0
 10
82.916045906293164
 20
59.831884955720433
 30
0.0
  0
VERTEX
  5
BA3
  8
0
 10
82.940893073815332
 20
59.704058733379448
 30
0.0
  0
VERTEX
  5
BA4
  8
0
 10
82.980136752799211
 20
59.59027504196122
 30
0.0
  0
VERTEX
  5
BA5
  8
0
 10
83.031797075430717
 20
59.486332878236503
 30
0.0
  0
VERTEX
  5
BA6
  8
0
 10
83.098135727928138
 20
59.386676777182423
 30
0.0
  0
VERTEX
  5
BA7
  8
0
 10
83.173580855925678
 20
59.298514121161972
 30
0.0
  0
VERTEX
  5
BA8
  8
0
 10
83.255612212999907
 20
59.221838510492901
 30
0.0
  0
VERTEX
  5
BA9
  8
0
 10
83.359732831411037
 20
59.144492834566613
 30
0.0
  0
VERTEX
  5
BAA
  8
0
 10
83.469132279084391
 20
59.081225069899702
 30
0.0
  0
SEQEND
  5
BAB
  8
0
  0
LINE
  5
75C
  8
0
 10
83.469132279084391
 20
56.871740590020593
 30
0.0
 11
83.469132279084391
 21
59.081225069899702
 31
0.0
  0
POLYLINE
  5
75D
  8
0
 66
     1
 10
0.0
 20
0.0
 30
0.0
  0
VERTEX
  5
BAC
  8
0
 10
83.469132279084391
 20
56.871740590020593
 30
0.0
  0
VERTEX
  5
BAD
  8
0
 10
83.336746776388665
 20
56.843606680021892
 30
0.0
  0
VERTEX
  5
BAE
  8
0
 10
83.212408615017949
 20
56.793299040627062
 30
0.0
  0
VERTEX
  5
BAF
  8
0
 10
83.101197560656061
 20
56.718592275551543
 30
0.0
  0
VERTEX
  5
BB0
  8
0
 10
83.026368019050778
 20
56.640871268317348
 30
0.0
  0
VERTEX
  5
BB1
  8
0
 10
82.966559568517681
 20
56.545240980465593
 30
0.0
  0
VERTEX
  5
BB2
  8
0
 10
82.926062836384673
 20
56.429828464366139
 30
0.0
  0
VERTEX
  5
BB3
  8
0
 10
82.909363605604256
 20
56.29837459758248
 30
0.0
  0
VERTEX
  5
BB4
  8
0
 10
82.916051855437416
 20
56.177097414549799
 30
0.0
  0
VERTEX
  5
BB5
  8
0
 10
82.940904234484847
 20
56.051355361491289
 30
0.0
  0
VERTEX
  5
BB6
  8
0
 10
82.980153455911562
 20
55.930109941181662
 30
0.0
  0
VERTEX
  5
BB7
  8
0
 10
83.031818829151376
 20
55.810587211225148
 30
0.0
  0
VERTEX
  5
BB8
  8
0
 10
83.098165022828056
 20
55.686446496555227
 30
0.0
  0
VERTEX
  5
BB9
  8
0
 10
83.173617749705045
 20
55.566887236169471
 30
0.0
  0
VERTEX
  5
BBA
  8
0
 10
83.255656597079664
 20
55.453136903870579
 30
0.0
  0
VERTEX
  5
BBB
  8
0
 10
83.359756393699982
 20
55.325390546974617
 30
0.0
  0
VERTEX
  5
BBC
  8
0
 10
83.469132279084391
 20
55.205849771425228
 30
0.0
  0
SEQEND
  5
BBD
  8
0
  0
LINE
  5
75E
  8
0
 10
83.469132279084434
 20
53.763711198574853
 30
0.0
 11
83.469132279084391
 21
55.205849771425228
 31
0.0
  0
POLYLINE
  5
75F
  8
0
 66
     1
 10
0.0
 20
0.0
 30
0.0
  0
VERTEX
  5
BBE
  8
0
 10
83.469132279084405
 20
53.763711198574853
 30
0.0
  0
VERTEX
  5
BBF
  8
0
 10
83.336757645779315
 20
53.840363034460111
 30
0.0
  0
VERTEX
  5
BC0
  8
0
 10
83.212428719478766
 20
53.901182046315938
 30
0.0
  0
VERTEX
  5
BC1
  8
0
 10
83.101223733809334
 20
53.942423399868701
 30
0.0
  0
VERTEX
  5
BC2
  8
0
 10
83.02638766789039
 20
53.958527903174911
 30
0.0
  0
VERTEX
  5
BC3
  8
0
 10
82.997125189622551
 20
53.960440667825658
 30
0.0
  0
SEQEND
  5
BC4
  8
0
  0
LINE
  5
760
  8
0
 10
83.469132279084391
 20
64.155063731525487
 30
0.0
 11
83.469132279084391
 21
64.922409638554214
 31
0.0
  0
POLYLINE
  5
761
  8
0
 66
     1
 10
0.0
 20
0.0
 30
0.0
  0
VERTEX
  5
BC5
  8
0
 10
83.469132279084391
 20
64.155063731525487
 30
0.0
  0
VERTEX
  5
BC6
  8
0
 10
83.336746473064494
 20
63.999712298491502
 30
0.0
  0
VERTEX
  5
BC7
  8
0
 10
83.21240805398071
 20
63.838747995703038
 30
0.0
  0
VERTEX
  5
BC8
  8
0
 10
83.101196830275995
 20
63.67491165838527
 30
0.0
  0
VERTEX
  5
BC9
  8
0
 10
83.026367470739018
 20
63.54553322132751
 30
0.0
  0
VERTEX
  5
BCA
  8
0
 10
82.966559207028325
 20
63.417934336739179
 30
0.0
  0
VERTEX
  5
BCB
  8
0
 10
82.926062659792706
 20
63.294276778436242
 30
0.0
  0
VERTEX
  5
BCC
  8
0
 10
82.909363587841753
 20
63.181134878598598
 30
0.0
  0
VERTEX
  5
BCD
  8
0
 10
82.916051941143891
 20
63.09734867038712
 30
0.0
  0
VERTEX
  5
BCE
  8
0
 10
82.940904395253057
 20
63.027261904574338
 30
0.0
  0
VERTEX
  5
BCF
  8
0
 10
82.980153696512943
 20
62.974182811366092
 30
0.0
  0
VERTEX
  5
BD0
  8
0
 10
83.031819142502655
 20
62.934460165395251
 30
0.0
  0
VERTEX
  5
BD1
  8
0
 10
83.098165444804025
 20
62.905917426027919
 30
0.0
  0
VERTEX
  5
BD2
  8
0
 10
83.173618281136541
 20
62.890404001931579
 30
0.0
  0
VERTEX
  5
BD3
  8
0
 10
83.241870501358036
 20
62.886535140681119
 30
0.0
  0
SEQEND
  5
BD4
  8
0
  0
LINE
  5
762
  8
0
 10
82.719132279084405
 20
64.250000000000014
 30
0.0
 11
82.910255151176983
 21
64.441122872092606
 31
0.0
  0
LINE
  5
763
  8
0
 10
83.469132279084391
 20
53.000000000000007
 30
0.0
 11
82.719132279084405
 21
53.750000000000007
 31
0.0
  0
LINE
  5
764
  8
0
 10
82.719132279084405
 20
64.250000000000014
 30
0.0
 11
82.719132279084405
 21
53.750000000000007
 31
0.0
  0
LINE
  5
765
  8
0
 10
83.469132279084391
 20
53.000000000000007
 30
0.0
 11
83.469132279084391
 21
53.105799532183688
 31
0.0
  0
POLYLINE
  5
766
  8
0
 66
     1
 10
0.0
 20
0.0
 30
0.0
  0
VERTEX
  5
BD5
  8
0
 10
82.909132279084844
 20
64.440000000000396
 30
0.0
  0
VERTEX
  5
BD6
  8
0
 10
82.915686808508795
 20
64.445373210993509
 30
0.0
  0
VERTEX
  5
BD7
  8
0
 10
82.940896909867575
 20
64.46610001315436
 30
0.0
  0
VERTEX
  5
BD8
  8
0
 10
82.979661950504649
 20
64.498157926174954
 30
0.0
  0
VERTEX
  5
BD9
  8
0
 10
83.031804552571131
 20
64.541635754685117
 30
0.0
  0
VERTEX
  5
BDA
  8
0
 10
83.080023682425136
 20
64.582207538855897
 30
0.0
  0
VERTEX
  5
BDB
  8
0
 10
83.133424854867016
 20
64.627545962655589
 30
0.0
  0
VERTEX
  5
BDC
  8
0
 10
83.255627468708326
 20
64.732916158097979
 30
0.0
  0
VERTEX
  5
BDD
  8
0
 10
83.359284914772175
 20
64.824058589736481
 30
0.0
  0
VERTEX
  5
BDE
  8
0
 10
83.469132279084391
 20
64.922409638554214
 30
0.0
  0
SEQEND
  5
BDF
  8
0
  0
LINE
  5
76C
  8
1
 10
106.9999999999999
 20
59.000000000000021
 30
0.0
 11
78.999999999999943
 21
59.000000000000021
 31
0.0
  0
LINE
  5
778
  8
0
 10
83.469132279084434
 20
95.000000000000014
 30
0.0
 11
89.249999999999943
 21
95.000000000000014
 31
0.0
  0
LINE
  5
77A
  8
0
 10
89.249999999999943
 20
83.000000000000014
 30
0.0
 11
83.469132279084391
 21
83.000000000000014
 31
0.0
  0
POLYLINE
  5
78A
  8
0
 66
     1
 10
0.0
 20
0.0
 30
0.0
  0
VERTEX
  5
BE0
  8
0
 10
82.931430598932295
 20
94.339123558081937
 30
0.0
  0
VERTEX
  5
BE1
  8
0
 10
82.940900805730038
 20
94.339834518045294
 30
0.0
  0
VERTEX
  5
BE2
  8
0
 10
82.980148324493939
 20
94.350743451172576
 30
0.0
  0
VERTEX
  5
BE3
  8
0
 10
83.031812146149633
 20
94.373522374871825
 30
0.0
  0
VERTEX
  5
BE4
  8
0
 10
83.098156023118236
 20
94.40931316652923
 30
0.0
  0
VERTEX
  5
BE5
  8
0
 10
83.173606415564848
 20
94.455210172757546
 30
0.0
  0
VERTEX
  5
BE6
  8
0
 10
83.255642961867551
 20
94.509409374917695
 30
0.0
  0
VERTEX
  5
BE7
  8
0
 10
83.359749155193811
 20
94.5831261854307
 30
0.0
  0
VERTEX
  5
BE8
  8
0
 10
83.469132279084391
 20
94.665419674981521
 30
0.0
  0
SEQEND
  5
BE9
  8
0
  0
POLYLINE
  5
78D
  8
0
 66
     1
 10
0.0
 20
0.0
 30
0.0
  0
VERTEX
  5
BEA
  8
0
 10
82.931393198107315
 20
83.660876492692822
 30
0.0
  0
VERTEX
  5
BEB
  8
0
 10
82.926480762639812
 20
83.660628146237343
 30
0.0
  0
VERTEX
  5
BEC
  8
0
 10
82.909364840517
 20
83.646171374842254
 30
0.0
  0
VERTEX
  5
BED
  8
0
 10
82.915684777063575
 20
83.617661659769993
 30
0.0
  0
VERTEX
  5
BEE
  8
0
 10
82.940893073815332
 20
83.573724344017648
 30
0.0
  0
VERTEX
  5
BEF
  8
0
 10
82.979656216169957
 20
83.521294118525958
 30
0.0
  0
VERTEX
  5
BF0
  8
0
 10
83.031797075430717
 20
83.458635549969969
 30
0.0
  0
VERTEX
  5
BF1
  8
0
 10
83.080014284507058
 20
83.404215104263486
 30
0.0
  0
VERTEX
  5
BF2
  8
0
 10
83.133413522976412
 20
83.346104765816435
 30
0.0
  0
VERTEX
  5
BF3
  8
0
 10
83.255612212999907
 20
83.217773983934137
 30
0.0
  0
VERTEX
  5
BF4
  8
0
 10
83.35927670605723
 20
83.111635719110055
 30
0.0
  0
VERTEX
  5
BF5
  8
0
 10
83.469132279084391
 20
83.000549817856694
 30
0.0
  0
SEQEND
  5
BF6
  8
0
  0
LINE
  5
791
  8
0
 10
88.799999999999926
 20
94.665419674981521
 30
0.0
 11
83.469132279084391
 21
94.665419674981521
 31
0.0
  0
LINE
  5
792
  8
0
 10
88.799999999999926
 20
83.334580325018507
 30
0.0
 11
83.469132279084391
 21
83.334580325018507
 31
0.0
  0
LINE
  5
796
  8
0
 10
82.419383087797698
 20
92.250000000000014
 30
0.0
 11
82.411600274218884
 21
92.250000000000014
 31
0.0
  0
ARC
  5
797
  8
0
 10
96.964155581061164
 20
88.613637251830141
 30
0.0
 40
15.0
 50
161.74434633748541
 51
165.97039266208739
  0
ARC
  5
798
  8
0
 10
96.964155581060766
 20
89.386362748169773
 30
0.0
 40
14.999999999999581
 50
194.02972149457941
 51
198.25565366251459
  0
POLYLINE
  5
799
  8
0
 66
     1
 10
0.0
 20
0.0
 30
0.0
  0
VERTEX
  5
BF7
  8
0
 10
82.411600274126187
 20
85.750000000000014
 30
0.0
  0
VERTEX
  5
BF8
  8
0
 10
82.411600274046435
 20
85.750000000000014
 30
0.0
  0
VERTEX
  5
BF9
  8
0
 10
82.419383087797726
 20
85.750000000000014
 30
0.0
  0
SEQEND
  5
BFA
  8
0
  0
LINE
  5
79A
  8
0
 10
93.699999999999946
 20
93.000000000000014
 30
0.0
 11
93.699999999999946
 21
85.000000000000014
 31
0.0
  0
LINE
  5
79B
  8
0
 10
93.699999999999946
 20
85.000000000000014
 30
0.0
 11
92.949999999999946
 21
84.250000000000014
 31
0.0
  0
LINE
  5
79C
  8
0
 10
92.949999999999946
 20
93.750000000000014
 30
0.0
 11
93.699999999999946
 21
93.000000000000014
 31
0.0
  0
LINE
  5
79D
  8
0
 10
92.949999999999946
 20
93.750000000000014
 30
0.0
 11
92.949999999999946
 21
84.250000000000014
 31
0.0
  0
LINE
  5
79E
  8
0
 10
92.949999999999946
 20
84.250000000000014
 30
0.0
 11
89.999999999999943
 21
84.250000000000014
 31
0.0
  0
LINE
  5
79F
  8
0
 10
89.999999999999943
 20
93.750000000000014
 30
0.0
 11
92.949999999999946
 21
93.750000000000014
 31
0.0
  0
LINE
  5
7A2
  8
0
 10
88.799999999999926
 20
84.456364994727394
 30
0.0
 11
83.469132279084391
 21
84.456364994727394
 31
0.0
  0
POLYLINE
  5
7A4
  8
0
 66
     1
 10
0.0
 20
0.0
 30
0.0
  0
VERTEX
  5
BFB
  8
0
 10
83.409950104074497
 20
85.931890064241514
 30
0.0
  0
VERTEX
  5
BFC
  8
0
 10
83.336746473064494
 20
85.928756570530254
 30
0.0
  0
VERTEX
  5
BFD
  8
0
 10
83.21240805398071
 20
85.90605499912273
 30
0.0
  0
VERTEX
  5
BFE
  8
0
 10
83.101196830275995
 20
85.859084194843064
 30
0.0
  0
VERTEX
  5
BFF
  8
0
 10
83.026367470739018
 20
85.802977047505308
 30
0.0
  0
VERTEX
  5
C00
  8
0
 10
82.966559207028325
 20
85.728370585725784
 30
0.0
  0
VERTEX
  5
C01
  8
0
 10
82.926062659792706
 20
85.632981805687933
 30
0.0
  0
VERTEX
  5
C02
  8
0
 10
82.909363587841753
 20
85.519450069349659
 30
0.0
  0
VERTEX
  5
C03
  8
0
 10
82.916051941143891
 20
85.411075794164034
 30
0.0
  0
VERTEX
  5
C04
  8
0
 10
82.940904395253057
 20
85.295752216273158
 30
0.0
  0
VERTEX
  5
C05
  8
0
 10
82.980153696512943
 20
85.181995639729465
 30
0.0
  0
VERTEX
  5
C06
  8
0
 10
83.031819142502655
 20
85.067633238447328
 30
0.0
  0
VERTEX
  5
C07
  8
0
 10
83.098165444804025
 20
84.946610232460586
 30
0.0
  0
VERTEX
  5
C08
  8
0
 10
83.173618281136541
 20
84.827941949805833
 30
0.0
  0
VERTEX
  5
C09
  8
0
 10
83.255657236402584
 20
84.713093013831198
 30
0.0
  0
VERTEX
  5
C0A
  8
0
 10
83.359756733095281
 20
84.581740206992876
 30
0.0
  0
VERTEX
  5
C0B
  8
0
 10
83.469132279084391
 20
84.456364994727394
 30
0.0
  0
SEQEND
  5
C0C
  8
0
  0
LINE
  5
7A5
  8
0
 10
88.799999999999926
 20
93.543635005272606
 30
0.0
 11
83.469132279084391
 21
93.543635005272606
 31
0.0
  0
LINE
  5
7A7
  8
0
 10
83.409743743638245
 20
92.068109818285805
 30
0.0
 11
83.469132279084391
 21
92.070068065028991
 31
0.0
  0
LINE
  5
7AB
  8
0
 10
88.799999999999926
 20
92.070068065028991
 30
0.0
 11
83.469132279084391
 21
92.070068065028991
 31
0.0
  0
LINE
  5
7AC
  8
0
 10
88.799999999999926
 20
85.929931934971037
 30
0.0
 11
83.469132279084391
 21
85.929931934971037
 31
0.0
  0
LINE
  5
7AD
  8
0
 10
88.799999999999926
 20
88.038197487443469
 30
0.0
 11
83.469132279084391
 21
88.038197487443469
 31
0.0
  0
LINE
  5
7AE
  8
0
 10
88.799999999999926
 20
89.961802512556574
 30
0.0
 11
83.469132279084334
 21
89.961802512556574
 31
0.0
  0
LINE
  5
7AF
  8
0
 10
88.799999999999926
 20
95.000000000000028
 30
0.0
 11
88.799999999999955
 21
83.000000000000014
 31
0.0
  0
LINE
  5
7B2
  8
0
 10
89.999999999999915
 20
94.250000000000014
 30
0.0
 11
89.999999999999957
 21
83.750000000000028
 31
0.0
  0
LINE
  5
7B3
  8
0
 10
89.249999999999929
 20
95.000000000000028
 30
0.0
 11
89.249999999999943
 21
83.000000000000014
 31
0.0
  0
LINE
  5
7B4
  8
0
 10
89.999999999999943
 20
83.750000000000014
 30
0.0
 11
89.249999999999943
 21
83.000000000000014
 31
0.0
  0
LINE
  5
7B5
  8
0
 10
89.249999999999943
 20
95.000000000000014
 30
0.0
 11
89.999999999999943
 21
94.250000000000014
 31
0.0
  0
LINE
  5
7B6
  8
0
 10
82.719132279084405
 20
94.250000000000014
 30
0.0
 11
82.719132279084405
 21
83.750000000000014
 31
0.0
  0
LINE
  5
7B7
  8
0
 10
83.469132279084391
 20
83.334580325018507
 30
0.0
 11
83.469132279084391
 21
84.456364994727394
 31
0.0
  0
POLYLINE
  5
7B8
  8
0
 66
     1
 10
0.0
 20
0.0
 30
0.0
  0
VERTEX
  5
C0D
  8
0
 10
83.469132279084391
 20
83.334580325018507
 30
0.0
  0
VERTEX
  5
C0E
  8
0
 10
83.370871111020378
 20
83.408720150088314
 30
0.0
  0
VERTEX
  5
C0F
  8
0
 10
83.276695225291164
 20
83.476090297780274
 30
0.0
  0
VERTEX
  5
C10
  8
0
 10
83.185005279370159
 20
83.537507909807175
 30
0.0
  0
VERTEX
  5
C11
  8
0
 10
83.101248275922629
 20
83.588913792817564
 30
0.0
  0
VERTEX
  5
C12
  8
0
 10
83.027152110188382
 20
83.628763587611388
 30
0.0
  0
VERTEX
  5
C13
  8
0
 10
82.966584669982751
 20
83.653984902435127
 30
0.0
  0
VERTEX
  5
C14
  8
0
 10
82.931393198107315
 20
83.660876492692822
 30
0.0
  0
SEQEND
  5
C15
  8
0
  0
POLYLINE
  5
7C1
  8
0
 66
     1
 10
0.0
 20
0.0
 30
0.0
  0
VERTEX
  5
C16
  8
0
 10
83.469132279084405
 20
94.999450182143377
 30
0.0
  0
VERTEX
  5
C17
  8
0
 10
83.336753245870341
 20
94.865506465859696
 30
0.0
  0
VERTEX
  5
C18
  8
0
 10
83.21242058120319
 20
94.73746424456013
 30
0.0
  0
VERTEX
  5
C19
  8
0
 10
83.101213138839938
 20
94.619067952658625
 30
0.0
  0
VERTEX
  5
C1A
  8
0
 10
83.026379713958875
 20
94.535072964362897
 30
0.0
  0
VERTEX
  5
C1B
  8
0
 10
82.966567278755775
 20
94.461868666138415
 30
0.0
  0
VERTEX
  5
C1C
  8
0
 10
82.926066603009019
 20
94.402468751156448
 30
0.0
  0
VERTEX
  5
C1D
  8
0
 10
82.909363984608433
 20
94.361247481487695
 30
0.0
  0
VERTEX
  5
C1E
  8
0
 10
82.916050027613835
 20
94.342871424422029
 30
0.0
  0
VERTEX
  5
C1F
  8
0
 10
82.931430598932295
 20
94.339123558081937
 30
0.0
  0
SEQEND
  5
C20
  8
0
  0
LINE
  5
7C2
  8
0
 10
83.469132279084391
 20
93.543635005272606
 30
0.0
 11
83.469132279084391
 21
94.665419674981521
 31
0.0
  0
POLYLINE
  5
7C3
  8
0
 66
     1
 10
0.0
 20
0.0
 30
0.0
  0
VERTEX
  5
C21
  8
0
 10
83.469132279084391
 20
93.543635005272634
 30
0.0
  0
VERTEX
  5
C22
  8
0
 10
83.336747956646207
 20
93.390441424049627
 30
0.0
  0
VERTEX
  5
C23
  8
0
 10
83.212410798058599
 20
93.227982471128669
 30
0.0
  0
VERTEX
  5
C24
  8
0
 10
83.101200402628777
 20
93.058480918016969
 30
0.0
  0
VERTEX
  5
C25
  8
0
 10
83.026370152581222
 20
92.921324604123058
 30
0.0
  0
VERTEX
  5
C26
  8
0
 10
82.966560975107484
 20
92.782708317172137
 30
0.0
  0
VERTEX
  5
C27
  8
0
 10
82.926063523524206
 20
92.644364505091147
 30
0.0
  0
VERTEX
  5
C28
  8
0
 10
82.909363674725682
 20
92.513226005534293
 30
0.0
  0
VERTEX
  5
C29
  8
0
 10
82.916051521954032
 20
92.411893104093707
 30
0.0
  0
VERTEX
  5
C2A
  8
0
 10
82.940903608931777
 20
92.322844793938785
 30
0.0
  0
VERTEX
  5
C2B
  8
0
 10
82.980152519724015
 20
92.250818225095614
 30
0.0
  0
VERTEX
  5
C2C
  8
0
 10
83.031817609891235
 20
92.191839962483087
 30
0.0
  0
VERTEX
  5
C2D
  8
0
 10
83.09816338090522
 20
92.142715244178561
 30
0.0
  0
VERTEX
  5
C2E
  8
0
 10
83.173615681886446
 20
92.106830717566169
 30
0.0
  0
VERTEX
  5
C2F
  8
0
 10
83.255654109451413
 20
92.083221969549015
 30
0.0
  0
VERTEX
  5
C30
  8
0
 10
83.359755073099734
 20
92.069550649976108
 30
0.0
  0
VERTEX
  5
C31
  8
0
 10
83.409743743638245
 20
92.068109818285805
 30
0.0
  0
SEQEND
  5
C32
  8
0
  0
LINE
  5
7C4
  8
0
 10
83.469132279084334
 20
89.961802512556574
 30
0.0
 11
83.469132279084391
 21
92.070068065028991
 31
0.0
  0
POLYLINE
  5
7C5
  8
0
 66
     1
 10
0.0
 20
0.0
 30
0.0
  0
VERTEX
  5
C33
  8
0
 10
83.469132279084334
 20
89.961802512556574
 30
0.0
  0
VERTEX
  5
C34
  8
0
 10
83.370865927950575
 20
89.889340750201271
 30
0.0
  0
VERTEX
  5
C35
  8
0
 10
83.276685368657894
 20
89.806358170791015
 30
0.0
  0
VERTEX
  5
C36
  8
0
 10
83.184990971563536
 20
89.708851575511076
 30
0.0
  0
VERTEX
  5
C37
  8
0
 10
83.101230841906116
 20
89.598944279382536
 30
0.0
  0
VERTEX
  5
C38
  8
0
 10
83.027138979128296
 20
89.474339755797772
 30
0.0
  0
VERTEX
  5
C39
  8
0
 10
82.966576040858769
 20
89.333628076222709
 30
0.0
  0
VERTEX
  5
C3A
  8
0
 10
82.926476454415393
 20
89.184268965493985
 30
0.0
  0
VERTEX
  5
C3B
  8
0
 10
82.909364415657308
 20
89.021363885406558
 30
0.0
  0
VERTEX
  5
C3C
  8
0
 10
82.915686808508795
 20
88.886567927868825
 30
0.0
  0
VERTEX
  5
C3D
  8
0
 10
82.940896909867575
 20
88.751084711430266
 30
0.0
  0
VERTEX
  5
C3E
  8
0
 10
82.979661950504649
 20
88.630951658392874
 30
0.0
  0
VERTEX
  5
C3F
  8
0
 10
83.031804552571131
 20
88.516682315020645
 30
0.0
  0
VERTEX
  5
C40
  8
0
 10
83.080023682425136
 20
88.433371376583622
 30
0.0
  0
VERTEX
  5
C41
  8
0
 10
83.133424854867016
 20
88.355844100962386
 30
0.0
  0
VERTEX
  5
C42
  8
0
 10
83.255627468708326
 20
88.214379924034375
 30
0.0
  0
VERTEX
  5
C43
  8
0
 10
83.359284914772175
 20
88.120091132547188
 30
0.0
  0
VERTEX
  5
C44
  8
0
 10
83.469132279084391
 20
88.038197487443469
 30
0.0
  0
SEQEND
  5
C45
  8
0
  0
LINE
  5
7C6
  8
0
 10
83.469132279084391
 20
85.929931934971037
 30
0.0
 11
83.469132279084391
 21
88.038197487443469
 31
0.0
  0
LINE
  5
7C7
  8
0
 10
83.469132279084391
 20
85.929931934971037
 30
0.0
 11
83.409950104074497
 21
85.931890064241514
 31
0.0
  0
LINE
  5
7C8
  8
0
 10
82.719132279084405
 20
94.250000000000014
 30
0.0
 11
83.469132279084434
 21
95.000000000000057
 31
0.0
  0
LINE
  5
7C9
  8
0
 10
83.469132279084434
 20
82.999999999999972
 30
0.0
 11
82.719132279084405
 21
83.750000000000014
 31
0.0
  0
LINE
  5
7D0
  8
1
 10
106.9999999999999
 20
89.000000000000014
 30
0.0
 11
78.999999999999943
 21
89.000000000000014
 31
0.0
  0
LINE
  5
83E
  8
0
 10
82.419383087797726
 20
59.450000000000017
 30
0.0
 11
82.41938308779774
 21
58.550000000000011
 31
0.0
  0
ARC
  5
83F
  8
0
 10
49.999999999999972
 20
65.642520713307562
 30
0.0
 40
1.201509064943949
 50
216.82256172997469
 51
323.17743827002482
  0
ARC
  5
845
  8
0
 10
45.730269988399677
 20
64.088466080731962
 30
0.0
 40
1.201509064943949
 50
256.82256172997461
 51
3.1774382700248349
  0
ARC
  5
846
  8
0
 10
43.458394101990542
 20
60.153461616980721
 30
0.0
 40
1.201509064943949
 50
296.82256172997421
 51
43.177438270024993
  0
ARC
  5
847
  8
0
 10
44.247408317111301
 20
55.678739643346248
 30
0.0
 40
1.201509064943949
 50
336.82256172997438
 51
83.17743827002468
  0
ARC
  5
848
  8
0
 10
47.728124113590809
 20
52.758072302287388
 30
0.0
 40
1.2015090649439479
 50
16.822561729974002
 51
123.17743827002469
  0
ARC
  5
849
  8
0
 10
52.271875886409127
 20
52.758072302287367
 30
0.0
 40
1.2015090649439479
 50
56.822561729974247
 51
163.17743827002471
  0
ARC
  5
84A
  8
0
 10
55.752591682888628
 20
55.678739643346248
 30
0.0
 40
1.2015090649439479
 50
96.822561729974481
 51
203.17743827002471
  0
ARC
  5
84B
  8
0
 10
56.541605898009422
 20
60.153461616980692
 30
0.0
 40
1.2015090649439479
 50
136.82256172997469
 51
243.17743827002471
  0
ARC
  5
84C
  8
0
 10
54.269730011600267
 20
64.088466080731976
 30
0.0
 40
1.201509064943947
 50
176.82256172997469
 51
283.17743827002448
  0
ARC
  5
89F
  8
0
 10
94.802593245615967
 20
89.000000000000028
 30
0.0
 40
12.80259324561602
 50
165.29426156005491
 51
194.70573843994521
  0
LINE
  5
8E9
  8
0
 10
82.379369514714597
 20
58.350000000000001
 30
0.0
 11
82.000000400957006
 21
58.34999421055339
 31
0.0
  0
LINE
  5
A56
  8
0
 10
103.9999999999999
 20
60.570500000000017
 30
0.0
 11
103.5704999999999
 21
61.000000000000007
 31
0.0
  0
LINE
  5
A57
  8
0
 10
103.5704999999999
 20
57.000000000000007
 30
0.0
 11
103.9999999999999
 21
57.429500000000012
 31
0.0
  0
LINE
  5
A58
  8
0
 10
103.9999999999999
 20
57.429500000000012
 30
0.0
 11
103.9999999999999
 21
60.570500000000017
 31
0.0
  0
LINE
  5
A59
  8
0
 10
103.5704999999999
 20
61.000000000000007
 30
0.0
 11
93.999999999999943
 21
61.000000000000007
 31
0.0
  0
LINE
  5
A5A
  8
0
 10
93.999999999999943
 20
57.000000000000007
 30
0.0
 11
103.5704999999999
 21
57.000000000000007
 31
0.0
  0
LINE
  5
A5B
  8
0
 10
103.5704999999999
 20
57.000000000000007
 30
0.0
 11
103.5704999999999
 21
61.000000000000007
 31
0.0
  0
LINE
  5
A5C
  8
3
 10
103.9999999999999
 20
57.429500000000012
 30
0.0
 11
94.499999999999929
 21
57.429500000000012
 31
0.0
  0
LINE
  5
A5D
  8
3
 10
93.999999999999943
 20
57.000000000000007
 30
0.0
 11
94.499999999999929
 21
57.429500000000012
 31
0.0
  0
LINE
  5
A5E
  8
0
 10
94.499999999999929
 20
57.000000000000007
 30
0.0
 11
94.499999999999929
 21
61.000000000000007
 31
0.0
  0
LINE
  5
A5F
  8
3
 10
103.9999999999999
 20
60.570500000000017
 30
0.0
 11
94.499999999999929
 21
60.570500000000017
 31
0.0
  0
LINE
  5
A60
  8
3
 10
93.999999999999943
 20
61.000000000000007
 30
0.0
 11
94.499999999999929
 21
60.570500000000017
 31
0.0
  0
LINE
  5
A69
  8
0
 10
93.699999999999946
 20
56.33333333333335
 30
0.0
 11
93.999999999999943
 21
56.33333333333335
 31
0.0
  0
LINE
  5
A6A
  8
0
 10
93.999999999999943
 20
61.666666666666671
 30
0.0
 11
93.699999999999946
 21
61.666666666666671
 31
0.0
  0
LINE
  5
A6B
  8
0
 10
93.999999999999943
 20
61.666666666666671
 30
0.0
 11
93.999999999999943
 21
56.33333333333335
 31
0.0
  0
LINE
  5
A72
  8
0
 10
103.9999999999999
 20
90.570500000000024
 30
0.0
 11
103.5704999999999
 21
91.000000000000014
 31
0.0
  0
LINE
  5
A73
  8
0
 10
103.5704999999999
 20
87.000000000000014
 30
0.0
 11
103.9999999999999
 21
87.429500000000019
 31
0.0
  0
LINE
  5
A74
  8
0
 10
103.9999999999999
 20
87.429500000000019
 30
0.0
 11
103.9999999999999
 21
90.570500000000024
 31
0.0
  0
LINE
  5
A75
  8
0
 10
103.5704999999999
 20
91.000000000000014
 30
0.0
 11
93.999999999999943
 21
91.000000000000014
 31
0.0
  0
LINE
  5
A76
  8
0
 10
93.999999999999943
 20
87.000000000000014
 30
0.0
 11
103.5704999999999
 21
87.000000000000014
 31
0.0
  0
LINE
  5
A77
  8
0
 10
103.5704999999999
 20
87.000000000000014
 30
0.0
 11
103.5704999999999
 21
91.000000000000014
 31
0.0
  0
LINE
  5
A78
  8
3
 10
103.9999999999999
 20
87.429500000000019
 30
0.0
 11
94.499999999999929
 21
87.429500000000019
 31
0.0
  0
LINE
  5
A79
  8
3
 10
93.999999999999943
 20
87.000000000000014
 30
0.0
 11
94.499999999999929
 21
87.429500000000019
 31
0.0
  0
LINE
  5
A7A
  8
0
 10
94.499999999999929
 20
87.000000000000014
 30
0.0
 11
94.499999999999929
 21
91.000000000000014
 31
0.0
  0
LINE
  5
A7B
  8
3
 10
103.9999999999999
 20
90.570500000000024
 30
0.0
 11
94.499999999999929
 21
90.570500000000024
 31
0.0
  0
LINE
  5
A7C
  8
3
 10
93.999999999999943
 20
91.000000000000014
 30
0.0
 11
94.499999999999929
 21
90.570500000000024
 31
0.0
  0
LINE
  5
A7D
  8
0
 10
93.699999999999946
 20
86.333333333333343
 30
0.0
 11
93.999999999999943
 21
86.333333333333343
 31
0.0
  0
LINE
  5
A7E
  8
0
 10
93.999999999999943
 20
91.666666666666686
 30
0.0
 11
93.699999999999946
 21
91.666666666666686
 31
0.0
  0
LINE
  5
A7F
  8
0
 10
93.999999999999943
 20
91.666666666666686
 30
0.0
 11
93.999999999999943
 21
86.333333333333343
 31
0.0
  0
ENDSEC
  0
EOF
