  0
SECTION
  2
HEADER
  9
$ACADVER
  1
AC1009
  9
$INSBASE
 10
0.0
 20
0.0
 30
0.0
  9
$EXTMIN
 10
0.0
 20
-2.960436562073669
 30
0.0
  9
$EXTMAX
 10
116.5000000000007
 20
109.01000000000001
 30
0.0
  9
$LIMMIN
 10
0.0
 20
0.0
  9
$LIMMAX
 10
187.5
 20
135.0
  9
$ORTHOMODE
 70
     1
  9
$REGENMODE
 70
     1
  9
$FILLMODE
 70
     1
  9
$QTEXTMODE
 70
     0
  9
$MIRRTEXT
 70
     0
  9
$DRAGMODE
 70
     2
  9
$LTSCALE
 40
5.0
  9
$OSMODE
 70
    37
  9
$ATTMODE
 70
     1
  9
$TEXTSIZE
 40
4.000000000000048
  9
$TRACEWID
 40
0.05
  9
$TEXTSTYLE
  7
STANDARD
  9
$CLAYER
  8
0
  9
$CELTYPE
  6
BYLAYER
  9
$CECOLOR
 62
   256
  9
$DIMSCALE
 40
0.5
  9
$DIMASZ
 40
3.0
  9
$DIMEXO
 40
2.0
  9
$DIMDLI
 40
0.38
  9
$DIMRND
 40
0.0
  9
$DIMDLE
 40
0.0
  9
$DIMEXE
 40
2.0
  9
$DIMTP
 40
0.0
  9
$DIMTM
 40
0.0
  9
$DIMTXT
 40
3.2000000000000002
  9
$DIMCEN
 40
0.09
  9
$DIMTSZ
 40
0.0
  9
$DIMTOL
 70
     0
  9
$DIMLIM
 70
     0
  9
$DIMTIH
 70
     0
  9
$DIMTOH
 70
     0
  9
$DIMSE1
 70
     0
  9
$DIMSE2
 70
     0
  9
$DIMTAD
 70
     1
  9
$DIMZIN
 70
     0
  9
$DIMBLK
  1

  9
$DIMASO
 70
     1
  9
$DIMSHO
 70
     0
  9
$DIMPOST
  1

  9
$DIMAPOST
  1

  9
$DIMALT
 70
     0
  9
$DIMALTD
 70
     2
  9
$DIMALTF
 40
25.399999999999999
  9
$DIMLFAC
 40
1.0
  9
$DIMTOFL
 70
     0
  9
$DIMTVP
 40
1.6000000000000001
  9
$DIMTIX
 70
     1
  9
$DIMSOXD
 70
     0
  9
$DIMSAH
 70
     0
  9
$DIMBLK1
  1

  9
$DIMBLK2
  1

  9
$DIMSTYLE
  2
STANDARD
  9
$DIMCLRD
 70
     0
  9
$DIMCLRE
 70
     0
  9
$DIMCLRT
 70
     0
  9
$DIMTFAC
 40
1.0
  9
$DIMGAP
 40
0.09
  9
$LUNITS
 70
     2
  9
$LUPREC
 70
     4
  9
$SKETCHINC
 40
0.1
  9
$FILLETRAD
 40
1.8999999999999999
  9
$AUNITS
 70
     0
  9
$AUPREC
 70
     0
  9
$MENU
  1
E:\r13\win\SUPPORT\ACAD
  9
$ELEVATION
 40
0.0
  9
$PELEVATION
 40
0.0
  9
$THICKNESS
 40
0.0
  9
$LIMCHECK
 70
     0
  9
$BLIPMODE
 70
     0
  9
$CHAMFERA
 40
0.0
  9
$CHAMFERB
 40
0.0
  9
$SKPOLY
 70
     0
  9
$TDCREATE
 40
2449839.7834143522
  9
$TDUPDATE
 40
2459429.574359885
  9
$TDINDWG
 40
0.1228310648
  9
$TDUSRTIMER
 40
0.1228310764
  9
$USRTIMER
 70
     1
  9
$ANGBASE
 50
0.0
  9
$ANGDIR
 70
     0
  9
$PDMODE
 70
     0
  9
$PDSIZE
 40
0.0
  9
$PLINEWID
 40
0.0
  9
$COORDS
 70
     1
  9
$SPLFRAME
 70
     0
  9
$SPLINETYPE
 70
     6
  9
$SPLINESEGS
 70
     8
  9
$ATTDIA
 70
     0
  9
$ATTREQ
 70
     1
  9
$HANDLING
 70
     1
  9
$HANDSEED
  5
E13
  9
$SURFTAB1
 70
     6
  9
$SURFTAB2
 70
     6
  9
$SURFTYPE
 70
     6
  9
$SURFU
 70
     6
  9
$SURFV
 70
     6
  9
$UCSNAME
  2

  9
$UCSORG
 10
0.0
 20
0.0
 30
0.0
  9
$UCSXDIR
 10
1.0
 20
0.0
 30
0.0
  9
$UCSYDIR
 10
0.0
 20
1.0
 30
0.0
  9
$PUCSNAME
  2

  9
$PUCSORG
 10
0.0
 20
0.0
 30
0.0
  9
$PUCSXDIR
 10
1.0
 20
0.0
 30
0.0
  9
$PUCSYDIR
 10
0.0
 20
1.0
 30
0.0
  9
$USERI1
 70
     0
  9
$USERI2
 70
     1
  9
$USERI3
 70
     1
  9
$USERI4
 70
     0
  9
$USERI5
 70
     0
  9
$USERR1
 40
0.0
  9
$USERR2
 40
0.0
  9
$USERR3
 40
0.0
  9
$USERR4
 40
0.0
  9
$USERR5
 40
0.0
  9
$WORLDVIEW
 70
     1
  9
$SHADEDGE
 70
     3
  9
$SHADEDIF
 70
    70
  9
$TILEMODE
 70
     1
  9
$MAXACTVP
 70
    16
  9
$PLIMCHECK
 70
     0
  9
$PEXTMIN
 10
1.0000000000000000E+020
 20
1.0000000000000000E+020
 30
1.0000000000000000E+020
  9
$PEXTMAX
 10
-1.0000000000000000E+020
 20
-1.0000000000000000E+020
 30
-1.0000000000000000E+020
  9
$PLIMMIN
 10
0.0
 20
0.0
  9
$PLIMMAX
 10
12.0
 20
9.0
  9
$UNITMODE
 70
     0
  9
$VISRETAIN
 70
     0
  9
$PLINEGEN
 70
     0
  9
$PSLTSCALE
 70
     0
  0
ENDSEC
  0
SECTION
  2
TABLES
  0
TABLE
  2
VPORT
 70
     1
  0
VPORT
  2
*ACTIVE
 70
     0
 10
0.0
 20
0.0
 11
1.0
 21
1.0
 12
113.3857706926442
 22
53.022406125921378
 13
0.0
 23
0.0
 14
5.0
 24
5.0
 15
5.0
 25
5.0
 16
0.0
 26
0.0
 36
1.0
 17
0.0
 27
0.0
 37
0.0
 40
112.95857084355841
 41
2.3805970149253728
 42
50.0
 43
0.0
 44
0.0
 50
0.0
 51
0.0
 71
     0
 72
   500
 73
     1
 74
     0
 75
     0
 76
     0
 77
     0
 78
     2
  0
ENDTAB
  0
TABLE
  2
LTYPE
 70
     4
  0
LTYPE
  2
CONTINUOUS
 70
     0
  3
Solid Line
 72
    65
 73
     0
 40
0.0
  0
LTYPE
  2
CENTER
 70
     0
  3
____ _ ____ _ ____ _ ____ _ ____ _ ____ _ ____
 72
    65
 73
     4
 40
2.0
 49
1.25
 49
-0.25
 49
0.25
 49
-0.25
  0
LTYPE
  2
HIDDEN
 70
     0
  3
_ _ _ _ _ _ _ _ _ _ _ _ _ _ _ _ _ _ _ _ _ _ _
 72
    65
 73
     2
 40
0.375
 49
0.25
 49
-0.125
  0
LTYPE
  2
PHANTOM2
 70
     0
  3
___ _ _ ___ _ _ ___ _ _ ___ _ _
 72
    65
 73
     6
 40
1.25
 49
0.625
 49
-0.125
 49
0.125
 49
-0.125
 49
0.125
 49
-0.125
  0
ENDTAB
  0
TABLE
  2
LAYER
 70
     4
  0
LAYER
  2
0
 70
     0
 62
     7
  6
CONTINUOUS
  0
LAYER
  2
1
 70
     0
 62
     1
  6
CENTER
  0
LAYER
  2
2
 70
     0
 62
     2
  6
HIDDEN
  0
LAYER
  2
3
 70
     0
 62
     3
  6
CONTINUOUS
  0
ENDTAB
  0
TABLE
  2
STYLE
 70
     2
  0
STYLE
  2
STANDARD
 70
     0
 40
0.0
 41
1.0
 50
0.0
 71
     0
 42
4.000000000000048
  3
TXT
  4
BIGFONT
  0
STYLE
  2
STANDARD1
 70
     0
 40
0.0
 41
1.0
 50
0.0
 71
     0
 42
3.0
  3
txt
  4

  0
ENDTAB
  0
TABLE
  2
VIEW
 70
     1
  0
VIEW
  2
ALL
 70
     0
 40
179.5384664489153
 10
135.0
 20
89.769233224457665
 41
0.0
 11
0.0
 21
0.0
 31
1.0
 12
0.0
 22
0.0
 32
0.0
 42
0.0
 43
0.0
 44
0.0
 50
0.0
 71
     0
  0
ENDTAB
  0
TABLE
  2
UCS
 70
     0
  0
ENDTAB
  0
TABLE
  2
APPID
 70
     5
  0
APPID
  2
ACAD
 70
     0
  0
APPID
  2
GENIUS_GENOREF_13
 70
     0
  0
APPID
  2
ACAD_MLEADERVER
 70
     0
  0
APPID
  2
ACAD_EXEMPT_FROM_CAD_STANDARDS
 70
     0
  0
APPID
  2
ACAD_NAV_VCDISPLAY
 70
     0
  0
ENDTAB
  0
TABLE
  2
DIMSTYLE
 70
     1
  0
DIMSTYLE
  2
STANDARD
 70
     0
  3

  4

  5

  6

  7

 40
1.0
 41
0.18
 42
0.0625
 43
0.38
 44
0.18
 45
0.0
 46
0.0
 47
0.0
 48
0.0
140
0.18
141
0.09
142
0.0
143
25.399999999999999
144
1.0
145
0.0
146
1.0
147
0.09
 71
     0
 72
     0
 73
     1
 74
     1
 75
     0
 76
     0
 77
     0
 78
     0
170
     0
171
     2
172
     0
173
     0
174
     0
175
     0
176
     0
177
     0
178
     0
  0
ENDTAB
  0
ENDSEC
  0
SECTION
  2
BLOCKS
  0
BLOCK
  8
0
  2
$MODEL_SPACE
 70
     0
 10
0.0
 20
0.0
 30
0.0
  3
$MODEL_SPACE
  1

  0
ENDBLK
  5
36C
  8
0
  0
BLOCK
 67
     1
  8
0
  2
$PAPER_SPACE
 70
     0
 10
0.0
 20
0.0
 30
0.0
  3
$PAPER_SPACE
  1

  0
ENDBLK
  5
36A
 67
     1
  8
0
  0
ENDSEC
  0
SECTION
  2
ENTITIES
  0
TEXT
  5
57E
  8
0
 62
     3
 10
0.0
 20
0.0
 30
0.0
 40
10.0
  1
FGK16-M3X6-FS
  7
STANDARD1
  0
LINE
  5
9D6
  8
0
 10
107.5000000000007
 20
59.00000000000005
 30
0.0
 11
107.2000000000007
 21
59.00000000000005
 31
0.0
  0
LINE
  5
9D7
  8
0
 10
107.2000000000007
 20
63.000000000000057
 30
0.0
 11
107.5000000000007
 21
63.000000000000057
 31
0.0
  0
LINE
  5
9D8
  8
0
 10
107.5000000000007
 20
63.000000000000057
 30
0.0
 11
107.5000000000007
 21
59.00000000000005
 31
0.0
  0
LINE
  5
9D9
  8
0
 10
101.1500000000007
 20
68.940370370370417
 30
0.0
 11
95.546301102689569
 21
68.940370370370417
 31
0.0
  0
LINE
  5
9DA
  8
0
 10
101.1500000000007
 20
53.059629629629683
 30
0.0
 11
95.546301102689569
 21
53.059629629629683
 31
0.0
  0
LINE
  5
9DC
  8
2
 10
94.244204310663321
 20
61.750000000000057
 30
0.0
 11
96.546301102689569
 21
61.750000000000057
 31
0.0
  0
LINE
  5
9DD
  8
2
 10
96.546301102689569
 20
61.750000000000057
 30
0.0
 11
96.546301102689569
 21
60.25000000000005
 31
0.0
  0
LINE
  5
9DE
  8
2
 10
94.244204310668437
 20
60.25000000000005
 30
0.0
 11
96.546301102689569
 21
60.25000000000005
 31
0.0
  0
LINE
  5
9E0
  8
0
 10
101.1500000000007
 20
53.635964882685478
 30
0.0
 11
95.546301102689569
 21
53.635964882685478
 31
0.0
  0
POLYLINE
  5
9E2
  8
0
 66
     1
 10
0.0
 20
0.0
 30
0.0
  0
VERTEX
  5
D00
  8
0
 10
95.170964547002683
 20
54.71754043094915
 30
0.0
  0
VERTEX
  5
D01
  8
0
 10
95.105381058017883
 20
54.710815507005599
 30
0.0
  0
VERTEX
  5
D02
  8
0
 10
95.044787344529723
 20
54.685313586031839
 30
0.0
  0
VERTEX
  5
D03
  8
0
 10
95.003750175428337
 20
54.637939906572427
 30
0.0
  0
VERTEX
  5
D04
  8
0
 10
94.986596096925183
 20
54.568896064150287
 30
0.0
  0
VERTEX
  5
D05
  8
0
 10
94.992921493528584
 20
54.493916107055583
 30
0.0
  0
VERTEX
  5
D06
  8
0
 10
95.017529103882325
 20
54.406995146433729
 30
0.0
  0
VERTEX
  5
D07
  8
0
 10
95.056777594652914
 20
54.315194071716327
 30
0.0
  0
VERTEX
  5
D08
  8
0
 10
95.108740483116577
 20
54.217818775538909
 30
0.0
  0
VERTEX
  5
D09
  8
0
 10
95.209896635972513
 20
54.059333031935672
 30
0.0
  0
VERTEX
  5
D0A
  8
0
 10
95.328679655647761
 20
53.897795857050959
 30
0.0
  0
VERTEX
  5
D0B
  8
0
 10
95.434610173256146
 20
53.766195641173383
 30
0.0
  0
VERTEX
  5
D0C
  8
0
 10
95.546301102689569
 20
53.635964882685478
 30
0.0
  0
SEQEND
  5
D0D
  8
0
  0
LINE
  5
9E3
  8
0
 10
101.1500000000007
 20
68.364035117314614
 30
0.0
 11
95.546301102689426
 21
68.364035117314614
 31
0.0
  0
POLYLINE
  5
9E4
  8
0
 66
     1
 10
0.0
 20
0.0
 30
0.0
  0
VERTEX
  5
D0E
  8
0
 10
95.171509885691734
 20
67.282460305841113
 30
0.0
  0
VERTEX
  5
D0F
  8
0
 10
95.209904875531976
 20
67.284315067434832
 30
0.0
  0
VERTEX
  5
D10
  8
0
 10
95.328690642977563
 20
67.30666020527606
 30
0.0
  0
VERTEX
  5
D11
  8
0
 10
95.434616030396654
 20
67.341456541651553
 30
0.0
  0
VERTEX
  5
D12
  8
0
 10
95.546301102689569
 20
67.389089795081475
 30
0.0
  0
SEQEND
  5
D13
  8
0
  0
LINE
  5
9E5
  8
0
 10
107.2000000000007
 20
56.250000000000057
 30
0.0
 11
106.4500000000007
 21
55.500000000000057
 31
0.0
  0
LINE
  5
9E6
  8
0
 10
106.4500000000007
 20
66.500000000000057
 30
0.0
 11
107.2000000000007
 21
65.750000000000057
 31
0.0
  0
LINE
  5
9E7
  8
0
 10
107.2000000000007
 20
65.750000000000057
 30
0.0
 11
107.2000000000007
 21
56.250000000000057
 31
0.0
  0
LINE
  5
9E8
  8
0
 10
106.4500000000007
 20
55.500000000000057
 30
0.0
 11
102.5000000000007
 21
55.500000000000057
 31
0.0
  0
LINE
  5
9E9
  8
0
 10
102.5000000000007
 20
66.500000000000057
 30
0.0
 11
106.4500000000007
 21
66.500000000000057
 31
0.0
  0
LINE
  5
9EA
  8
0
 10
106.4500000000007
 20
66.500000000000057
 30
0.0
 11
106.4500000000007
 21
55.500000000000057
 31
0.0
  0
POLYLINE
  5
9ED
  8
0
 66
     1
 10
0.0
 20
0.0
 30
0.0
  0
VERTEX
  5
D14
  8
0
 10
94.244204310668437
 20
60.25000000000005
 30
0.0
  0
VERTEX
  5
D15
  8
0
 10
94.255901391969545
 20
60.261437177249149
 30
0.0
  0
VERTEX
  5
D16
  8
0
 10
94.265798412036887
 20
60.294768636495689
 30
0.0
  0
VERTEX
  5
D17
  8
0
 10
94.272583372285197
 20
60.345873413104329
 30
0.0
  0
VERTEX
  5
D18
  8
0
 10
94.275469913557544
 20
60.408138122900212
 30
0.0
  0
VERTEX
  5
D19
  8
0
 10
94.275172139109586
 20
60.450000000000053
 30
0.0
  0
SEQEND
  5
D1A
  8
0
  0
POLYLINE
  5
9EF
  8
0
 66
     1
 10
0.0
 20
0.0
 30
0.0
  0
VERTEX
  5
D1B
  8
0
 10
94.275172139109543
 20
61.550000000000047
 30
0.0
  0
VERTEX
  5
D1C
  8
0
 10
94.274905195735045
 20
61.615055973567117
 30
0.0
  0
VERTEX
  5
D1D
  8
0
 10
94.270691797610624
 20
61.673079979187762
 30
0.0
  0
VERTEX
  5
D1E
  8
0
 10
94.263018578219686
 20
61.717688531273168
 30
0.0
  0
VERTEX
  5
D1F
  8
0
 10
94.252664795702913
 20
61.744175842601578
 30
0.0
  0
VERTEX
  5
D20
  8
0
 10
94.244204310663321
 20
61.750000000000057
 30
0.0
  0
SEQEND
  5
D21
  8
0
  0
LINE
  5
9F0
  8
0
 10
94.244204310663321
 20
61.750000000000057
 30
0.0
 11
94.000000994450886
 21
61.750000000000057
 31
0.0
  0
LINE
  5
9F1
  8
0
 10
94.000000000000711
 20
59.82233736216395
 30
0.0
 11
94.000000000000711
 21
60.246451458314809
 31
0.0
  0
LINE
  5
9F2
  8
0
 10
94.000000000000711
 20
61.753565047438421
 30
0.0
 11
94.000000000000711
 21
62.17766263783615
 31
0.0
  0
ARC
  5
9F4
  8
0
 10
109.0000000000006
 20
59.82233736216395
 30
0.0
 40
14.999999999999959
 50
180.0
 51
198.75300674478649
  0
ARC
  5
9F6
  8
0
 10
109.0000000000007
 20
62.17766263783615
 30
0.0
 40
15.000000000000011
 50
161.24699325521269
 51
180.0
  0
LINE
  5
9F7
  8
0
 10
94.000001058593938
 20
60.25000000000005
 30
0.0
 11
94.244204310668437
 21
60.25000000000005
 31
0.0
  0
LINE
  5
9F8
  8
0
 10
101.1500000000007
 20
67.389089795081475
 30
0.0
 11
95.546301102689569
 21
67.389089795081475
 31
0.0
  0
LINE
  5
9F9
  8
0
 10
101.1500000000007
 20
54.610910204918632
 30
0.0
 11
95.546301102689483
 21
54.610910204918632
 31
0.0
  0
LINE
  5
9FD
  8
0
 10
101.1500000000007
 20
65.814512601539946
 30
0.0
 11
95.546301102689497
 21
65.814512601539946
 31
0.0
  0
LINE
  5
9FE
  8
0
 10
101.1500000000007
 20
56.185487398460161
 30
0.0
 11
95.546301102689569
 21
56.185487398460161
 31
0.0
  0
LINE
  5
9FF
  8
0
 10
101.1500000000007
 20
57.874142231169571
 30
0.0
 11
95.546301102689569
 21
57.874142231169571
 31
0.0
  0
LINE
  5
A00
  8
0
 10
101.1500000000007
 20
60.025054677766903
 30
0.0
 11
95.546301102689569
 21
60.025054677766903
 31
0.0
  0
LINE
  5
A01
  8
0
 10
101.1500000000007
 20
61.974945322233197
 30
0.0
 11
95.546301102689569
 21
61.974945322233197
 31
0.0
  0
LINE
  5
A02
  8
0
 10
101.1500000000007
 20
64.125857768830514
 30
0.0
 11
95.546301102689569
 21
64.125857768830514
 31
0.0
  0
LINE
  5
A03
  8
0
 10
101.7500000000007
 20
53.0
 30
0.0
 11
101.1500000000007
 21
53.0
 31
0.0
  0
LINE
  5
A04
  8
0
 10
101.1500000000007
 20
69.0
 30
0.0
 11
101.7500000000007
 21
69.0
 31
0.0
  0
LINE
  5
A05
  8
0
 10
101.1500000000007
 20
69.0
 30
0.0
 11
101.1500000000007
 21
53.0
 31
0.0
  0
LINE
  5
A06
  8
0
 10
102.5000000000007
 20
53.75
 30
0.0
 11
101.7500000000007
 21
53.0
 31
0.0
  0
LINE
  5
A07
  8
0
 10
101.7500000000007
 20
69.0
 30
0.0
 11
102.5000000000007
 21
68.25
 31
0.0
  0
LINE
  5
A08
  8
0
 10
102.5000000000007
 20
68.249999999999986
 30
0.0
 11
102.5000000000007
 21
53.750000000000007
 31
0.0
  0
LINE
  5
A09
  8
0
 10
101.7500000000007
 20
69.0
 30
0.0
 11
101.7500000000007
 21
53.000000000000007
 31
0.0
  0
LINE
  5
A0A
  8
0
 10
95.546301102689569
 20
61.974945322233197
 30
0.0
 11
95.546301102689569
 21
64.125857768830514
 31
0.0
  0
POLYLINE
  5
A0B
  8
0
 66
     1
 10
0.0
 20
0.0
 30
0.0
  0
VERTEX
  5
D22
  8
0
 10
95.546301102689569
 20
61.974945322233197
 30
0.0
  0
VERTEX
  5
D23
  8
0
 10
95.414822802148777
 20
61.875812316549968
 30
0.0
  0
VERTEX
  5
D24
  8
0
 10
95.291528126483186
 20
61.756232177918747
 30
0.0
  0
VERTEX
  5
D25
  8
0
 10
95.181339981691849
 20
61.615964413013671
 30
0.0
  0
VERTEX
  5
D26
  8
0
 10
95.105394685027974
 20
61.487148914339031
 30
0.0
  0
VERTEX
  5
D27
  8
0
 10
95.044796342084538
 20
61.344685626871481
 30
0.0
  0
VERTEX
  5
D28
  8
0
 10
95.003754605812645
 20
61.1884068867111
 30
0.0
  0
VERTEX
  5
D29
  8
0
 10
94.986596594834424
 20
61.024710951924241
 30
0.0
  0
VERTEX
  5
D2A
  8
0
 10
94.992919398106594
 20
60.884180008913603
 30
0.0
  0
VERTEX
  5
D2B
  8
0
 10
95.017525081036254
 20
60.747138381114219
 30
0.0
  0
VERTEX
  5
D2C
  8
0
 10
95.056771558147645
 20
60.622475140773801
 30
0.0
  0
VERTEX
  5
D2D
  8
0
 10
95.108732613168314
 20
60.506230362100922
 30
0.0
  0
VERTEX
  5
D2E
  8
0
 10
95.209884796076139
 20
60.34366344515152
 30
0.0
  0
VERTEX
  5
D2F
  8
0
 10
95.328663867282629
 20
60.204469139384422
 30
0.0
  0
VERTEX
  5
D30
  8
0
 10
95.434601756716489
 20
60.107656862458178
 30
0.0
  0
VERTEX
  5
D31
  8
0
 10
95.546301102689569
 20
60.025054677766903
 30
0.0
  0
SEQEND
  5
D32
  8
0
  0
LINE
  5
A0C
  8
0
 10
95.546301102689569
 20
57.874142231169571
 30
0.0
 11
95.546301102689569
 21
60.025054677766903
 31
0.0
  0
POLYLINE
  5
A0D
  8
0
 66
     1
 10
0.0
 20
0.0
 30
0.0
  0
VERTEX
  5
D33
  8
0
 10
95.546301102689569
 20
57.874142231169571
 30
0.0
  0
VERTEX
  5
D34
  8
0
 10
95.414810008436874
 20
57.848635976395371
 30
0.0
  0
VERTEX
  5
D35
  8
0
 10
95.29150449084662
 20
57.800772068275201
 30
0.0
  0
VERTEX
  5
D36
  8
0
 10
95.181309198536752
 20
57.728339269228172
 30
0.0
  0
VERTEX
  5
D37
  8
0
 10
95.105371575891496
 20
57.650165663552919
 30
0.0
  0
VERTEX
  5
D38
  8
0
 10
95.044781083814343
 20
57.5531904267567
 30
0.0
  0
VERTEX
  5
D39
  8
0
 10
95.003747092778809
 20
57.435612652414378
 30
0.0
  0
VERTEX
  5
D3A
  8
0
 10
94.986595750688792
 20
57.301242860426697
 30
0.0
  0
VERTEX
  5
D3B
  8
0
 10
94.992922951900965
 20
57.176819309816949
 30
0.0
  0
VERTEX
  5
D3C
  8
0
 10
95.017531903503127
 20
57.04751689657737
 30
0.0
  0
VERTEX
  5
D3D
  8
0
 10
95.056781795583305
 20
56.922540903667368
 30
0.0
  0
VERTEX
  5
D3E
  8
0
 10
95.108745959953893
 20
56.799207409867229
 30
0.0
  0
VERTEX
  5
D3F
  8
0
 10
95.209904875531976
 20
56.613845341236569
 30
0.0
  0
VERTEX
  5
D40
  8
0
 10
95.328690642977563
 20
56.440216670501577
 30
0.0
  0
VERTEX
  5
D41
  8
0
 10
95.434616030396654
 20
56.308355732191842
 30
0.0
  0
VERTEX
  5
D42
  8
0
 10
95.546301102689569
 20
56.185487398460161
 30
0.0
  0
SEQEND
  5
D43
  8
0
  0
LINE
  5
A0E
  8
0
 10
95.546301102689483
 20
54.610910204918632
 30
0.0
 11
95.546301102689569
 21
56.185487398460161
 31
0.0
  0
POLYLINE
  5
A0F
  8
0
 66
     1
 10
0.0
 20
0.0
 30
0.0
  0
VERTEX
  5
D44
  8
0
 10
95.546301102689497
 20
54.610910204918632
 30
0.0
  0
VERTEX
  5
D45
  8
0
 10
95.414815258035034
 20
54.665874101136623
 30
0.0
  0
VERTEX
  5
D46
  8
0
 10
95.291514189134745
 20
54.702566423908472
 30
0.0
  0
VERTEX
  5
D47
  8
0
 10
95.181321829506231
 20
54.717398124383692
 30
0.0
  0
VERTEX
  5
D48
  8
0
 10
95.170964547002683
 20
54.71754043094915
 30
0.0
  0
SEQEND
  5
D49
  8
0
  0
LINE
  5
A10
  8
0
 10
95.546301102689569
 20
53.059629629629683
 30
0.0
 11
95.546301102689569
 21
53.635964882685478
 31
0.0
  0
POLYLINE
  5
A11
  8
0
 66
     1
 10
0.0
 20
0.0
 30
0.0
  0
VERTEX
  5
D4A
  8
0
 10
95.546301102689569
 20
53.059629629629669
 30
0.0
  0
VERTEX
  5
D4B
  8
0
 10
95.448686577292946
 20
53.14945949996477
 30
0.0
  0
VERTEX
  5
D4C
  8
0
 10
95.355253902307496
 20
53.234412972994193
 30
0.0
  0
VERTEX
  5
D4D
  8
0
 10
95.264343487044869
 20
53.316097074200528
 30
0.0
  0
VERTEX
  5
D4E
  8
0
 10
95.181339981691849
 20
53.389848455794173
 30
0.0
  0
VERTEX
  5
D4F
  8
0
 10
95.106168484362314
 20
53.45594937335192
 30
0.0
  0
VERTEX
  5
D50
  8
0
 10
95.044796342084538
 20
53.509431084766881
 30
0.0
  0
VERTEX
  5
D51
  8
0
 10
95.004172525318594
 20
53.544592236315637
 30
0.0
  0
VERTEX
  5
D52
  8
0
 10
94.986596594834424
 20
53.559745543377879
 30
0.0
  0
VERTEX
  5
D53
  8
0
 10
94.986301102689737
 20
53.559999999999903
 30
0.0
  0
SEQEND
  5
D54
  8
0
  0
LINE
  5
A12
  8
2
 10
95.11839947310196
 20
54.713439929776968
 30
0.0
 11
95.171509885691734
 21
54.717539694158987
 31
0.0
  0
POLYLINE
  5
A13
  8
2
 66
     1
 10
0.0
 20
0.0
 30
0.0
  0
VERTEX
  5
D55
  8
2
 10
95.196697867509755
 20
67.283285044481843
 30
0.0
  0
VERTEX
  5
D56
  8
2
 10
95.181321829506231
 20
67.282601875616422
 30
0.0
  0
VERTEX
  5
D57
  8
2
 10
95.170964547002683
 20
67.282459569050928
 30
0.0
  0
SEQEND
  5
D58
  8
2
  0
LINE
  5
A14
  8
0
 10
95.546301102689426
 20
68.364035117314614
 30
0.0
 11
95.546301102689569
 21
68.940370370370417
 31
0.0
  0
POLYLINE
  5
A15
  8
0
 66
     1
 10
0.0
 20
0.0
 30
0.0
  0
VERTEX
  5
D59
  8
0
 10
95.546301102689497
 20
68.364035117314558
 30
0.0
  0
VERTEX
  5
D5A
  8
0
 10
95.414810008436831
 20
68.209925405956099
 30
0.0
  0
VERTEX
  5
D5B
  8
0
 10
95.291504490846563
 20
68.053637489949978
 30
0.0
  0
VERTEX
  5
D5C
  8
0
 10
95.181309198536752
 20
67.898520470824138
 30
0.0
  0
VERTEX
  5
D5D
  8
0
 10
95.105371575891496
 20
67.776290031935432
 30
0.0
  0
VERTEX
  5
D5E
  8
0
 10
95.044781083814314
 20
67.659332233274398
 30
0.0
  0
VERTEX
  5
D5F
  8
0
 10
95.003747092778809
 20
67.550432305406886
 30
0.0
  0
VERTEX
  5
D60
  8
0
 10
94.986595750688792
 20
67.455786557151782
 30
0.0
  0
VERTEX
  5
D61
  8
0
 10
94.992922951900965
 20
67.390239777891637
 30
0.0
  0
VERTEX
  5
D62
  8
0
 10
95.017531903503127
 20
67.340123578936314
 30
0.0
  0
VERTEX
  5
D63
  8
0
 10
95.056781795583305
 20
67.307262882811642
 30
0.0
  0
VERTEX
  5
D64
  8
0
 10
95.108745959953893
 20
67.288395171571949
 30
0.0
  0
VERTEX
  5
D65
  8
0
 10
95.171509885691734
 20
67.282460305841113
 30
0.0
  0
SEQEND
  5
D66
  8
0
  0
LINE
  5
A16
  8
0
 10
95.546301102689497
 20
65.814512601539946
 30
0.0
 11
95.546301102689569
 21
67.389089795081475
 31
0.0
  0
POLYLINE
  5
A17
  8
0
 66
     1
 10
0.0
 20
0.0
 30
0.0
  0
VERTEX
  5
D67
  8
0
 10
95.546301102689497
 20
65.814512601539946
 30
0.0
  0
VERTEX
  5
D68
  8
0
 10
95.414815258035034
 20
65.668302814566701
 30
0.0
  0
VERTEX
  5
D69
  8
0
 10
95.291514189134745
 20
65.509028905968108
 30
0.0
  0
VERTEX
  5
D6A
  8
0
 10
95.181321829506231
 20
65.338485354524522
 30
0.0
  0
VERTEX
  5
D6B
  8
0
 10
95.105381058017898
 20
65.193542471279983
 30
0.0
  0
VERTEX
  5
D6C
  8
0
 10
95.044787344529723
 20
65.043764509997104
 30
0.0
  0
VERTEX
  5
D6D
  8
0
 10
95.003750175428337
 20
64.890662911246068
 30
0.0
  0
VERTEX
  5
D6E
  8
0
 10
94.986596096925183
 20
64.741509290052107
 30
0.0
  0
VERTEX
  5
D6F
  8
0
 10
94.992921493528584
 20
64.622530282618825
 30
0.0
  0
VERTEX
  5
D70
  8
0
 10
95.017529103882325
 20
64.514475045673038
 30
0.0
  0
VERTEX
  5
D71
  8
0
 10
95.056777594652914
 20
64.423528055748648
 30
0.0
  0
VERTEX
  5
D72
  8
0
 10
95.108740483116577
 20
64.345520470898478
 30
0.0
  0
VERTEX
  5
D73
  8
0
 10
95.209896635972513
 20
64.24930520095765
 30
0.0
  0
VERTEX
  5
D74
  8
0
 10
95.328679655647761
 20
64.181841016364771
 30
0.0
  0
VERTEX
  5
D75
  8
0
 10
95.434610173256146
 20
64.146041817318434
 30
0.0
  0
VERTEX
  5
D76
  8
0
 10
95.546301102689569
 20
64.125857768830514
 30
0.0
  0
SEQEND
  5
D77
  8
0
  0
LINE
  5
A18
  8
0
 10
94.796301102689554
 20
68.250000000000057
 30
0.0
 11
94.987568068383752
 21
68.441266965694268
 31
0.0
  0
LINE
  5
A19
  8
0
 10
94.987568068383752
 20
53.558733034305831
 30
0.0
 11
94.796301102689554
 21
53.750000000000057
 31
0.0
  0
LINE
  5
A1A
  8
0
 10
94.796301102689554
 20
68.250000000000057
 30
0.0
 11
94.796301102689554
 21
53.750000000000057
 31
0.0
  0
POLYLINE
  5
A1B
  8
0
 66
     1
 10
0.0
 20
0.0
 30
0.0
  0
VERTEX
  5
D78
  8
0
 10
94.986301102689737
 20
68.440000000000197
 30
0.0
  0
VERTEX
  5
D79
  8
0
 10
94.992565612466052
 20
68.445396710043823
 30
0.0
  0
VERTEX
  5
D7A
  8
0
 10
95.017525081036254
 20
68.466943734642584
 30
0.0
  0
VERTEX
  5
D7B
  8
0
 10
95.05627503440374
 20
68.500538683740004
 30
0.0
  0
VERTEX
  5
D7C
  8
0
 10
95.108732613168314
 20
68.546294580479355
 30
0.0
  0
VERTEX
  5
D7D
  8
0
 10
95.208422176755704
 20
68.634126120002861
 30
0.0
  0
VERTEX
  5
D7E
  8
0
 10
95.328663867282629
 20
68.741595497669323
 30
0.0
  0
VERTEX
  5
D7F
  8
0
 10
95.434093168787882
 20
68.837202759143835
 30
0.0
  0
VERTEX
  5
D80
  8
0
 10
95.546301102689569
 20
68.940370370370417
 30
0.0
  0
SEQEND
  5
D81
  8
0
  0
LINE
  5
A21
  8
1
 10
116.5000000000007
 20
61.00000000000005
 30
0.0
 11
91.000000000000696
 21
61.00000000000005
 31
0.0
  0
LINE
  5
A32
  8
0
 10
107.5000000000007
 20
103.0
 30
0.0
 11
107.5000000000007
 21
99.000000000000057
 31
0.0
  0
LINE
  5
A33
  8
0
 10
107.5000000000007
 20
99.000000000000057
 30
0.0
 11
107.2000000000007
 21
99.000000000000057
 31
0.0
  0
LINE
  5
A34
  8
0
 10
107.2000000000007
 20
103.0
 30
0.0
 11
107.5000000000007
 21
103.0
 31
0.0
  0
LINE
  5
A35
  8
0
 10
101.1500000000007
 20
108.9403703703704
 30
0.0
 11
95.546301102689569
 21
108.9403703703704
 31
0.0
  0
LINE
  5
A36
  8
0
 10
101.1500000000007
 20
93.059629629629683
 30
0.0
 11
95.546301102689569
 21
93.059629629629683
 31
0.0
  0
LINE
  5
A37
  8
0
 10
101.1500000000007
 20
108.3640351173146
 30
0.0
 11
95.546301102689455
 21
108.3640351173146
 31
0.0
  0
POLYLINE
  5
A38
  8
0
 66
     1
 10
0.0
 20
0.0
 30
0.0
  0
VERTEX
  5
D82
  8
0
 10
95.171509885691734
 20
107.2824603058411
 30
0.0
  0
VERTEX
  5
D83
  8
0
 10
95.209904875531976
 20
107.2843150674348
 30
0.0
  0
VERTEX
  5
D84
  8
0
 10
95.328690642977563
 20
107.3066602052761
 30
0.0
  0
VERTEX
  5
D85
  8
0
 10
95.434616030396654
 20
107.3414565416515
 30
0.0
  0
VERTEX
  5
D86
  8
0
 10
95.546301102689569
 20
107.3890897950815
 30
0.0
  0
SEQEND
  5
D87
  8
0
  0
LINE
  5
A39
  8
0
 10
101.1500000000007
 20
93.635964882685499
 30
0.0
 11
95.546301102689569
 21
93.635964882685499
 31
0.0
  0
POLYLINE
  5
A3B
  8
0
 66
     1
 10
0.0
 20
0.0
 30
0.0
  0
VERTEX
  5
D88
  8
0
 10
95.170964547002683
 20
94.717540430949157
 30
0.0
  0
VERTEX
  5
D89
  8
0
 10
95.105381058017898
 20
94.710815507005606
 30
0.0
  0
VERTEX
  5
D8A
  8
0
 10
95.044787344529723
 20
94.685313586031839
 30
0.0
  0
VERTEX
  5
D8B
  8
0
 10
95.003750175428337
 20
94.637939906572413
 30
0.0
  0
VERTEX
  5
D8C
  8
0
 10
94.986596096925183
 20
94.568896064150294
 30
0.0
  0
VERTEX
  5
D8D
  8
0
 10
94.992921493528584
 20
94.493916107055597
 30
0.0
  0
VERTEX
  5
D8E
  8
0
 10
95.017529103882325
 20
94.406995146433744
 30
0.0
  0
VERTEX
  5
D8F
  8
0
 10
95.056777594652914
 20
94.315194071716334
 30
0.0
  0
VERTEX
  5
D90
  8
0
 10
95.108740483116577
 20
94.217818775538916
 30
0.0
  0
VERTEX
  5
D91
  8
0
 10
95.209896635972513
 20
94.059333031935665
 30
0.0
  0
VERTEX
  5
D92
  8
0
 10
95.328679655647761
 20
93.897795857050966
 30
0.0
  0
VERTEX
  5
D93
  8
0
 10
95.434610173256146
 20
93.766195641173397
 30
0.0
  0
VERTEX
  5
D94
  8
0
 10
95.546301102689569
 20
93.635964882685499
 30
0.0
  0
SEQEND
  5
D95
  8
0
  0
LINE
  5
A3C
  8
0
 10
106.4500000000007
 20
95.500000000000057
 30
0.0
 11
102.5000000000007
 21
95.500000000000057
 31
0.0
  0
LINE
  5
A3D
  8
0
 10
102.5000000000007
 20
106.5
 30
0.0
 11
106.4500000000007
 21
106.5
 31
0.0
  0
LINE
  5
A3E
  8
0
 10
106.4500000000007
 20
106.5
 30
0.0
 11
106.4500000000007
 21
95.500000000000057
 31
0.0
  0
LINE
  5
A3F
  8
0
 10
107.2000000000007
 20
105.75
 30
0.0
 11
107.2000000000007
 21
96.250000000000071
 31
0.0
  0
LINE
  5
A40
  8
0
 10
107.2000000000007
 20
96.250000000000071
 30
0.0
 11
106.4500000000007
 21
95.500000000000057
 31
0.0
  0
LINE
  5
A41
  8
0
 10
106.4500000000007
 20
106.5
 30
0.0
 11
107.2000000000007
 21
105.75
 31
0.0
  0
LINE
  5
A48
  8
0
 10
94.000000000000711
 20
100.09514332343041
 30
0.0
 11
94.000000000000711
 21
101.9054776623768
 31
0.0
  0
ARC
  5
A49
  8
0
 10
109.0000000000002
 20
99.822337362163836
 30
0.0
 40
14.99999999999952
 50
190.8451797285029
 51
198.7530067447872
  0
ARC
  5
A4A
  8
0
 10
109.0000000000009
 20
102.17766263783599
 30
0.0
 40
15.000000000000281
 50
161.24699325521269
 51
169.1548202714967
  0
LINE
  5
A4E
  8
0
 10
101.1500000000007
 20
107.3890897950815
 30
0.0
 11
95.546301102689569
 21
107.3890897950815
 31
0.0
  0
LINE
  5
A4F
  8
0
 10
101.1500000000007
 20
94.610910204918625
 30
0.0
 11
95.546301102689497
 21
94.610910204918625
 31
0.0
  0
LINE
  5
A53
  8
0
 10
101.1500000000007
 20
105.8145126015399
 30
0.0
 11
95.546301102689455
 21
105.8145126015399
 31
0.0
  0
LINE
  5
A54
  8
0
 10
101.1500000000007
 20
96.185487398460168
 30
0.0
 11
95.546301102689569
 21
96.185487398460168
 31
0.0
  0
LINE
  5
A55
  8
0
 10
101.1500000000007
 20
97.874142231169571
 30
0.0
 11
95.546301102689426
 21
97.874142231169571
 31
0.0
  0
LINE
  5
A56
  8
0
 10
101.1500000000007
 20
104.1258577688305
 30
0.0
 11
95.546301102689569
 21
104.1258577688305
 31
0.0
  0
LINE
  5
A57
  8
0
 10
101.1500000000007
 20
100.0250546777669
 30
0.0
 11
95.546301102689569
 21
100.0250546777669
 31
0.0
  0
LINE
  5
A58
  8
0
 10
101.1500000000007
 20
101.9749453222332
 30
0.0
 11
95.546301102689625
 21
101.9749453222332
 31
0.0
  0
LINE
  5
A59
  8
0
 10
101.1500000000007
 20
109.01000000000001
 30
0.0
 11
101.1500000000007
 21
92.990000000000066
 31
0.0
  0
LINE
  5
A5A
  8
0
 10
101.7500000000007
 20
92.990000000000066
 30
0.0
 11
101.1500000000007
 21
92.990000000000066
 31
0.0
  0
LINE
  5
A5B
  8
0
 10
101.1500000000007
 20
109.01000000000001
 30
0.0
 11
101.7500000000007
 21
109.01000000000001
 31
0.0
  0
LINE
  5
A5C
  8
0
 10
102.5000000000007
 20
108.26000000000001
 30
0.0
 11
102.5000000000007
 21
93.740000000000066
 31
0.0
  0
LINE
  5
A5D
  8
0
 10
101.7500000000007
 20
109.01000000000001
 30
0.0
 11
101.7500000000007
 21
92.990000000000066
 31
0.0
  0
LINE
  5
A5E
  8
0
 10
102.5000000000007
 20
93.740000000000066
 30
0.0
 11
101.7500000000007
 21
92.990000000000066
 31
0.0
  0
LINE
  5
A5F
  8
0
 10
101.7500000000007
 20
109.01000000000001
 30
0.0
 11
102.5000000000007
 21
108.26000000000001
 31
0.0
  0
LINE
  5
A60
  8
0
 10
94.796301102689554
 20
108.25
 30
0.0
 11
94.796301102689554
 21
93.750000000000057
 31
0.0
  0
LINE
  5
A61
  8
0
 10
95.546301102689569
 20
93.059629629629683
 30
0.0
 11
95.546301102689569
 21
93.635964882685499
 31
0.0
  0
POLYLINE
  5
A62
  8
0
 66
     1
 10
0.0
 20
0.0
 30
0.0
  0
VERTEX
  5
D96
  8
0
 10
95.546301102689569
 20
93.059629629629683
 30
0.0
  0
VERTEX
  5
D97
  8
0
 10
95.448686577292904
 20
93.149459499964792
 30
0.0
  0
VERTEX
  5
D98
  8
0
 10
95.355253902307496
 20
93.234412972994207
 30
0.0
  0
VERTEX
  5
D99
  8
0
 10
95.264343487044869
 20
93.316097074200556
 30
0.0
  0
VERTEX
  5
D9A
  8
0
 10
95.181339981691849
 20
93.389848455794194
 30
0.0
  0
VERTEX
  5
D9B
  8
0
 10
95.106168484362314
 20
93.455949373351942
 30
0.0
  0
VERTEX
  5
D9C
  8
0
 10
95.044796342084538
 20
93.509431084766874
 30
0.0
  0
VERTEX
  5
D9D
  8
0
 10
95.004172525318594
 20
93.544592236315651
 30
0.0
  0
VERTEX
  5
D9E
  8
0
 10
94.986596594834424
 20
93.559745543377886
 30
0.0
  0
VERTEX
  5
D9F
  8
0
 10
94.986301102689737
 20
93.559999999999917
 30
0.0
  0
SEQEND
  5
DA0
  8
0
  0
LINE
  5
A63
  8
2
 10
95.118399473102016
 20
94.713439929776996
 30
0.0
 11
95.171509885691734
 21
94.717539694158987
 31
0.0
  0
POLYLINE
  5
A64
  8
2
 66
     1
 10
0.0
 20
0.0
 30
0.0
  0
VERTEX
  5
DA1
  8
2
 10
95.196697867509783
 20
107.2832850444818
 30
0.0
  0
VERTEX
  5
DA2
  8
2
 10
95.181321829506231
 20
107.28260187561639
 30
0.0
  0
VERTEX
  5
DA3
  8
2
 10
95.170964547002683
 20
107.2824595690509
 30
0.0
  0
SEQEND
  5
DA4
  8
2
  0
LINE
  5
A65
  8
0
 10
95.546301102689455
 20
108.3640351173146
 30
0.0
 11
95.546301102689569
 21
108.9403703703704
 31
0.0
  0
POLYLINE
  5
A66
  8
0
 66
     1
 10
0.0
 20
0.0
 30
0.0
  0
VERTEX
  5
DA5
  8
0
 10
95.546301102689497
 20
108.3640351173146
 30
0.0
  0
VERTEX
  5
DA6
  8
0
 10
95.414810008436831
 20
108.2099254059561
 30
0.0
  0
VERTEX
  5
DA7
  8
0
 10
95.291504490846577
 20
108.05363748995001
 30
0.0
  0
VERTEX
  5
DA8
  8
0
 10
95.181309198536752
 20
107.8985204708241
 30
0.0
  0
VERTEX
  5
DA9
  8
0
 10
95.105371575891496
 20
107.7762900319354
 30
0.0
  0
VERTEX
  5
DAA
  8
0
 10
95.044781083814314
 20
107.6593322332744
 30
0.0
  0
VERTEX
  5
DAB
  8
0
 10
95.003747092778809
 20
107.5504323054069
 30
0.0
  0
VERTEX
  5
DAC
  8
0
 10
94.986595750688792
 20
107.4557865571518
 30
0.0
  0
VERTEX
  5
DAD
  8
0
 10
94.992922951900965
 20
107.39023977789159
 30
0.0
  0
VERTEX
  5
DAE
  8
0
 10
95.017531903503127
 20
107.3401235789363
 30
0.0
  0
VERTEX
  5
DAF
  8
0
 10
95.056781795583305
 20
107.3072628828116
 30
0.0
  0
VERTEX
  5
DB0
  8
0
 10
95.108745959953893
 20
107.28839517157191
 30
0.0
  0
VERTEX
  5
DB1
  8
0
 10
95.171509885691734
 20
107.2824603058411
 30
0.0
  0
SEQEND
  5
DB2
  8
0
  0
LINE
  5
A67
  8
0
 10
95.546301102689455
 20
105.8145126015399
 30
0.0
 11
95.546301102689569
 21
107.3890897950815
 31
0.0
  0
POLYLINE
  5
A68
  8
0
 66
     1
 10
0.0
 20
0.0
 30
0.0
  0
VERTEX
  5
DB3
  8
0
 10
95.546301102689455
 20
105.8145126015399
 30
0.0
  0
VERTEX
  5
DB4
  8
0
 10
95.414815258034992
 20
105.6683028145667
 30
0.0
  0
VERTEX
  5
DB5
  8
0
 10
95.291514189134745
 20
105.50902890596809
 30
0.0
  0
VERTEX
  5
DB6
  8
0
 10
95.181321829506231
 20
105.33848535452449
 30
0.0
  0
VERTEX
  5
DB7
  8
0
 10
95.105381058017898
 20
105.19354247128
 30
0.0
  0
VERTEX
  5
DB8
  8
0
 10
95.044787344529723
 20
105.0437645099971
 30
0.0
  0
VERTEX
  5
DB9
  8
0
 10
95.003750175428337
 20
104.890662911246
 30
0.0
  0
VERTEX
  5
DBA
  8
0
 10
94.986596096925183
 20
104.74150929005209
 30
0.0
  0
VERTEX
  5
DBB
  8
0
 10
94.992921493528584
 20
104.6225302826188
 30
0.0
  0
VERTEX
  5
DBC
  8
0
 10
95.017529103882325
 20
104.514475045673
 30
0.0
  0
VERTEX
  5
DBD
  8
0
 10
95.056777594652914
 20
104.4235280557487
 30
0.0
  0
VERTEX
  5
DBE
  8
0
 10
95.108740483116577
 20
104.34552047089851
 30
0.0
  0
VERTEX
  5
DBF
  8
0
 10
95.209896635972513
 20
104.24930520095759
 30
0.0
  0
VERTEX
  5
DC0
  8
0
 10
95.328679655647761
 20
104.1818410163648
 30
0.0
  0
VERTEX
  5
DC1
  8
0
 10
95.434610173256146
 20
104.14604181731841
 30
0.0
  0
VERTEX
  5
DC2
  8
0
 10
95.546301102689569
 20
104.1258577688305
 30
0.0
  0
SEQEND
  5
DC3
  8
0
  0
LINE
  5
A69
  8
0
 10
95.546301102689625
 20
101.9749453222332
 30
0.0
 11
95.546301102689569
 21
104.1258577688305
 31
0.0
  0
POLYLINE
  5
A6A
  8
0
 66
     1
 10
0.0
 20
0.0
 30
0.0
  0
VERTEX
  5
DC4
  8
0
 10
95.546301102689625
 20
101.9749453222332
 30
0.0
  0
VERTEX
  5
DC5
  8
0
 10
95.448686577292946
 20
101.9037466956583
 30
0.0
  0
VERTEX
  5
DC6
  8
0
 10
95.355253902307496
 20
101.8218284204501
 30
0.0
  0
VERTEX
  5
DC7
  8
0
 10
95.264343487044869
 20
101.72516982800509
 30
0.0
  0
VERTEX
  5
DC8
  8
0
 10
95.181339981691849
 20
101.6159644130137
 30
0.0
  0
VERTEX
  5
DC9
  8
0
 10
95.106168484362314
 20
101.48876883191301
 30
0.0
  0
VERTEX
  5
DCA
  8
0
 10
95.044796342084538
 20
101.3446856268715
 30
0.0
  0
VERTEX
  5
DCB
  8
0
 10
95.004172525318594
 20
101.191680029374
 30
0.0
  0
VERTEX
  5
DCC
  8
0
 10
94.986596594834424
 20
101.02471095192421
 30
0.0
  0
VERTEX
  5
DCD
  8
0
 10
94.992565612466052
 20
100.88632071593391
 30
0.0
  0
VERTEX
  5
DCE
  8
0
 10
95.017525081036254
 20
100.7471383811142
 30
0.0
  0
VERTEX
  5
DCF
  8
0
 10
95.05627503440374
 20
100.62366516405341
 30
0.0
  0
VERTEX
  5
DD0
  8
0
 10
95.108732613168314
 20
100.50623036210089
 30
0.0
  0
VERTEX
  5
DD1
  8
0
 10
95.208422176755704
 20
100.3456165210373
 30
0.0
  0
VERTEX
  5
DD2
  8
0
 10
95.328663867282629
 20
100.2044691393844
 30
0.0
  0
VERTEX
  5
DD3
  8
0
 10
95.434093168787882
 20
100.10808263270791
 30
0.0
  0
VERTEX
  5
DD4
  8
0
 10
95.546301102689569
 20
100.0250546777669
 30
0.0
  0
SEQEND
  5
DD5
  8
0
  0
LINE
  5
A6B
  8
0
 10
95.546301102689426
 20
97.874142231169571
 30
0.0
 11
95.546301102689569
 21
100.0250546777669
 31
0.0
  0
POLYLINE
  5
A6C
  8
0
 66
     1
 10
0.0
 20
0.0
 30
0.0
  0
VERTEX
  5
DD6
  8
0
 10
95.546301102689426
 20
97.874142231169571
 30
0.0
  0
VERTEX
  5
DD7
  8
0
 10
95.414810008436831
 20
97.848635976395371
 30
0.0
  0
VERTEX
  5
DD8
  8
0
 10
95.291504490846563
 20
97.800772068275194
 30
0.0
  0
VERTEX
  5
DD9
  8
0
 10
95.181309198536752
 20
97.728339269228172
 30
0.0
  0
VERTEX
  5
DDA
  8
0
 10
95.105371575891496
 20
97.650165663552926
 30
0.0
  0
VERTEX
  5
DDB
  8
0
 10
95.044781083814314
 20
97.553190426756714
 30
0.0
  0
VERTEX
  5
DDC
  8
0
 10
95.003747092778809
 20
97.435612652414392
 30
0.0
  0
VERTEX
  5
DDD
  8
0
 10
94.986595750688792
 20
97.301242860426697
 30
0.0
  0
VERTEX
  5
DDE
  8
0
 10
94.992922951900965
 20
97.176819309816949
 30
0.0
  0
VERTEX
  5
DDF
  8
0
 10
95.017531903503127
 20
97.047516896577378
 30
0.0
  0
VERTEX
  5
DE0
  8
0
 10
95.056781795583305
 20
96.922540903667382
 30
0.0
  0
VERTEX
  5
DE1
  8
0
 10
95.108745959953893
 20
96.79920740986725
 30
0.0
  0
VERTEX
  5
DE2
  8
0
 10
95.209904875531976
 20
96.613845341236569
 30
0.0
  0
VERTEX
  5
DE3
  8
0
 10
95.328690642977563
 20
96.440216670501584
 30
0.0
  0
VERTEX
  5
DE4
  8
0
 10
95.434616030396654
 20
96.308355732191856
 30
0.0
  0
VERTEX
  5
DE5
  8
0
 10
95.546301102689569
 20
96.185487398460168
 30
0.0
  0
SEQEND
  5
DE6
  8
0
  0
LINE
  5
A6D
  8
0
 10
95.546301102689497
 20
94.610910204918625
 30
0.0
 11
95.546301102689569
 21
96.185487398460168
 31
0.0
  0
POLYLINE
  5
A6E
  8
0
 66
     1
 10
0.0
 20
0.0
 30
0.0
  0
VERTEX
  5
DE7
  8
0
 10
95.546301102689497
 20
94.610910204918625
 30
0.0
  0
VERTEX
  5
DE8
  8
0
 10
95.414815258035034
 20
94.665874101136623
 30
0.0
  0
VERTEX
  5
DE9
  8
0
 10
95.291514189134745
 20
94.702566423908465
 30
0.0
  0
VERTEX
  5
DEA
  8
0
 10
95.181321829506231
 20
94.717398124383706
 30
0.0
  0
VERTEX
  5
DEB
  8
0
 10
95.170964547002683
 20
94.717540430949157
 30
0.0
  0
SEQEND
  5
DEC
  8
0
  0
LINE
  5
A6F
  8
0
 10
94.796301102689554
 20
108.25
 30
0.0
 11
94.987568068383752
 21
108.4412669656942
 31
0.0
  0
LINE
  5
A70
  8
0
 10
94.987568068383752
 20
93.558733034305845
 30
0.0
 11
94.796301102689554
 21
93.750000000000057
 31
0.0
  0
POLYLINE
  5
A71
  8
0
 66
     1
 10
0.0
 20
0.0
 30
0.0
  0
VERTEX
  5
DED
  8
0
 10
94.986301102689737
 20
108.4400000000002
 30
0.0
  0
VERTEX
  5
DEE
  8
0
 10
94.992565612466052
 20
108.44539671004379
 30
0.0
  0
VERTEX
  5
DEF
  8
0
 10
95.017525081036254
 20
108.4669437346426
 30
0.0
  0
VERTEX
  5
DF0
  8
0
 10
95.05627503440374
 20
108.50053868374
 30
0.0
  0
VERTEX
  5
DF1
  8
0
 10
95.108732613168314
 20
108.5462945804793
 30
0.0
  0
VERTEX
  5
DF2
  8
0
 10
95.208422176755704
 20
108.6341261200028
 30
0.0
  0
VERTEX
  5
DF3
  8
0
 10
95.328663867282629
 20
108.74159549766929
 30
0.0
  0
VERTEX
  5
DF4
  8
0
 10
95.434093168787882
 20
108.83720275914381
 30
0.0
  0
VERTEX
  5
DF5
  8
0
 10
95.546301102689569
 20
108.9403703703704
 30
0.0
  0
SEQEND
  5
DF6
  8
0
  0
LINE
  5
A77
  8
1
 10
116.5000000000007
 20
101.0
 30
0.0
 11
91.000000000000696
 21
101.0
 31
0.0
  0
CIRCLE
  5
A80
  8
0
 10
50.000000000000711
 20
61.0
 30
0.0
 40
7.25
  0
CIRCLE
  5
A99
  8
0
 10
50.000000000000711
 20
61.0
 30
0.0
 40
5.9999999999999947
  0
POLYLINE
  5
A9A
  8
0
 66
     1
 10
0.0
 20
0.0
 30
0.0
  0
VERTEX
  5
DF7
  8
0
 10
46.200000000000713
 20
60.25
 30
0.0
  0
VERTEX
  5
DF8
  8
0
 10
46.133336202657532
 20
60.261437177249093
 30
0.0
  0
VERTEX
  5
DF9
  8
0
 10
46.073892015382057
 20
60.294768636495647
 30
0.0
  0
VERTEX
  5
DFA
  8
0
 10
46.029243875948168
 20
60.345873413104279
 30
0.0
  0
VERTEX
  5
DFB
  8
0
 10
46.004430106495413
 20
60.408138122900148
 30
0.0
  0
VERTEX
  5
DFC
  8
0
 10
46.000000000000711
 20
60.450000000000003
 30
0.0
  0
SEQEND
  5
DFD
  8
0
  0
LINE
  5
A9B
  8
0
 10
46.000000000000711
 20
60.450000000000003
 30
0.0
 11
46.000000000000711
 21
61.549999999999997
 31
0.0
  0
POLYLINE
  5
A9C
  8
0
 66
     1
 10
0.0
 20
0.0
 30
0.0
  0
VERTEX
  5
DFE
  8
0
 10
46.000000000000711
 20
61.549999999999997
 30
0.0
  0
VERTEX
  5
DFF
  8
0
 10
46.010876441702862
 20
61.615055973567067
 30
0.0
  0
VERTEX
  5
E00
  8
0
 10
46.042356989615989
 20
61.673079979187719
 30
0.0
  0
VERTEX
  5
E01
  8
0
 10
46.091002034517572
 20
61.717688531273119
 30
0.0
  0
VERTEX
  5
E02
  8
0
 10
46.1520860964863
 20
61.744175842601521
 30
0.0
  0
VERTEX
  5
E03
  8
0
 10
46.200000000029149
 20
61.75
 30
0.0
  0
SEQEND
  5
E04
  8
0
  0
LINE
  5
A9D
  8
0
 10
46.200000000029149
 20
61.75
 30
0.0
 11
53.800000000000701
 21
61.75
 31
0.0
  0
POLYLINE
  5
A9E
  8
0
 66
     1
 10
0.0
 20
0.0
 30
0.0
  0
VERTEX
  5
E05
  8
0
 10
53.800000000000701
 20
61.75
 30
0.0
  0
VERTEX
  5
E06
  8
0
 10
53.86666379734389
 20
61.738562822750907
 30
0.0
  0
VERTEX
  5
E07
  8
0
 10
53.926107984619357
 20
61.70523136350436
 30
0.0
  0
VERTEX
  5
E08
  8
0
 10
53.970756124053253
 20
61.654126586895721
 30
0.0
  0
VERTEX
  5
E09
  8
0
 10
53.995569893506008
 20
61.591861877099838
 30
0.0
  0
VERTEX
  5
E0A
  8
0
 10
54.000000000000711
 20
61.549999999999997
 30
0.0
  0
SEQEND
  5
E0B
  8
0
  0
LINE
  5
A9F
  8
0
 10
54.000000000000711
 20
61.549999999999997
 30
0.0
 11
54.000000000000711
 21
60.450000000000003
 31
0.0
  0
POLYLINE
  5
AA0
  8
0
 66
     1
 10
0.0
 20
0.0
 30
0.0
  0
VERTEX
  5
E0C
  8
0
 10
54.000000000000711
 20
60.450000000000003
 30
0.0
  0
VERTEX
  5
E0D
  8
0
 10
53.989123558298559
 20
60.384944026432933
 30
0.0
  0
VERTEX
  5
E0E
  8
0
 10
53.957643010385432
 20
60.326920020812281
 30
0.0
  0
VERTEX
  5
E0F
  8
0
 10
53.908997965483849
 20
60.282311468726881
 30
0.0
  0
VERTEX
  5
E10
  8
0
 10
53.847913903515121
 20
60.255824157398472
 30
0.0
  0
VERTEX
  5
E11
  8
0
 10
53.800000000000701
 20
60.25
 30
0.0
  0
SEQEND
  5
E12
  8
0
  0
LINE
  5
AA1
  8
0
 10
53.800000000000701
 20
60.25
 30
0.0
 11
46.200000000000713
 21
60.25
 31
0.0
  0
LINE
  5
AA3
  8
1
 10
39.000000000000711
 20
61.00000000000005
 30
0.0
 11
61.000000000000711
 21
61.00000000000005
 31
0.0
  0
LINE
  5
AA4
  8
1
 10
50.0
 20
50.0
 30
0.0
 11
50.000000000000007
 21
72.0
 31
0.0
  0
CIRCLE
  5
AA5
  8
0
 10
50.000000000000711
 20
61.0
 30
0.0
 40
8.0
  0
LINE
  5
AAA
  8
0
 10
94.275172139109543
 20
61.550000000000047
 30
0.0
 11
94.275172139109586
 21
60.450000000000053
 31
0.0
  0
ARC
  5
AF9
  8
0
 10
50.000000000000703
 20
69.642817522772873
 30
0.0
 40
1.2016448656997749
 50
215.77271309853509
 51
324.22728690146562
  0
ARC
  5
AFA
  8
0
 10
50.000000000000703
 20
52.357182477227241
 30
0.0
 40
1.2016448656997749
 50
35.772713098534943
 51
144.22728690146491
  0
ARC
  5
AFB
  8
0
 10
45.678591238614288
 20
68.484899534994597
 30
0.0
 40
1.2016448656997749
 50
245.77271309853529
 51
354.22728690146562
  0
ARC
  5
AFC
  8
0
 10
54.321408761387097
 20
53.515100465005503
 30
0.0
 40
1.2016448656997749
 50
65.77271309853478
 51
174.22728690146471
  0
ARC
  5
AFD
  8
0
 10
42.515100465006043
 20
65.321408761386778
 30
0.0
 40
1.2016448656997749
 50
275.77271309853518
 51
24.227286901465689
  0
ARC
  5
AFE
  8
0
 10
57.484899534995137
 20
56.678591238613969
 30
0.0
 40
1.2016448656997749
 50
95.772713098534808
 51
204.22728690146479
  0
ARC
  5
AFF
  8
0
 10
41.357182477227852
 20
61.000000000000007
 30
0.0
 40
1.2016448656997749
 50
305.77271309853512
 51
54.227286901465789
  0
ARC
  5
B00
  8
0
 10
58.642817522773491
 20
61.000000000000028
 30
0.0
 40
1.2016448656997749
 50
125.77271309853469
 51
234.22728690146491
  0
ARC
  5
B01
  8
0
 10
42.515100465005787
 20
56.678591238613677
 30
0.0
 40
1.2016448656997749
 50
335.77271309853518
 51
84.227286901465604
  0
ARC
  5
B02
  8
0
 10
57.484899534994881
 20
65.321408761386493
 30
0.0
 40
1.2016448656997749
 50
155.77271309853469
 51
264.22728690146471
  0
ARC
  5
B03
  8
0
 10
54.321408761387033
 20
68.484899534994241
 30
0.0
 40
1.2016448656997749
 50
185.77271309853521
 51
294.22728690146567
  0
ARC
  5
B04
  8
0
 10
45.67859123861421
 20
53.515100465005141
 30
0.0
 40
1.2016448656997749
 50
5.7727130985348092
 51
114.22728690146469
  0
ARC
  5
B05
  8
0
 10
111.7126391634704
 20
101.8899241453786
 30
0.0
 40
17.712645992261351
 50
169.8872937350435
 51
179.94968843189801
  0
LINE
  5
B0C
  8
0
 10
94.275172139109543
 20
105.0
 30
0.0
 11
94.267912170567499
 21
105.0
 31
0.0
  0
LINE
  5
B0F
  8
0
 10
94.267912170567499
 20
97.000000000000057
 30
0.0
 11
94.275172139109543
 21
97.000000000000057
 31
0.0
  0
ARC
  5
B10
  8
0
 10
111.7126391634704
 20
100.1100758546219
 30
0.0
 40
17.712645992261351
 50
180.05031156810321
 51
190.11270626495829
  0
LINE
  5
C46
  8
0
 10
113.5000000000007
 20
99.806500000000057
 30
0.0
 11
113.1935000000007
 21
99.500000000000057
 31
0.0
  0
LINE
  5
C47
  8
0
 10
113.1935000000007
 20
102.5
 30
0.0
 11
113.5000000000007
 21
102.1935
 31
0.0
  0
LINE
  5
C48
  8
0
 10
113.5000000000007
 20
102.1935
 30
0.0
 11
113.5000000000007
 21
99.806500000000057
 31
0.0
  0
LINE
  5
C49
  8
0
 10
113.1935000000007
 20
99.500000000000057
 30
0.0
 11
107.5000000000007
 21
99.500000000000057
 31
0.0
  0
LINE
  5
C4A
  8
0
 10
107.5000000000007
 20
102.5
 30
0.0
 11
113.1935000000007
 21
102.5
 31
0.0
  0
LINE
  5
C4B
  8
0
 10
113.1935000000007
 20
102.5
 30
0.0
 11
113.1935000000007
 21
99.500000000000057
 31
0.0
  0
LINE
  5
C4C
  8
3
 10
113.5000000000007
 20
102.1935
 30
0.0
 11
108.0000000000007
 21
102.1935
 31
0.0
  0
LINE
  5
C4D
  8
3
 10
107.5000000000007
 20
102.5
 30
0.0
 11
108.0000000000007
 21
102.1935
 31
0.0
  0
LINE
  5
C4E
  8
0
 10
108.0000000000007
 20
102.5
 30
0.0
 11
108.0000000000007
 21
99.500000000000057
 31
0.0
  0
LINE
  5
C4F
  8
3
 10
113.5000000000007
 20
99.806500000000057
 30
0.0
 11
108.0000000000007
 21
99.806500000000057
 31
0.0
  0
LINE
  5
C50
  8
3
 10
107.5000000000007
 20
99.500000000000057
 30
0.0
 11
108.0000000000007
 21
99.806500000000057
 31
0.0
  0
LINE
  5
C62
  8
0
 10
113.5000000000007
 20
59.806500000000057
 30
0.0
 11
113.1935000000007
 21
59.500000000000057
 31
0.0
  0
LINE
  5
C63
  8
0
 10
113.1935000000007
 20
62.500000000000057
 30
0.0
 11
113.5000000000007
 21
62.19350000000005
 31
0.0
  0
LINE
  5
C64
  8
0
 10
113.5000000000007
 20
62.19350000000005
 30
0.0
 11
113.5000000000007
 21
59.806500000000057
 31
0.0
  0
LINE
  5
C65
  8
0
 10
113.1935000000007
 20
59.500000000000057
 30
0.0
 11
107.5000000000007
 21
59.500000000000057
 31
0.0
  0
LINE
  5
C66
  8
0
 10
107.5000000000007
 20
62.500000000000057
 30
0.0
 11
113.1935000000007
 21
62.500000000000057
 31
0.0
  0
LINE
  5
C67
  8
0
 10
113.1935000000007
 20
62.500000000000057
 30
0.0
 11
113.1935000000007
 21
59.500000000000057
 31
0.0
  0
LINE
  5
C68
  8
3
 10
113.5000000000007
 20
62.19350000000005
 30
0.0
 11
108.0000000000007
 21
62.19350000000005
 31
0.0
  0
LINE
  5
C69
  8
3
 10
107.5000000000007
 20
62.500000000000057
 30
0.0
 11
108.0000000000007
 21
62.19350000000005
 31
0.0
  0
LINE
  5
C6A
  8
0
 10
108.0000000000007
 20
62.500000000000057
 30
0.0
 11
108.0000000000007
 21
59.500000000000057
 31
0.0
  0
LINE
  5
C6B
  8
3
 10
113.5000000000007
 20
59.806500000000057
 30
0.0
 11
108.0000000000007
 21
59.806500000000057
 31
0.0
  0
LINE
  5
C6C
  8
3
 10
107.5000000000007
 20
59.500000000000057
 30
0.0
 11
108.0000000000007
 21
59.806500000000057
 31
0.0
  0
ENDSEC
  0
EOF
