  0
SECTION
  2
HEADER
  9
$ACADVER
  1
AC1009
  9
$INSBASE
 10
0.0
 20
0.0
 30
0.0
  9
$EXTMIN
 10
0.0
 20
-2.960436562073669
 30
0.0
  9
$EXTMAX
 10
282.3705540000000269
 20
213.8433029999999917
 30
0.0
  9
$LIMMIN
 10
0.0
 20
0.0
  9
$LIMMAX
 10
375.0
 20
270.0
  9
$ORTHOMODE
 70
     1
  9
$REGENMODE
 70
     1
  9
$FILLMODE
 70
     1
  9
$QTEXTMODE
 70
     0
  9
$MIRRTEXT
 70
     0
  9
$DRAGMODE
 70
     2
  9
$LTSCALE
 40
10.0
  9
$OSMODE
 70
    37
  9
$ATTMODE
 70
     1
  9
$TEXTSIZE
 40
4.5
  9
$TRACEWID
 40
0.05
  9
$TEXTSTYLE
  7
STANDARD
  9
$CLAYER
  8
0
  9
$CELTYPE
  6
BYLAYER
  9
$CECOLOR
 62
   256
  9
$DIMSCALE
 40
1.0
  9
$DIMASZ
 40
3.0
  9
$DIMEXO
 40
1.0
  9
$DIMDLI
 40
6.0
  9
$DIMRND
 40
0.0
  9
$DIMDLE
 40
0.0
  9
$DIMEXE
 40
1.0
  9
$DIMTP
 40
495.0
  9
$DIMTM
 40
0.0
  9
$DIMTXT
 40
3.0
  9
$DIMCEN
 40
0.0
  9
$DIMTSZ
 40
0.0
  9
$DIMTOL
 70
     0
  9
$DIMLIM
 70
     0
  9
$DIMTIH
 70
     0
  9
$DIMTOH
 70
     0
  9
$DIMSE1
 70
     0
  9
$DIMSE2
 70
     0
  9
$DIMTAD
 70
     1
  9
$DIMZIN
 70
     0
  9
$DIMBLK
  1

  9
$DIMASO
 70
     0
  9
$DIMSHO
 70
     0
  9
$DIMPOST
  1

  9
$DIMAPOST
  1

  9
$DIMALT
 70
     0
  9
$DIMALTD
 70
     2
  9
$DIMALTF
 40
25.3999999999999986
  9
$DIMLFAC
 40
1.0
  9
$DIMTOFL
 70
     1
  9
$DIMTVP
 40
0.0
  9
$DIMTIX
 70
     1
  9
$DIMSOXD
 70
     0
  9
$DIMSAH
 70
     0
  9
$DIMBLK1
  1

  9
$DIMBLK2
  1

  9
$DIMSTYLE
  2
STANDARD
  9
$DIMCLRD
 70
     0
  9
$DIMCLRE
 70
     0
  9
$DIMCLRT
 70
     0
  9
$DIMTFAC
 40
1.0
  9
$DIMGAP
 40
0.09
  9
$LUNITS
 70
     2
  9
$LUPREC
 70
     1
  9
$SKETCHINC
 40
0.1
  9
$FILLETRAD
 40
0.5
  9
$AUNITS
 70
     0
  9
$AUPREC
 70
     1
  9
$MENU
  1
E:\r13\win\SUPPORT\ACAD
  9
$ELEVATION
 40
0.0
  9
$PELEVATION
 40
0.0
  9
$THICKNESS
 40
0.0
  9
$LIMCHECK
 70
     0
  9
$BLIPMODE
 70
     0
  9
$CHAMFERA
 40
0.0
  9
$CHAMFERB
 40
0.0
  9
$SKPOLY
 70
     0
  9
$TDCREATE
 40
2449840.344444443937391
  9
$TDUPDATE
 40
2460571.6584143522195518
  9
$TDINDWG
 40
0.0865974769
  9
$TDUSRTIMER
 40
0.0865974769
  9
$USRTIMER
 70
     1
  9
$ANGBASE
 50
0.0
  9
$ANGDIR
 70
     0
  9
$PDMODE
 70
     0
  9
$PDSIZE
 40
0.0
  9
$PLINEWID
 40
0.0
  9
$COORDS
 70
     1
  9
$SPLFRAME
 70
     0
  9
$SPLINETYPE
 70
     6
  9
$SPLINESEGS
 70
     8
  9
$ATTDIA
 70
     1
  9
$ATTREQ
 70
     1
  9
$HANDLING
 70
     1
  9
$HANDSEED
  5
1C42
  9
$SURFTAB1
 70
     6
  9
$SURFTAB2
 70
     6
  9
$SURFTYPE
 70
     6
  9
$SURFU
 70
     6
  9
$SURFV
 70
     6
  9
$UCSNAME
  2

  9
$UCSORG
 10
0.0
 20
0.0
 30
0.0
  9
$UCSXDIR
 10
1.0
 20
0.0
 30
0.0
  9
$UCSYDIR
 10
0.0
 20
1.0
 30
0.0
  9
$PUCSNAME
  2

  9
$PUCSORG
 10
0.0
 20
0.0
 30
0.0
  9
$PUCSXDIR
 10
1.0
 20
0.0
 30
0.0
  9
$PUCSYDIR
 10
0.0
 20
1.0
 30
0.0
  9
$USERI1
 70
     3
  9
$USERI2
 70
     1
  9
$USERI3
 70
     0
  9
$USERI4
 70
     1
  9
$USERI5
 70
     0
  9
$USERR1
 40
1.0
  9
$USERR2
 40
3.0
  9
$USERR3
 40
3.0
  9
$USERR4
 40
3.0
  9
$USERR5
 40
10.0
  9
$WORLDVIEW
 70
     1
  9
$SHADEDGE
 70
     3
  9
$SHADEDIF
 70
    70
  9
$TILEMODE
 70
     1
  9
$MAXACTVP
 70
    16
  9
$PLIMCHECK
 70
     0
  9
$PEXTMIN
 10
1.0000000000000000E+20
 20
1.0000000000000000E+20
 30
1.0000000000000000E+20
  9
$PEXTMAX
 10
-1.0000000000000000E+20
 20
-1.0000000000000000E+20
 30
-1.0000000000000000E+20
  9
$PLIMMIN
 10
0.0
 20
0.0
  9
$PLIMMAX
 10
12.0
 20
9.0
  9
$UNITMODE
 70
     0
  9
$VISRETAIN
 70
     0
  9
$PLINEGEN
 70
     0
  9
$PSLTSCALE
 70
     0
  0
ENDSEC
  0
SECTION
  2
TABLES
  0
TABLE
  2
VPORT
 70
     1
  0
VPORT
  2
*ACTIVE
 70
     0
 10
0.0
 20
0.0
 11
1.0
 21
1.0
 12
469.7044334975369111
 22
200.0
 13
0.0
 23
0.0
 14
1.0
 24
1.0
 15
10.0
 25
10.0
 16
0.0
 26
0.0
 36
1.0
 17
0.0
 27
0.0
 37
0.0
 40
400.0
 41
2.3485221674876842
 42
50.0
 43
0.0
 44
0.0
 50
0.0
 51
0.0
 71
     0
 72
   100
 73
     1
 74
     0
 75
     0
 76
     0
 77
     0
 78
     0
  0
ENDTAB
  0
TABLE
  2
LTYPE
 70
     3
  0
LTYPE
  2
CONTINUOUS
 70
     0
  3
Solid Line
 72
    65
 73
     0
 40
0.0
  0
LTYPE
  2
CENTER
 70
     0
  3
____ _ ____ _ ____ _ ____ _ ____ _ ____ _ ____
 72
    65
 73
     4
 40
2.0
 49
1.25
 49
-0.25
 49
0.25
 49
-0.25
  0
LTYPE
  2
PHANTOM2
 70
     0
  3
___ _ _ ___ _ _ ___ _ _ ___ _ _
 72
    65
 73
     6
 40
1.25
 49
0.625
 49
-0.125
 49
0.125
 49
-0.125
 49
0.125
 49
-0.125
  0
ENDTAB
  0
TABLE
  2
LAYER
 70
     3
  0
LAYER
  2
0
 70
     0
 62
     7
  6
CONTINUOUS
  0
LAYER
  2
1
 70
     0
 62
     1
  6
CENTER
  0
LAYER
  2
5
 70
     0
 62
     3
  6
PHANTOM2
  0
ENDTAB
  0
TABLE
  2
STYLE
 70
     2
  0
STYLE
  2
STANDARD
 70
     0
 40
0.0
 41
1.0
 50
0.0
 71
     0
 42
4.5
  3
ROMANS
  4
EXTFONT
  0
STYLE
  2
STANDARD1
 70
     0
 40
0.0
 41
1.0
 50
0.0
 71
     0
 42
3.0
  3
txt
  4

  0
ENDTAB
  0
TABLE
  2
VIEW
 70
     0
  0
ENDTAB
  0
TABLE
  2
UCS
 70
     0
  0
ENDTAB
  0
TABLE
  2
APPID
 70
     8
  0
APPID
  2
ACAD
 70
     0
  0
APPID
  2
ACAD_MLEADERVER
 70
     0
  0
APPID
  2
ACAD_EXEMPT_FROM_CAD_STANDARDS
 70
     0
  0
APPID
  2
ACAD_NAV_VCDISPLAY
 70
     0
  0
APPID
  2
ACAD_TC
 70
     0
  0
APPID
  2
ACAD_DSTYLE_DIMRADIAL_EXTENSION
 70
     0
  0
APPID
  2
ACAD_DSTYLE_DIMJAG
 70
     0
  0
APPID
  2
ACAD_DSTYLE_DIMTALN
 70
     0
  0
ENDTAB
  0
TABLE
  2
DIMSTYLE
 70
     1
  0
DIMSTYLE
  2
STANDARD
 70
     0
  3

  4

  5

  6

  7

 40
1.0
 41
0.18
 42
0.0625
 43
0.38
 44
0.18
 45
0.0
 46
0.0
 47
0.0
 48
0.0
140
0.18
141
0.09
142
0.0
143
25.3999999999999986
144
1.0
145
0.0
146
1.0
147
0.09
 71
     0
 72
     0
 73
     1
 74
     1
 75
     0
 76
     0
 77
     0
 78
     0
170
     0
171
     2
172
     0
173
     0
174
     0
175
     0
176
     0
177
     0
178
     0
  0
ENDTAB
  0
ENDSEC
  0
SECTION
  2
BLOCKS
  0
BLOCK
  8
0
  2
$MODEL_SPACE
 70
     0
 10
0.0
 20
0.0
 30
0.0
  3
$MODEL_SPACE
  1

  0
ENDBLK
  5
930
  8
0
  0
BLOCK
 67
     1
  8
0
  2
$PAPER_SPACE
 70
     0
 10
0.0
 20
0.0
 30
0.0
  3
$PAPER_SPACE
  1

  0
ENDBLK
  5
92E
 67
     1
  8
0
  0
ENDSEC
  0
SECTION
  2
ENTITIES
  0
TEXT
  5
A2B
  8
0
 62
     3
 10
0.0
 20
0.0
 30
0.0
 40
10.0
  1
FK2-VT-TC
  7
STANDARD1
  0
LINE
  5
D19
  8
0
 10
233.3705539999999985
 20
114.6583449999999971
 30
0.0
 11
233.3705539999999985
 21
80.6583449999999971
 31
0.0
  0
LINE
  5
D1A
  8
0
 10
275.3705540000000269
 20
80.6583449999999971
 30
0.0
 11
275.3705540000000269
 21
114.6583449999999971
 31
0.0
  0
LINE
  5
D1B
  8
0
 10
233.3705539999999985
 20
80.6583449999999971
 30
0.0
 11
275.3705540000000269
 21
80.6583449999999971
 31
0.0
  0
LINE
  5
D1C
  8
0
 10
226.3705539999999985
 20
91.6583449999999971
 30
0.0
 11
226.3705539999999985
 21
99.6583449999999971
 31
0.0
  0
LINE
  5
D1D
  8
0
 10
232.8705539999999985
 20
103.1583449999999971
 30
0.0
 11
232.8705539999999985
 21
81.6142290000000088
 31
0.0
  0
ARC
  5
D1E
  8
0
 10
231.8705591554933108
 20
84.573825061432089
 30
0.0
 40
0.9999948445072794
 50
359.9999391841068928
 51
46.5349960744110476
  0
ARC
  5
D1F
  8
0
 10
231.370559155493396
 20
84.3588280614321206
 30
0.0
 40
0.9999948445072226
 50
359.9999391841059833
 51
46.5349960744119429
  0
LINE
  5
D20
  8
0
 10
232.6608129999999903
 20
80.6583449999999971
 30
0.0
 11
232.8705539999999985
 21
80.6583449999999971
 31
0.0
  0
ARC
  5
D21
  8
0
 10
232.8705535000001134
 20
81.2783546990484069
 30
0.0
 40
0.1200096990495184
 50
159.0651008507605866
 51
20.9348991492527396
  0
LINE
  5
D22
  8
0
 10
232.8705539999999985
 20
81.6142290000000088
 30
0.0
 11
232.7584660000001122
 21
81.3212350000000015
 31
0.0
  0
LINE
  5
D23
  8
0
 10
232.8705539999999985
 20
81.6142290000000088
 30
0.0
 11
232.982641000000001
 21
81.3212350000000015
 31
0.0
  0
LINE
  5
D24
  8
0
 10
232.3375479999999982
 20
81.6203270000000032
 30
0.0
 11
232.1757670000000076
 21
81.1974349999999987
 31
0.0
  0
ARC
  5
D25
  8
0
 10
232.6608129999999903
 20
81.1583449999999971
 30
0.0
 40
0.5
 50
186.1945270000003063
 51
270.0
  0
ARC
  5
D26
  8
0
 10
232.8705539999999985
 20
81.1583449999999971
 30
0.0
 40
0.5
 50
270.0
 51
0.0
  0
ARC
  5
D27
  8
0
 10
232.362579811365805
 20
81.1259720918465064
 30
0.0
 40
0.2000149337727982
 50
159.0662724993302959
 51
186.1936043893468025
  0
ARC
  5
D28
  8
0
 10
231.8705560088351092
 20
81.7989788159907931
 30
0.0
 40
0.4999979911649245
 50
339.0652170551140898
 51
0.0000210859852593
  0
LINE
  5
D29
  8
0
 10
227.3705539999999985
 20
90.6583449999999971
 30
0.0
 11
228.6705540000000099
 21
90.6583449999999971
 31
0.0
  0
LINE
  5
D2A
  8
0
 10
227.3705539999999985
 20
100.6583449999999971
 30
0.0
 11
228.6705540000000099
 21
100.6583449999999971
 31
0.0
  0
LINE
  5
D2B
  8
0
 10
228.8705539999999985
 20
88.6583458571439849
 30
0.0
 11
228.8705539999999985
 21
102.6583441428559951
 31
0.0
  0
ARC
  5
D2C
  8
0
 10
230.8705539999999985
 20
89.2416780000000074
 30
0.0
 40
2.0833330000000001
 50
196.2601732774265031
 51
343.7398267225735253
  0
LINE
  5
D2D
  8
0
 10
232.5584670000000074
 20
85.2996160000000003
 30
0.0
 11
228.4843170000000043
 21
88.1583449999999971
 31
0.0
  0
LINE
  5
D2E
  8
0
 10
232.0584670000000074
 20
85.0846189999999751
 30
0.0
 11
228.1986609999999871
 21
87.7436989999999923
 31
0.0
  0
LINE
  5
D2F
  8
0
 10
227.3705539999999985
 20
90.6583449999999971
 30
0.0
 11
227.3705539999999985
 21
100.6583449999999971
 31
0.0
  0
LINE
  5
D30
  8
0
 10
226.3705539999999985
 20
99.6583449999999971
 30
0.0
 11
227.3705539999999985
 21
100.6583449999999971
 31
0.0
  0
LINE
  5
D31
  8
0
 10
226.3705539999999985
 20
91.6583449999999971
 30
0.0
 11
227.3705539999999985
 21
90.6583449999999971
 31
0.0
  0
LINE
  5
D32
  8
0
 10
229.0855540000000872
 20
95.8733450000000005
 30
0.0
 11
232.6555539999999951
 21
95.8733450000000005
 31
0.0
  0
LINE
  5
D33
  8
0
 10
229.0855540000000872
 20
95.4433449999999937
 30
0.0
 11
232.6555539999999951
 21
95.4433449999999937
 31
0.0
  0
ARC
  5
D34
  8
0
 10
229.0855540000000872
 20
95.6583449999999971
 30
0.0
 40
0.215
 50
90.0
 51
270.0
  0
ARC
  5
D35
  8
0
 10
232.6555539999999951
 20
95.6583449999999971
 30
0.0
 40
0.215
 50
270.0
 51
90.0
  0
ARC
  5
D36
  8
0
 10
230.8705539999999985
 20
99.4366980000000069
 30
0.0
 40
5.2549950000000001
 50
248.8924069999987125
 51
291.1075930000013159
  0
ARC
  5
D37
  8
0
 10
229.0855539403719092
 20
94.7205178511076014
 30
0.0
 40
0.2150000177685385
 50
61.7123023447903591
 51
240.0212128100617974
  0
ARC
  5
D38
  8
0
 10
232.6555540578102068
 20
94.7205178500943248
 30
0.0
 40
0.2150000177992293
 50
299.9787877445422737
 51
118.2876971006148068
  0
ARC
  5
D39
  8
0
 10
230.8705539999999985
 20
99.5116799999999984
 30
0.0
 40
4.8999769999999989
 50
249.9101210000011974
 51
290.0898789999986889
  0
ARC
  5
D3A
  8
0
 10
230.8705539999999985
 20
91.8050099999999958
 30
0.0
 40
4.8999769999999989
 50
69.9101210000012259
 51
110.0898789999988026
  0
ARC
  5
D3B
  8
0
 10
232.6555540578102921
 20
96.5961721499056125
 30
0.0
 40
0.2150000177992394
 50
241.7123028993619869
 51
60.0212122554885781
  0
ARC
  5
D3C
  8
0
 10
229.0855539027583063
 20
96.5961720268656165
 30
0.0
 40
0.2149999281393999
 50
119.9784608363646043
 51
298.2877218927106924
  0
ARC
  5
D3D
  8
0
 10
230.8705539999999985
 20
91.8799920000000014
 30
0.0
 40
5.2549950000000001
 50
68.8924069999987267
 51
111.1075930000013017
  0
ARC
  5
D3E
  8
0
 10
230.8705539999999985
 20
94.8627859999999998
 30
0.0
 40
2.0833330000000001
 50
196.2602050000004965
 51
343.7398267225735253
  0
ARC
  5
D3F
  8
0
 10
230.8705539999999985
 20
93.7827810000000142
 30
0.0
 40
2.0833330000000001
 50
196.2602050000004965
 51
343.7398267225735253
  0
ARC
  5
D40
  8
0
 10
230.8705539999999985
 20
92.7724550000000079
 30
0.0
 40
2.0833330000000001
 50
196.2602050000004965
 51
343.7398267225735253
  0
ARC
  5
D41
  8
0
 10
230.8705539999999985
 20
91.7341629999999952
 30
0.0
 40
2.0833330000000001
 50
196.2602050000004965
 51
343.7398267225735253
  0
ARC
  5
D42
  8
0
 10
230.8705539999999985
 20
90.3871089999999953
 30
0.0
 40
2.0833330000000001
 50
196.2602050000004965
 51
343.7398267225735253
  0
ARC
  5
D43
  8
0
 10
230.8705539999999985
 20
89.7083400000000069
 30
0.0
 40
2.0833330000000001
 50
196.2602050000004965
 51
343.7398267225735253
  0
ARC
  5
D44
  8
0
 10
230.8705539999999985
 20
95.2702420000000103
 30
0.0
 40
2.0833330000000001
 50
196.2602050000004965
 51
343.7398267225735253
  0
ARC
  5
D45
  8
0
 10
230.8705539999999985
 20
94.2491469999999936
 30
0.0
 40
2.0833330000000001
 50
196.2602050000004965
 51
343.7398267225735253
  0
ARC
  5
D46
  8
0
 10
230.8705539999999985
 20
93.3213240000000042
 30
0.0
 40
2.0833330000000001
 50
196.2602050000004965
 51
343.7398267225735253
  0
ARC
  5
D47
  8
0
 10
230.8705539999999985
 20
92.2834450000000004
 30
0.0
 40
2.0833330000000001
 50
196.2602050000004965
 51
343.7398267225735253
  0
ARC
  5
D48
  8
0
 10
230.8705539999999985
 20
91.0604309999999941
 30
0.0
 40
2.0833330000000001
 50
196.2602050000004965
 51
343.7398267225735253
  0
ARC
  5
D49
  8
0
 10
230.8705539999999985
 20
89.9666209999999893
 30
0.0
 40
2.0833330000000001
 50
196.2602050000004965
 51
343.7397949999993898
  0
ARC
  5
D4A
  8
0
 10
230.8705539999999985
 20
89.4722909999999843
 30
0.0
 40
2.0833330000000001
 50
196.2602050000004965
 51
343.7398267225735253
  0
LINE
  5
D4B
  8
1
 10
254.3705539999999985
 20
75.6583449999999971
 30
0.0
 11
254.3705539999999985
 21
119.6583449999999971
 31
0.0
  0
LINE
  5
D4C
  8
0
 10
228.6705540000000099
 20
100.6583449999999971
 30
0.0
 11
228.8705539999999985
 21
100.4583449999999942
 31
0.0
  0
LINE
  5
D4D
  8
0
 10
228.6705540000000099
 20
90.6583449999999971
 30
0.0
 11
228.8705539999999985
 21
90.8583449999999999
 31
0.0
  0
LINE
  5
D4E
  8
0
 10
233.3705539999999985
 20
109.6583449999999971
 30
0.0
 11
275.3705540000000269
 21
109.6583449999999971
 31
0.0
  0
LINE
  5
D4F
  8
0
 10
232.3705539999999985
 20
84.3588270000000051
 30
0.0
 11
232.3705539999999985
 21
81.7989790000000028
 31
0.0
  0
LINE
  5
D50
  8
0
 10
228.4843170000000043
 20
88.1583449999999971
 30
0.0
 11
228.1986609999999871
 21
87.7436989999999923
 31
0.0
  0
ARC
  5
D51
  8
0
 10
230.8705539999999985
 20
101.8443989999999957
 30
0.0
 40
2.0833330000000001
 50
16.2601732774265315
 51
163.7398267225719053
  0
ARC
  5
D52
  8
0
 10
230.8705539999999985
 20
101.3500690000000048
 30
0.0
 40
2.0833330000000001
 50
16.2601732774265315
 51
163.7398267225719053
  0
ARC
  5
D53
  8
0
 10
230.8705539999999985
 20
100.256259
 30
0.0
 40
2.0833330000000001
 50
16.2601732774265315
 51
163.7398267225719053
  0
ARC
  5
D54
  8
0
 10
230.8705539999999985
 20
99.0332449999999938
 30
0.0
 40
2.0833330000000001
 50
16.2601732774265315
 51
163.7397949999993898
  0
ARC
  5
D55
  8
0
 10
230.8705539999999985
 20
97.9953660000000042
 30
0.0
 40
2.0833330000000001
 50
16.2601732774265315
 51
163.7397949999993898
  0
ARC
  5
D56
  8
0
 10
230.8705539999999985
 20
97.0675430000000006
 30
0.0
 40
2.0833330000000001
 50
16.2601732774265315
 51
163.7397949999993898
  0
ARC
  5
D57
  8
0
 10
230.8705539999999985
 20
96.046447999999998
 30
0.0
 40
2.0833330000000001
 50
16.2601732774265315
 51
163.7397949999993898
  0
ARC
  5
D58
  8
0
 10
230.8705539999999985
 20
101.6083500000000015
 30
0.0
 40
2.0833330000000001
 50
16.2601732774265315
 51
163.7398267225719053
  0
ARC
  5
D59
  8
0
 10
230.8705539999999985
 20
100.9295809999999989
 30
0.0
 40
2.0833330000000001
 50
16.2601732774265315
 51
163.7398267225719053
  0
ARC
  5
D5A
  8
0
 10
230.8705539999999985
 20
99.5825269999999989
 30
0.0
 40
2.0833330000000001
 50
16.2601732774265315
 51
163.7398267225719053
  0
ARC
  5
D5B
  8
0
 10
230.8705539999999985
 20
98.5442359999999979
 30
0.0
 40
2.0833330000000001
 50
16.2601732774265315
 51
163.7397949999993898
  0
ARC
  5
D5C
  8
0
 10
230.8705539999999985
 20
97.5339089999999942
 30
0.0
 40
2.0833330000000001
 50
16.2601732774265315
 51
163.7397949999993898
  0
ARC
  5
D5D
  8
0
 10
230.8705539999999985
 20
96.4539040000000085
 30
0.0
 40
2.0833330000000001
 50
16.2601732774265315
 51
163.7397949999993898
  0
ARC
  5
D5E
  8
0
 10
230.8705539999999985
 20
102.075012000000001
 30
0.0
 40
2.0833330000000001
 50
16.2601732774265315
 51
163.7398267225719053
  0
ARC
  5
D5F
  8
0
 10
230.8705539999999985
 20
103.1583449999999971
 30
0.0
 40
2.0
 50
0.0
 51
72.517824999998254
  0
LINE
  5
D60
  8
0
 10
228.4253720000000953
 20
103.1583449999999971
 30
0.0
 11
230.5378399999999885
 21
104.8862060000000014
 31
0.0
  0
ARC
  5
D61
  8
0
 10
231.170963872830896
 20
104.1121538964671061
 30
0.0
 40
1.000001248665223
 50
72.5178952244980906
 51
129.2809155865355137
  0
LINE
  5
D62
  8
0
 10
228.1088100000000054
 20
103.5453710000000029
 30
0.0
 11
230.2212780000000123
 21
105.273231999999993
 31
0.0
  0
ARC
  5
D63
  8
0
 10
231.1709637189823923
 20
104.1121512212364024
 30
0.0
 40
1.5000038465461361
 50
72.5178969087490373
 51
129.2808494733068869
  0
ARC
  5
D64
  8
0
 10
230.8705539999999985
 20
103.1583449999999971
 30
0.0
 40
2.5
 50
0.0
 51
72.517824999998254
  0
LINE
  5
D65
  8
0
 10
228.4253720000000953
 20
103.1583449999999971
 30
0.0
 11
228.1088100000000054
 21
103.5453710000000029
 31
0.0
  0
LINE
  5
DAD
  8
0
 10
233.3705539999999985
 20
114.6583449999999971
 30
0.0
 11
275.3705540000000269
 21
114.6583449999999971
 31
0.0
  0
LINE
  5
DAE
  8
0
 10
257.3705540000000269
 20
109.6583449999999971
 30
0.0
 11
257.3705540000000269
 21
114.6583449999999971
 31
0.0
  0
LINE
  5
DAF
  8
0
 10
251.3705539999999985
 20
109.6583449999999971
 30
0.0
 11
251.3705539999999985
 21
114.6583449999999971
 31
0.0
  0
LINE
  5
DB1
  8
0
 10
282.3705540000000269
 20
91.6583449999999971
 30
0.0
 11
282.3705540000000269
 21
99.6583449999999971
 31
0.0
  0
LINE
  5
DB2
  8
0
 10
275.8705540000000269
 20
103.1583449999999971
 30
0.0
 11
275.8705540000000269
 21
81.6142290000000088
 31
0.0
  0
ARC
  5
DB3
  8
0
 10
276.8705488445067999
 20
84.573825061432089
 30
0.0
 40
0.9999948445072794
 50
133.4650039255867
 51
180.0000608158931072
  0
ARC
  5
DB4
  8
0
 10
277.3705488445066862
 20
84.3588280614321206
 30
0.0
 40
0.9999948445072226
 50
133.4650039255865863
 51
180.0000608158939031
  0
LINE
  5
DB5
  8
0
 10
276.0802949999999782
 20
80.6583449999999971
 30
0.0
 11
275.8705540000000269
 21
80.6583449999999971
 31
0.0
  0
ARC
  5
DB6
  8
0
 10
275.8705545000000257
 20
81.2783546990484069
 30
0.0
 40
0.1200096990495184
 50
159.0651008507464041
 51
20.9348991492396799
  0
LINE
  5
DB7
  8
0
 10
275.8705540000000269
 20
81.6142290000000088
 30
0.0
 11
275.9826419999999985
 21
81.3212350000000015
 31
0.0
  0
LINE
  5
DB8
  8
0
 10
275.8705540000000269
 20
81.6142290000000088
 30
0.0
 11
275.758466999999996
 21
81.3212350000000015
 31
0.0
  0
LINE
  5
DB9
  8
0
 10
276.4035600000000272
 20
81.6203270000000032
 30
0.0
 11
276.5653409999999894
 21
81.1974349999999987
 31
0.0
  0
ARC
  5
DBA
  8
0
 10
276.0802949999999782
 20
81.1583449999999971
 30
0.0
 40
0.5
 50
270.0
 51
353.8054729999994947
  0
ARC
  5
DBB
  8
0
 10
275.8705540000000269
 20
81.1583449999999971
 30
0.0
 40
0.5
 50
180.0
 51
270.0
  0
ARC
  5
DBC
  8
0
 10
276.3785281886342773
 20
81.1259720918465064
 30
0.0
 40
0.2000149337727982
 50
353.806395610653226
 51
20.933727500669491
  0
ARC
  5
DBD
  8
0
 10
276.8705519911649162
 20
81.7989788159907931
 30
0.0
 40
0.4999979911649245
 50
179.9999789140146902
 51
200.9347829448859954
  0
LINE
  5
DBE
  8
0
 10
281.3705540000000269
 20
90.6583449999999971
 30
0.0
 11
280.0705540000000155
 21
90.6583449999999971
 31
0.0
  0
LINE
  5
DBF
  8
0
 10
281.3705540000000269
 20
100.6583449999999971
 30
0.0
 11
280.0705540000000155
 21
100.6583449999999971
 31
0.0
  0
LINE
  5
DC0
  8
0
 10
279.8705540000000269
 20
88.6583458571439849
 30
0.0
 11
279.8705540000000269
 21
102.6583441428559951
 31
0.0
  0
ARC
  5
DC1
  8
0
 10
277.8705540000000269
 20
89.2416780000000074
 30
0.0
 40
2.0833330000000001
 50
196.2601732774261052
 51
343.7398267225739232
  0
LINE
  5
DC2
  8
0
 10
276.1826410000001033
 20
85.2996160000000003
 30
0.0
 11
280.2567910000000211
 21
88.1583449999999971
 31
0.0
  0
LINE
  5
DC3
  8
0
 10
276.6826410000001033
 20
85.0846189999999751
 30
0.0
 11
280.5424470000000952
 21
87.7436989999999923
 31
0.0
  0
LINE
  5
DC4
  8
0
 10
281.3705540000000269
 20
90.6583449999999971
 30
0.0
 11
281.3705540000000269
 21
100.6583449999999971
 31
0.0
  0
LINE
  5
DC5
  8
0
 10
282.3705540000000269
 20
99.6583449999999971
 30
0.0
 11
281.3705540000000269
 21
100.6583449999999971
 31
0.0
  0
LINE
  5
DC6
  8
0
 10
282.3705540000000269
 20
91.6583449999999971
 30
0.0
 11
281.3705540000000269
 21
90.6583449999999971
 31
0.0
  0
LINE
  5
DC7
  8
0
 10
279.6555539999999951
 20
95.8733450000000005
 30
0.0
 11
276.0855540000000019
 21
95.8733450000000005
 31
0.0
  0
LINE
  5
DC8
  8
0
 10
279.6555539999999951
 20
95.4433449999999937
 30
0.0
 11
276.0855540000000019
 21
95.4433449999999937
 31
0.0
  0
ARC
  5
DC9
  8
0
 10
279.6555539999999951
 20
95.6583449999999971
 30
0.0
 40
0.215
 50
270.0
 51
90.0
  0
ARC
  5
DCA
  8
0
 10
276.0855540000000019
 20
95.6583449999999971
 30
0.0
 40
0.215
 50
90.0
 51
270.0
  0
ARC
  5
DCB
  8
0
 10
277.8705540000000269
 20
99.4366980000000069
 30
0.0
 40
5.2549950000000001
 50
248.8924069999987125
 51
291.1075930000013159
  0
ARC
  5
DCC
  8
0
 10
279.655554059628173
 20
94.7205178511076014
 30
0.0
 40
0.2150000177685385
 50
299.9787871899408742
 51
118.2876976552095982
  0
ARC
  5
DCD
  8
0
 10
276.0855539421897902
 20
94.7205178500943248
 30
0.0
 40
0.2150000177992293
 50
61.7123028993843334
 51
240.0212122554605116
  0
ARC
  5
DCE
  8
0
 10
277.8705540000000269
 20
99.5116799999999984
 30
0.0
 40
4.8999769999999989
 50
249.9101210000011974
 51
290.0898789999986889
  0
ARC
  5
DCF
  8
0
 10
277.8705540000000269
 20
91.8050099999999958
 30
0.0
 40
4.8999769999999989
 50
69.9101210000012259
 51
110.0898789999987031
  0
ARC
  5
DD0
  8
0
 10
276.0855539421897902
 20
96.5961721499056125
 30
0.0
 40
0.2150000177992394
 50
119.978787744509404
 51
298.2876971006378994
  0
ARC
  5
DD1
  8
0
 10
279.6555540972418044
 20
96.5961720268656165
 30
0.0
 40
0.2149999281393999
 50
241.712278107292093
 51
60.0215391636334274
  0
ARC
  5
DD2
  8
0
 10
277.8705540000000269
 20
91.8799920000000014
 30
0.0
 40
5.2549950000000001
 50
68.8924069999987125
 51
111.1075930000013017
  0
ARC
  5
DD3
  8
0
 10
277.8705540000000269
 20
94.8627859999999998
 30
0.0
 40
2.0833330000000001
 50
196.2601732774261052
 51
343.7397949999988214
  0
ARC
  5
DD4
  8
0
 10
277.8705540000000269
 20
93.7827810000000142
 30
0.0
 40
2.0833330000000001
 50
196.2601732774261052
 51
343.7397949999988214
  0
ARC
  5
DD5
  8
0
 10
277.8705540000000269
 20
92.7724550000000079
 30
0.0
 40
2.0833330000000001
 50
196.2601732774261052
 51
343.7397949999988214
  0
ARC
  5
DD6
  8
0
 10
277.8705540000000269
 20
91.7341629999999952
 30
0.0
 40
2.0833330000000001
 50
196.2601732774261052
 51
343.7397949999988214
  0
ARC
  5
DD7
  8
0
 10
277.8705540000000269
 20
90.3871089999999953
 30
0.0
 40
2.0833330000000001
 50
196.2601732774261052
 51
343.7397949999988214
  0
ARC
  5
DD8
  8
0
 10
277.8705540000000269
 20
89.7083400000000069
 30
0.0
 40
2.0833330000000001
 50
196.2601732774261052
 51
343.7397949999988214
  0
ARC
  5
DD9
  8
0
 10
277.8705540000000269
 20
95.2702420000000103
 30
0.0
 40
2.0833330000000001
 50
196.2601732774261052
 51
343.7397949999988214
  0
ARC
  5
DDA
  8
0
 10
277.8705540000000269
 20
94.2491469999999936
 30
0.0
 40
2.0833330000000001
 50
196.2601732774261052
 51
343.7397949999988214
  0
ARC
  5
DDB
  8
0
 10
277.8705540000000269
 20
93.3213240000000042
 30
0.0
 40
2.0833330000000001
 50
196.2601732774261052
 51
343.7397949999988214
  0
ARC
  5
DDC
  8
0
 10
277.8705540000000269
 20
92.2834450000000004
 30
0.0
 40
2.0833330000000001
 50
196.2601732774261052
 51
343.7397949999988214
  0
ARC
  5
DDD
  8
0
 10
277.8705540000000269
 20
91.0604309999999941
 30
0.0
 40
2.0833330000000001
 50
196.2601732774261052
 51
343.7397949999988214
  0
ARC
  5
DDE
  8
0
 10
277.8705540000000269
 20
89.9666209999999893
 30
0.0
 40
2.0833330000000001
 50
196.2602050000010934
 51
343.7397949999988214
  0
ARC
  5
DDF
  8
0
 10
277.8705540000000269
 20
89.4722909999999843
 30
0.0
 40
2.0833330000000001
 50
196.2601732774261052
 51
343.7397949999988214
  0
LINE
  5
DE0
  8
0
 10
280.0705540000000155
 20
100.6583449999999971
 30
0.0
 11
279.8705540000000269
 21
100.4583449999999942
 31
0.0
  0
LINE
  5
DE1
  8
0
 10
280.0705540000000155
 20
90.6583449999999971
 30
0.0
 11
279.8705540000000269
 21
90.8583449999999999
 31
0.0
  0
LINE
  5
DE2
  8
0
 10
276.3705540000000269
 20
84.3588270000000051
 30
0.0
 11
276.3705540000000269
 21
81.7989790000000028
 31
0.0
  0
LINE
  5
DE3
  8
0
 10
280.2567910000000211
 20
88.1583449999999971
 30
0.0
 11
280.5424470000000952
 21
87.7436989999999923
 31
0.0
  0
ARC
  5
DE4
  8
0
 10
277.8705540000000269
 20
101.8443989999999957
 30
0.0
 40
2.0833330000000001
 50
16.2601732774276009
 51
163.7398267225738095
  0
ARC
  5
DE5
  8
0
 10
277.8705540000000269
 20
101.3500690000000048
 30
0.0
 40
2.0833330000000001
 50
16.2601732774276009
 51
163.7398267225738095
  0
ARC
  5
DE6
  8
0
 10
277.8705540000000269
 20
100.256259
 30
0.0
 40
2.0833330000000001
 50
16.2601732774276009
 51
163.7398267225738095
  0
ARC
  5
DE7
  8
0
 10
277.8705540000000269
 20
99.0332449999999938
 30
0.0
 40
2.0833330000000001
 50
16.2602050000011182
 51
163.7398267225738095
  0
ARC
  5
DE8
  8
0
 10
277.8705540000000269
 20
97.9953660000000042
 30
0.0
 40
2.0833330000000001
 50
16.2602050000011182
 51
163.7398267225738095
  0
ARC
  5
DE9
  8
0
 10
277.8705540000000269
 20
97.0675430000000006
 30
0.0
 40
2.0833330000000001
 50
16.2602050000011182
 51
163.7398267225738095
  0
ARC
  5
DEA
  8
0
 10
277.8705540000000269
 20
96.046447999999998
 30
0.0
 40
2.0833330000000001
 50
16.2602050000011182
 51
163.7398267225738095
  0
ARC
  5
DEB
  8
0
 10
277.8705540000000269
 20
101.6083500000000015
 30
0.0
 40
2.0833330000000001
 50
16.2601732774276009
 51
163.7398267225738095
  0
ARC
  5
DEC
  8
0
 10
277.8705540000000269
 20
100.9295809999999989
 30
0.0
 40
2.0833330000000001
 50
16.2601732774276009
 51
163.7398267225738095
  0
ARC
  5
DED
  8
0
 10
277.8705540000000269
 20
99.5825269999999989
 30
0.0
 40
2.0833330000000001
 50
16.2601732774276009
 51
163.7398267225738095
  0
ARC
  5
DEE
  8
0
 10
277.8705540000000269
 20
98.5442359999999979
 30
0.0
 40
2.0833330000000001
 50
16.2602050000011182
 51
163.7398267225738095
  0
ARC
  5
DEF
  8
0
 10
277.8705540000000269
 20
97.5339089999999942
 30
0.0
 40
2.0833330000000001
 50
16.2602050000011182
 51
163.7398267225738095
  0
ARC
  5
DF0
  8
0
 10
277.8705540000000269
 20
96.4539040000000085
 30
0.0
 40
2.0833330000000001
 50
16.2602050000011182
 51
163.7398267225738095
  0
ARC
  5
DF1
  8
0
 10
277.8705540000000269
 20
102.075012000000001
 30
0.0
 40
2.0833330000000001
 50
16.2601732774276009
 51
163.7398267225738095
  0
ARC
  5
DF2
  8
0
 10
277.8705540000000269
 20
103.1583449999999971
 30
0.0
 40
2.0
 50
107.4821750000017033
 51
180.0
  0
LINE
  5
DF3
  8
0
 10
280.3157360000000153
 20
103.1583449999999971
 30
0.0
 11
278.20326799999998
 21
104.8862060000000014
 31
0.0
  0
ARC
  5
DF4
  8
0
 10
277.5701441271692147
 20
104.1121538964671061
 30
0.0
 40
1.000001248665223
 50
50.7190844134667529
 51
107.4821047755053058
  0
LINE
  5
DF5
  8
0
 10
280.6322979999999916
 20
103.5453710000000029
 30
0.0
 11
278.5198300000000131
 21
105.273231999999993
 31
0.0
  0
ARC
  5
DF6
  8
0
 10
277.57014428101769
 20
104.1121512212364024
 30
0.0
 40
1.5000038465461361
 50
50.7191505266909886
 51
107.4821030912510054
  0
ARC
  5
DF7
  8
0
 10
277.8705540000000269
 20
103.1583449999999971
 30
0.0
 40
2.5
 50
107.4821750000017033
 51
180.0
  0
LINE
  5
DF8
  8
0
 10
280.3157360000000153
 20
103.1583449999999971
 30
0.0
 11
280.6322979999999916
 21
103.5453710000000029
 31
0.0
  0
LINE
  5
F6F
  8
0
 10
175.5
 20
160.3433029999999917
 30
0.0
 11
175.5
 21
201.3433029999999917
 31
0.0
  0
LINE
  5
F70
  8
5
 10
178.5
 20
159.8433029999999917
 30
0.0
 11
175.5
 21
159.8433029999999917
 31
0.0
  0
LINE
  5
F71
  8
5
 10
179.0
 20
160.3433029999999917
 30
0.0
 11
179.0
 21
201.3433029999999917
 31
0.0
  0
LINE
  5
F72
  8
0
 10
175.0
 20
159.8433029999999917
 30
0.0
 11
119.0
 21
159.8433029999999917
 31
0.0
  0
ARC
  5
F73
  8
0
 10
175.0
 20
160.3433029999999917
 30
0.0
 40
0.5
 50
270.0
 51
0.0
  0
ARC
  5
F74
  8
5
 10
178.5
 20
160.3433029999999917
 30
0.0
 40
0.5
 50
270.0
 51
0.0
  0
LINE
  5
F75
  8
1
 10
180.5
 20
180.8433029999999917
 30
0.0
 11
113.5
 21
180.8433029999999917
 31
0.0
  0
LINE
  5
F76
  8
1
 10
147.0
 20
147.8433029999999917
 30
0.0
 11
147.0
 21
213.8433029999999917
 31
0.0
  0
LINE
  5
F77
  8
1
 10
148.5
 20
165.8433029999999917
 30
0.0
 11
148.5
 21
195.8433029999999917
 31
0.0
  0
ARC
  5
F86
  8
5
 10
178.5
 20
201.3433029999999917
 30
0.0
 40
0.5
 50
0.0
 51
90.0
  0
ARC
  5
F87
  8
0
 10
175.0
 20
201.3433029999999917
 30
0.0
 40
0.5
 50
0.0
 51
90.0
  0
LINE
  5
F88
  8
0
 10
175.0
 20
201.8433029999999917
 30
0.0
 11
119.0
 21
201.8433029999999917
 31
0.0
  0
LINE
  5
F89
  8
5
 10
178.5
 20
201.8433029999999917
 30
0.0
 11
175.5
 21
201.8433029999999917
 31
0.0
  0
LINE
  5
F8A
  8
5
 10
115.5
 20
201.8433029999999917
 30
0.0
 11
118.5
 21
201.8433029999999917
 31
0.0
  0
ARC
  5
F8B
  8
0
 10
119.0
 20
201.3433029999999917
 30
0.0
 40
0.5
 50
90.0
 51
180.0
  0
ARC
  5
F8C
  8
5
 10
115.5
 20
201.3433029999999917
 30
0.0
 40
0.5
 50
90.0
 51
180.0
  0
ARC
  5
F8D
  8
5
 10
115.5
 20
160.3433029999999917
 30
0.0
 40
0.5
 50
180.0
 51
270.0
  0
ARC
  5
F8E
  8
0
 10
119.0
 20
160.3433029999999917
 30
0.0
 40
0.5
 50
180.0
 51
270.0
  0
LINE
  5
F8F
  8
5
 10
115.0
 20
160.3433029999999917
 30
0.0
 11
115.0
 21
201.3433029999999917
 31
0.0
  0
LINE
  5
F90
  8
5
 10
115.5
 20
159.8433029999999917
 30
0.0
 11
118.5
 21
159.8433029999999917
 31
0.0
  0
LINE
  5
F91
  8
0
 10
118.5
 20
160.3433029999999917
 30
0.0
 11
118.5
 21
201.3433029999999917
 31
0.0
  0
LINE
  5
F92
  8
1
 10
145.5
 20
165.8433029999999917
 30
0.0
 11
145.5
 21
195.8433029999999917
 31
0.0
  0
LINE
  5
F93
  8
0
 10
171.5
 20
177.8433029999999917
 30
0.0
 11
171.5
 21
183.8433029999999917
 31
0.0
  0
LINE
  5
F94
  8
0
 10
171.5
 20
177.8433029999999917
 30
0.0
 11
161.0
 21
159.8433029999999917
 31
0.0
  0
LINE
  5
F95
  8
0
 10
171.5
 20
183.8433029999999917
 30
0.0
 11
161.0
 21
201.8433029999999917
 31
0.0
  0
LINE
  5
F96
  8
0
 10
122.5
 20
177.8433029999999917
 30
0.0
 11
133.0
 21
159.8433029999999917
 31
0.0
  0
LINE
  5
F97
  8
0
 10
122.5
 20
183.8433029999999917
 30
0.0
 11
133.0
 21
201.8433029999999917
 31
0.0
  0
LINE
  5
F98
  8
0
 10
122.5
 20
177.8433029999999917
 30
0.0
 11
122.5
 21
183.8433029999999917
 31
0.0
  0
TEXT
  5
F99
  8
0
 10
137.0
 20
161.3433029999999917
 30
0.0
 40
4.5
  1
F
 72
     4
 11
139.25
 21
163.5933029999999917
 31
0.0
  0
TEXT
  5
F9A
  8
0
 10
140.3928571428571104
 20
161.3433029999999917
 30
0.0
 40
4.5
  1
K
 72
     4
 11
142.75
 21
163.5933029999999917
 31
0.0
  0
TEXT
  5
F9B
  8
0
 10
144.1071428571428044
 20
161.3433029999999917
 30
0.0
 40
4.5
  1
2
 72
     4
 11
146.25
 21
163.5933029999999917
 31
0.0
  0
TEXT
  5
F9C
  8
0
 10
146.964285714285694
 20
161.6647315714286037
 30
0.0
 40
4.5
  1
-
 72
     4
 11
149.75
 21
163.5933029999999917
 31
0.0
  0
TEXT
  5
F9D
  8
0
 10
151.321428571428612
 20
161.3433029999999917
 30
0.0
 40
4.5
  1
V
 72
     4
 11
153.25
 21
163.5933029999999917
 31
0.0
  0
TEXT
  5
F9E
  8
0
 10
155.0357142857141923
 20
161.3433029999999917
 30
0.0
 40
4.5
  1
T
 72
     4
 11
156.75
 21
163.5933029999999917
 31
0.0
  0
TEXT
  5
F9F
  8
0
 10
134.61463214285709
 20
195.3433029999999917
 30
0.0
 40
4.5
  1
O
 72
     4
 11
136.9717749999998944
 21
197.5933029999999917
 31
0.0
  0
TEXT
  5
FA0
  8
0
 10
138.61463214285709
 20
195.3433029999999917
 30
0.0
 40
4.5
  1
K
 72
     4
 11
140.9717749999998944
 21
197.5933029999999917
 31
0.0
  0
TEXT
  5
FA1
  8
0
 10
141.686060714285702
 20
195.6647315714286037
 30
0.0
 40
4.5
  1
-
 72
     4
 11
144.471775000000008
 21
197.5933029999999917
 31
0.0
  0
TEXT
  5
FA2
  8
0
 10
146.0432035714285064
 20
195.3433029999999917
 30
0.0
 40
4.5
  1
V
 72
     4
 11
147.971775000000008
 21
197.5933029999999917
 31
0.0
  0
TEXT
  5
FA3
  8
0
 10
150.61463214285709
 20
195.3433029999999917
 30
0.0
 40
4.5
  1
I
 72
     4
 11
151.4717749999998944
 21
197.5933029999999917
 31
0.0
  0
TEXT
  5
FA4
  8
0
 10
152.8289178571428124
 20
195.3433029999999917
 30
0.0
 40
4.5
  1
S
 72
     4
 11
154.971775000000008
 21
197.5933029999999917
 31
0.0
  0
TEXT
  5
FA5
  8
0
 10
156.221775000000008
 20
195.3433029999999917
 30
0.0
 40
4.5
  1
E
 72
     4
 11
158.471775000000008
 21
197.5933029999999917
 31
0.0
  0
LINE
  5
FCB
  8
0
 10
162.0
 20
206.3433029999999917
 30
0.0
 11
171.7500013124974885
 21
206.3433029999999917
 31
0.0
  0
LINE
  5
FCC
  8
0
 10
162.0
 20
207.1050470000000132
 30
0.0
 11
132.0
 21
207.1050470000000132
 31
0.0
  0
ARC
  5
FCD
  8
0
 10
171.1785710000000051
 20
204.0933029999999917
 30
0.0
 40
2.3214290000000002
 50
284.2500330000003146
 51
75.7499256526387796
  0
ARC
  5
FCE
  8
0
 10
167.4857629999999915
 20
204.0933029999999917
 30
0.0
 40
2.8682169999999991
 50
308.329288000001327
 51
51.670711999998737
  0
ARC
  5
FCF
  8
0
 10
166.1427740000000028
 20
204.0933029999999917
 30
0.0
 40
3.7119589999999989
 50
322.6884360000000243
 51
37.31156399999999
  0
ARC
  5
FD0
  8
0
 10
165.643527000000006
 20
204.0933029999999917
 30
0.0
 40
3.7119589999999989
 50
322.6884360000000243
 51
37.31156399999999
  0
ARC
  5
FD1
  8
0
 10
162.1206879999998876
 20
204.0933029999999917
 30
0.0
 40
3.416231999999999
 50
318.8052650000000767
 51
41.1947349999998167
  0
ARC
  5
FD2
  8
0
 10
162.9032919999999933
 20
204.0933029999999917
 30
0.0
 40
3.416231999999999
 50
318.8052650000000767
 51
41.1947349999998167
  0
ARC
  5
FD3
  8
0
 10
163.5914429999999982
 20
204.0933029999999917
 30
0.0
 40
3.416231999999999
 50
318.8052650000000767
 51
41.1947349999998167
  0
ARC
  5
FD4
  8
0
 10
164.2795950000000005
 20
204.0933029999999917
 30
0.0
 40
3.416231999999999
 50
318.8052650000000767
 51
41.1947349999998167
  0
ARC
  5
FD5
  8
0
 10
164.913772999999992
 20
204.0933029999999917
 30
0.0
 40
3.416231999999999
 50
318.8052650000000767
 51
41.1947349999998167
  0
ARC
  5
FD6
  8
0
 10
165.4669930000000022
 20
204.0933029999999917
 30
0.0
 40
3.416231999999999
 50
318.8052650000000767
 51
41.1947349999998167
  0
ARC
  5
FD7
  8
0
 10
169.3704869999999971
 20
204.0933029999999917
 30
0.0
 40
2.3214290000000002
 50
284.2500330000003146
 51
75.7499669999996428
  0
ARC
  5
FD8
  8
0
 10
169.9237070000000074
 20
204.0933029999999917
 30
0.0
 40
2.3214290000000002
 50
284.2500330000003146
 51
75.7499669999996428
  0
ARC
  5
FD9
  8
0
 10
170.4229540000000043
 20
204.0933029999999917
 30
0.0
 40
2.3214290000000002
 50
284.2500330000003146
 51
75.7499669999996428
  0
ARC
  5
FDA
  8
0
 10
170.8412419999999088
 20
204.0933029999999917
 30
0.0
 40
2.3214290000000002
 50
284.2500330000003146
 51
75.7499669999996428
  0
LINE
  5
FDB
  8
0
 10
170.5
 20
207.8433029999999917
 30
0.0
 11
170.5
 21
206.3433029999999917
 31
0.0
  0
LINE
  5
FDC
  8
0
 10
162.0
 20
207.8433029999999917
 30
0.0
 11
170.5
 21
207.8433029999999917
 31
0.0
  0
LINE
  5
FDD
  8
0
 10
162.0
 20
208.8433029999999917
 30
0.0
 11
162.0
 21
201.8433029999999917
 31
0.0
  0
LINE
  5
FDE
  8
0
 10
162.0
 20
208.8433029999999917
 30
0.0
 11
169.5
 21
208.8433029999999917
 31
0.0
  0
LINE
  5
FDF
  8
0
 10
170.5
 20
207.8433029999999917
 30
0.0
 11
169.5
 21
208.8433029999999917
 31
0.0
  0
ARC
  5
FE0
  8
0
 10
167.9985039999999969
 20
204.0933029999999917
 30
0.0
 40
2.8682169999999991
 50
308.329288000001327
 51
51.670711999998737
  0
ARC
  5
FE1
  8
0
 10
162.0480179999998995
 20
204.0933029999999917
 30
0.0
 40
2.8682169999999991
 50
308.329288000001327
 51
51.670711999998737
  0
ARC
  5
FE2
  8
0
 10
161.2519210000000101
 20
204.0933029999999917
 30
0.0
 40
2.8682169999999991
 50
308.329288000001327
 51
51.670711999998737
  0
ARC
  5
FE3
  8
0
 10
160.4963040000000092
 20
204.0933029999999917
 30
0.0
 40
2.8682169999999991
 50
308.329288000001327
 51
51.670711999998737
  0
ARC
  5
FE4
  8
0
 10
159.8351389999999981
 20
204.0933029999999917
 30
0.0
 40
2.8682169999999991
 50
319.0057970000008254
 51
40.9942029999992172
  0
ARC
  5
FE5
  8
0
 10
134.1648610000000019
 20
204.0933029999999917
 30
0.0
 40
2.8682169999999991
 50
139.005797000000797
 51
220.994202999999203
  0
ARC
  5
FE6
  8
0
 10
133.5036959999999908
 20
204.0933029999999917
 30
0.0
 40
2.8682169999999991
 50
128.3292880000012133
 51
231.6707119999987015
  0
ARC
  5
FE7
  8
0
 10
132.7480789999999047
 20
204.0933029999999917
 30
0.0
 40
2.8682169999999991
 50
128.3292880000012133
 51
231.6707119999987015
  0
ARC
  5
FE8
  8
0
 10
131.9519819999999868
 20
204.0933029999999917
 30
0.0
 40
2.8682169999999991
 50
128.3292880000012133
 51
231.6707119999987015
  0
ARC
  5
FE9
  8
0
 10
126.0014959999999036
 20
204.0933029999999917
 30
0.0
 40
2.8682169999999991
 50
128.3292880000012133
 51
231.6707119999987015
  0
LINE
  5
FEA
  8
0
 10
123.5
 20
207.8433029999999917
 30
0.0
 11
124.5
 21
208.8433029999999917
 31
0.0
  0
LINE
  5
FEB
  8
0
 10
122.2499986875024973
 20
206.3433029999999917
 30
0.0
 11
132.0
 21
206.3433029999999917
 31
0.0
  0
LINE
  5
FEC
  8
0
 10
132.0
 20
208.8433029999999917
 30
0.0
 11
124.5
 21
208.8433029999999917
 31
0.0
  0
LINE
  5
FED
  8
0
 10
132.0
 20
208.8433029999999917
 30
0.0
 11
132.0
 21
201.8433029999999917
 31
0.0
  0
LINE
  5
FEE
  8
0
 10
132.0
 20
207.8433029999999917
 30
0.0
 11
123.5
 21
207.8433029999999917
 31
0.0
  0
LINE
  5
FEF
  8
0
 10
123.5
 20
207.8433029999999917
 30
0.0
 11
123.5
 21
206.3433029999999917
 31
0.0
  0
ARC
  5
FF0
  8
0
 10
123.1587580000000059
 20
204.0933029999999917
 30
0.0
 40
2.3214290000000002
 50
104.2500330000003004
 51
255.7499669999997138
  0
ARC
  5
FF1
  8
0
 10
123.5770459999999957
 20
204.0933029999999917
 30
0.0
 40
2.3214290000000002
 50
104.2500330000003004
 51
255.7499669999997138
  0
ARC
  5
FF2
  8
0
 10
124.0762929999998931
 20
204.0933029999999917
 30
0.0
 40
2.3214290000000002
 50
104.2500330000003004
 51
255.7499669999997138
  0
ARC
  5
FF3
  8
0
 10
124.6295130000000029
 20
204.0933029999999917
 30
0.0
 40
2.3214290000000002
 50
104.2500330000003004
 51
255.7499669999997138
  0
ARC
  5
FF4
  8
0
 10
128.5330069999999978
 20
204.0933029999999917
 30
0.0
 40
3.416231999999999
 50
138.8052650000001051
 51
221.1947349999998096
  0
ARC
  5
FF5
  8
0
 10
129.086227000000008
 20
204.0933029999999917
 30
0.0
 40
3.416231999999999
 50
138.8052650000001051
 51
221.1947349999998096
  0
ARC
  5
FF6
  8
0
 10
129.7204049999999995
 20
204.0933029999999917
 30
0.0
 40
3.416231999999999
 50
138.8052650000001051
 51
221.1947349999998096
  0
ARC
  5
FF7
  8
0
 10
130.4085570000000018
 20
204.0933029999999917
 30
0.0
 40
3.416231999999999
 50
138.8052650000001051
 51
221.1947349999998096
  0
ARC
  5
FF8
  8
0
 10
131.0967080000000067
 20
204.0933029999999917
 30
0.0
 40
3.416231999999999
 50
138.8052650000001051
 51
221.1947349999998096
  0
ARC
  5
FF9
  8
0
 10
131.8793119999999988
 20
204.0933029999999917
 30
0.0
 40
3.416231999999999
 50
138.8052650000001051
 51
221.1947349999998096
  0
ARC
  5
FFA
  8
0
 10
128.356472999999994
 20
204.0933029999999917
 30
0.0
 40
3.7119589999999989
 50
142.6884359999999958
 51
217.3115640000000042
  0
ARC
  5
FFB
  8
0
 10
127.8572259999999972
 20
204.0933029999999917
 30
0.0
 40
3.7119589999999989
 50
142.6884359999999958
 51
217.3115640000000042
  0
ARC
  5
FFC
  8
0
 10
126.5142369999998948
 20
204.0933029999999917
 30
0.0
 40
2.8682169999999991
 50
128.3292880000012133
 51
231.6707119999987015
  0
ARC
  5
FFD
  8
0
 10
122.8214289999999949
 20
204.0933029999999917
 30
0.0
 40
2.3214290000000002
 50
104.2500743473612062
 51
255.7499669999997138
  0
ARC
  5
FFE
  8
0
 10
148.5
 20
180.8433029999999917
 30
0.0
 40
8.25
 50
270.0
 51
90.0
  0
ARC
  5
FFF
  8
0
 10
148.5
 20
180.8433029999999917
 30
0.0
 40
12.5
 50
270.0
 51
90.0
  0
ARC
  5
1000
  8
0
 10
145.5
 20
180.8433029999999917
 30
0.0
 40
12.5
 50
90.0
 51
270.0
  0
ARC
  5
1001
  8
0
 10
145.5
 20
180.8433029999999917
 30
0.0
 40
8.25
 50
90.0
 51
270.0
  0
LINE
  5
1002
  8
0
 10
145.5
 20
172.5933029999999917
 30
0.0
 11
148.5
 21
172.5933029999999917
 31
0.0
  0
LINE
  5
1003
  8
0
 10
145.5
 20
168.3433029999999917
 30
0.0
 11
148.5
 21
168.3433029999999917
 31
0.0
  0
LINE
  5
1004
  8
0
 10
145.5
 20
193.3433029999999917
 30
0.0
 11
148.5
 21
193.3433029999999917
 31
0.0
  0
LINE
  5
1005
  8
0
 10
145.5
 20
189.0933029999999917
 30
0.0
 11
148.5
 21
189.0933029999999917
 31
0.0
  0
LINE
  5
1006
  8
0
 10
162.0
 20
155.3433029999999917
 30
0.0
 11
171.7500013124974885
 21
155.3433029999999917
 31
0.0
  0
LINE
  5
1007
  8
0
 10
162.0
 20
154.5815589999999986
 30
0.0
 11
132.0
 21
154.5815589999999986
 31
0.0
  0
ARC
  5
1008
  8
0
 10
171.1785710000000051
 20
157.5933029999999917
 30
0.0
 40
2.3214290000000002
 50
284.2500743473613056
 51
75.7499669999996428
  0
ARC
  5
1009
  8
0
 10
167.4857629999999915
 20
157.5933029999999917
 30
0.0
 40
2.8682169999999991
 50
308.3292880000012133
 51
51.6707119999987725
  0
ARC
  5
100A
  8
0
 10
166.1427740000000028
 20
157.5933029999999917
 30
0.0
 40
3.7119589999999989
 50
322.6884359999999106
 51
37.3115640000001108
  0
ARC
  5
100B
  8
0
 10
165.643527000000006
 20
157.5933029999999917
 30
0.0
 40
3.7119589999999989
 50
322.6884359999999106
 51
37.3115640000001108
  0
ARC
  5
100C
  8
0
 10
162.1206879999998876
 20
157.5933029999999917
 30
0.0
 40
3.416231999999999
 50
318.8052650000000199
 51
41.1947349999999375
  0
ARC
  5
100D
  8
0
 10
162.9032919999999933
 20
157.5933029999999917
 30
0.0
 40
3.416231999999999
 50
318.8052650000000199
 51
41.1947349999999375
  0
ARC
  5
100E
  8
0
 10
163.5914429999999982
 20
157.5933029999999917
 30
0.0
 40
3.416231999999999
 50
318.8052650000000199
 51
41.1947349999999375
  0
ARC
  5
100F
  8
0
 10
164.2795950000000005
 20
157.5933029999999917
 30
0.0
 40
3.416231999999999
 50
318.8052650000000199
 51
41.1947349999999375
  0
ARC
  5
1010
  8
0
 10
164.913772999999992
 20
157.5933029999999917
 30
0.0
 40
3.416231999999999
 50
318.8052650000000199
 51
41.1947349999999375
  0
ARC
  5
1011
  8
0
 10
165.4669930000000022
 20
157.5933029999999917
 30
0.0
 40
3.416231999999999
 50
318.8052650000000199
 51
41.1947349999999375
  0
ARC
  5
1012
  8
0
 10
169.3704869999999971
 20
157.5933029999999917
 30
0.0
 40
2.3214290000000002
 50
284.2500330000003146
 51
75.7499669999996428
  0
ARC
  5
1013
  8
0
 10
169.9237070000000074
 20
157.5933029999999917
 30
0.0
 40
2.3214290000000002
 50
284.2500330000003146
 51
75.7499669999996428
  0
ARC
  5
1014
  8
0
 10
170.4229540000000043
 20
157.5933029999999917
 30
0.0
 40
2.3214290000000002
 50
284.2500330000003146
 51
75.7499669999996428
  0
ARC
  5
1015
  8
0
 10
170.8412419999999088
 20
157.5933029999999917
 30
0.0
 40
2.3214290000000002
 50
284.2500330000003146
 51
75.7499669999996428
  0
LINE
  5
1016
  8
0
 10
170.5
 20
153.8433029999999917
 30
0.0
 11
170.5
 21
155.3433029999999917
 31
0.0
  0
LINE
  5
1017
  8
0
 10
162.0
 20
153.8433029999999917
 30
0.0
 11
170.5
 21
153.8433029999999917
 31
0.0
  0
LINE
  5
1018
  8
0
 10
162.0
 20
152.8433029999999917
 30
0.0
 11
162.0
 21
159.8433029999999917
 31
0.0
  0
LINE
  5
1019
  8
0
 10
162.0
 20
152.8433029999999917
 30
0.0
 11
169.5
 21
152.8433029999999917
 31
0.0
  0
LINE
  5
101A
  8
0
 10
170.5
 20
153.8433029999999917
 30
0.0
 11
169.5
 21
152.8433029999999917
 31
0.0
  0
ARC
  5
101B
  8
0
 10
167.9985039999999969
 20
157.5933029999999917
 30
0.0
 40
2.8682169999999991
 50
308.3292880000012133
 51
51.6707119999987725
  0
ARC
  5
101C
  8
0
 10
162.0480179999998995
 20
157.5933029999999917
 30
0.0
 40
2.8682169999999991
 50
308.3292880000012133
 51
51.6707119999987725
  0
ARC
  5
101D
  8
0
 10
161.2519210000000101
 20
157.5933029999999917
 30
0.0
 40
2.8682169999999991
 50
308.3292880000012133
 51
51.6707119999987725
  0
ARC
  5
101E
  8
0
 10
160.4963040000000092
 20
157.5933029999999917
 30
0.0
 40
2.8682169999999991
 50
308.3292880000012133
 51
51.6707119999987725
  0
ARC
  5
101F
  8
0
 10
159.8351389999999981
 20
157.5933029999999917
 30
0.0
 40
2.8682169999999991
 50
319.0057970000013938
 51
40.9942029999986488
  0
ARC
  5
1020
  8
0
 10
134.1648610000000019
 20
157.5933029999999917
 30
0.0
 40
2.8682169999999991
 50
139.0057970000013086
 51
220.9942029999986062
  0
ARC
  5
1021
  8
0
 10
133.5036959999999908
 20
157.5933029999999917
 30
0.0
 40
2.8682169999999991
 50
128.3292880000012133
 51
231.6707119999987867
  0
ARC
  5
1022
  8
0
 10
132.7480789999999047
 20
157.5933029999999917
 30
0.0
 40
2.8682169999999991
 50
128.3292880000012133
 51
231.6707119999987867
  0
ARC
  5
1023
  8
0
 10
131.9519819999999868
 20
157.5933029999999917
 30
0.0
 40
2.8682169999999991
 50
128.3292880000012133
 51
231.6707119999987867
  0
ARC
  5
1024
  8
0
 10
126.0014959999999036
 20
157.5933029999999917
 30
0.0
 40
2.8682169999999991
 50
128.3292880000012133
 51
231.6707119999987867
  0
LINE
  5
1025
  8
0
 10
123.5
 20
153.8433029999999917
 30
0.0
 11
124.5
 21
152.8433029999999917
 31
0.0
  0
LINE
  5
1026
  8
0
 10
122.2499986875024973
 20
155.3433029999999917
 30
0.0
 11
132.0
 21
155.3433029999999917
 31
0.0
  0
LINE
  5
1027
  8
0
 10
132.0
 20
152.8433029999999917
 30
0.0
 11
124.5
 21
152.8433029999999917
 31
0.0
  0
LINE
  5
1028
  8
0
 10
132.0
 20
152.8433029999999917
 30
0.0
 11
132.0
 21
159.8433029999999917
 31
0.0
  0
LINE
  5
1029
  8
0
 10
132.0
 20
153.8433029999999917
 30
0.0
 11
123.5
 21
153.8433029999999917
 31
0.0
  0
LINE
  5
102A
  8
0
 10
123.5
 20
153.8433029999999917
 30
0.0
 11
123.5
 21
155.3433029999999917
 31
0.0
  0
ARC
  5
102B
  8
0
 10
123.1587580000000059
 20
157.5933029999999917
 30
0.0
 40
2.3214290000000002
 50
104.2500330000003004
 51
255.7499669999996001
  0
ARC
  5
102C
  8
0
 10
123.5770459999999957
 20
157.5933029999999917
 30
0.0
 40
2.3214290000000002
 50
104.2500330000003004
 51
255.7499669999996001
  0
ARC
  5
102D
  8
0
 10
124.0762929999998931
 20
157.5933029999999917
 30
0.0
 40
2.3214290000000002
 50
104.2500330000003004
 51
255.7499669999996001
  0
ARC
  5
102E
  8
0
 10
124.6295130000000029
 20
157.5933029999999917
 30
0.0
 40
2.3214290000000002
 50
104.2500330000003004
 51
255.7499669999996001
  0
ARC
  5
102F
  8
0
 10
128.5330069999999978
 20
157.5933029999999917
 30
0.0
 40
3.416231999999999
 50
138.8052649999999915
 51
221.1947349999998949
  0
ARC
  5
1030
  8
0
 10
129.086227000000008
 20
157.5933029999999917
 30
0.0
 40
3.416231999999999
 50
138.8052649999999915
 51
221.1947349999998949
  0
ARC
  5
1031
  8
0
 10
129.7204049999999995
 20
157.5933029999999917
 30
0.0
 40
3.416231999999999
 50
138.8052649999999915
 51
221.1947349999998949
  0
ARC
  5
1032
  8
0
 10
130.4085570000000018
 20
157.5933029999999917
 30
0.0
 40
3.416231999999999
 50
138.8052649999999915
 51
221.1947349999998949
  0
ARC
  5
1033
  8
0
 10
131.0967080000000067
 20
157.5933029999999917
 30
0.0
 40
3.416231999999999
 50
138.8052649999999915
 51
221.1947349999998949
  0
ARC
  5
1034
  8
0
 10
131.8793119999999988
 20
157.5933029999999917
 30
0.0
 40
3.416231999999999
 50
138.8052649999999915
 51
221.1947349999998949
  0
ARC
  5
1035
  8
0
 10
128.356472999999994
 20
157.5933029999999917
 30
0.0
 40
3.7119589999999989
 50
142.6884359999999106
 51
217.3115640000000894
  0
ARC
  5
1036
  8
0
 10
127.8572259999999972
 20
157.5933029999999917
 30
0.0
 40
3.7119589999999989
 50
142.6884359999999106
 51
217.3115640000000894
  0
ARC
  5
1037
  8
0
 10
126.5142369999998948
 20
157.5933029999999917
 30
0.0
 40
2.8682169999999991
 50
128.3292880000012133
 51
231.6707119999987867
  0
ARC
  5
1038
  8
0
 10
122.8214289999999949
 20
157.5933029999999917
 30
0.0
 40
2.3214290000000002
 50
104.2500330000003004
 51
255.7499256526386944
  0
LINE
  5
19F2
  8
5
 10
118.5
 20
109.6583449999999971
 30
0.0
 11
115.5
 21
109.6583449999999971
 31
0.0
  0
LINE
  5
19F3
  8
5
 10
115.0
 20
109.1583449999999971
 30
0.0
 11
115.0
 21
81.1583449999999971
 31
0.0
  0
LINE
  5
19F4
  8
5
 10
115.5
 20
80.6583449999999971
 30
0.0
 11
118.5
 21
80.6583449999999971
 31
0.0
  0
LINE
  5
19F5
  8
5
 10
178.5
 20
80.6583449999999971
 30
0.0
 11
175.5
 21
80.6583449999999971
 31
0.0
  0
LINE
  5
19F6
  8
5
 10
179.0
 20
109.1583449999999971
 30
0.0
 11
179.0
 21
81.1583449999999971
 31
0.0
  0
LINE
  5
19F7
  8
5
 10
175.5
 20
109.6583449999999971
 30
0.0
 11
178.5
 21
109.6583449999999971
 31
0.0
  0
LINE
  5
19F8
  8
1
 10
147.0
 20
75.6583449999999971
 30
0.0
 11
147.0
 21
119.6583449999999971
 31
0.0
  0
LINE
  5
19F9
  8
0
 10
118.0
 20
80.6583449999999971
 30
0.0
 11
176.0
 21
80.6583449999999971
 31
0.0
  0
LINE
  5
19FA
  8
0
 10
175.0
 20
109.6583449999999971
 30
0.0
 11
159.5
 21
109.6583449999999971
 31
0.0
  0
LINE
  5
19FB
  8
0
 10
175.5
 20
81.1583449999999971
 30
0.0
 11
175.5
 21
109.1583449999999971
 31
0.0
  0
LINE
  5
19FC
  8
0
 10
134.5
 20
109.6583449999999971
 30
0.0
 11
119.0
 21
109.6583449999999971
 31
0.0
  0
LINE
  5
19FD
  8
0
 10
118.5
 20
109.1583449999999971
 30
0.0
 11
118.5
 21
81.1583449999999971
 31
0.0
  0
ARC
  5
19FE
  8
0
 10
119.0
 20
81.1583449999999971
 30
0.0
 40
0.5
 50
180.0
 51
270.0
  0
ARC
  5
19FF
  8
0
 10
119.0
 20
109.1583449999999971
 30
0.0
 40
0.5
 50
90.0
 51
180.0
  0
ARC
  5
1A00
  8
0
 10
175.0
 20
109.1583449999999971
 30
0.0
 40
0.5
 50
0.0
 51
90.0
  0
ARC
  5
1A01
  8
0
 10
175.0
 20
81.1583449999999971
 30
0.0
 40
0.5
 50
270.0
 51
0.0
  0
ARC
  5
1A02
  8
5
 10
115.5
 20
109.1583449999999971
 30
0.0
 40
0.5
 50
90.0
 51
180.0
  0
ARC
  5
1A03
  8
5
 10
115.5
 20
81.1583449999999971
 30
0.0
 40
0.5
 50
180.0
 51
270.0
  0
ARC
  5
1A04
  8
5
 10
178.5
 20
81.1583449999999971
 30
0.0
 40
0.5
 50
270.0
 51
0.0
  0
ARC
  5
1A05
  8
5
 10
178.5
 20
109.1583449999999971
 30
0.0
 40
0.5
 50
0.0
 51
90.0
  0
LINE
  5
1A06
  8
0
 10
128.5
 20
90.6583449999999971
 30
0.0
 11
132.0
 21
90.6583449999999971
 31
0.0
  0
LINE
  5
1A07
  8
0
 10
128.5
 20
100.6583449999999971
 30
0.0
 11
132.0
 21
100.6583449999999971
 31
0.0
  0
ARC
  5
1A08
  8
0
 10
165.5
 20
95.6583449999999971
 30
0.0
 40
5.0
 50
270.0
 51
90.0
  0
ARC
  5
1A09
  8
0
 10
128.5
 20
95.6583449999999971
 30
0.0
 40
5.0
 50
90.0
 51
270.0
  0
LINE
  5
1A0A
  8
0
 10
165.5
 20
90.6583449999999971
 30
0.0
 11
162.0
 21
90.6583449999999971
 31
0.0
  0
LINE
  5
1A0B
  8
0
 10
165.5
 20
100.6583449999999971
 30
0.0
 11
162.0
 21
100.6583449999999971
 31
0.0
  0
LINE
  5
1A0C
  8
0
 10
132.5
 20
105.6583449999999971
 30
0.0
 11
161.5
 21
105.6583449999999971
 31
0.0
  0
LINE
  5
1A0D
  8
0
 10
157.8185550000000035
 20
105.6583449999999971
 30
0.0
 11
159.5
 21
109.6583449999999971
 31
0.0
  0
LINE
  5
1A0E
  8
0
 10
136.1814449999999965
 20
105.6583449999999971
 30
0.0
 11
134.5
 21
109.6583449999999971
 31
0.0
  0
LINE
  5
1A0F
  8
0
 10
165.5
 20
99.6583449999999971
 30
0.0
 11
162.0
 21
99.6583449999999971
 31
0.0
  0
ARC
  5
1A10
  8
0
 10
165.5
 20
95.6583449999999971
 30
0.0
 40
4.0
 50
270.0
 51
90.0
  0
LINE
  5
1A11
  8
0
 10
165.5
 20
91.6583449999999971
 30
0.0
 11
162.0
 21
91.6583449999999971
 31
0.0
  0
LINE
  5
1A12
  8
0
 10
128.5
 20
91.6583449999999971
 30
0.0
 11
132.0
 21
91.6583449999999971
 31
0.0
  0
ARC
  5
1A13
  8
0
 10
128.5
 20
95.6583449999999971
 30
0.0
 40
4.0
 50
90.0
 51
270.0
  0
LINE
  5
1A14
  8
0
 10
128.5
 20
99.6583449999999971
 30
0.0
 11
132.0
 21
99.6583449999999971
 31
0.0
  0
LINE
  5
1A15
  8
0
 10
146.7834939999999904
 20
88.1583449999999971
 30
0.0
 11
146.7834939999999904
 21
90.9418390000000016
 31
0.0
  0
ARC
  5
1A16
  8
0
 10
147.0
 20
90.9418390000000016
 30
0.0
 40
0.216506
 50
0.0
 51
180.0
  0
LINE
  5
1A17
  8
0
 10
147.2165060000000096
 20
88.1583449999999971
 30
0.0
 11
147.2165060000000096
 21
90.9418390000000016
 31
0.0
  0
LINE
  5
1A18
  8
0
 10
148.0261910000000114
 20
88.1583449999999971
 30
0.0
 11
147.7843179999998995
 21
90.9229689999999948
 31
0.0
  0
LINE
  5
1A19
  8
0
 10
148.4608580000000018
 20
88.1583449999999971
 30
0.0
 11
148.2156819999999868
 21
90.9607079999999968
 31
0.0
  0
ARC
  5
1A1A
  8
0
 10
147.9999999435293887
 20
90.9418391454691886
 30
0.0
 40
0.216505850162684
 50
4.9997679156567836
 51
185.0001108525767961
  0
LINE
  5
1A1B
  8
0
 10
149.6725599999998906
 20
88.1583449999999971
 30
0.0
 11
149.285601000000014
 21
90.9117069999999927
 31
0.0
  0
LINE
  5
1A1C
  8
0
 10
150.1098289999999906
 20
88.1583449999999971
 30
0.0
 11
149.7143989999999008
 21
90.9719709999999964
 31
0.0
  0
ARC
  5
1A1D
  8
0
 10
149.5000000066175119
 20
90.9418389529145657
 30
0.0
 40
0.216506047548278
 50
8.0000612168516927
 51
188.0000360507179948
  0
LINE
  5
1A1E
  8
0
 10
147.333493999999888
 20
88.1583449999999971
 30
0.0
 11
147.333493999999888
 21
90.9418390000000016
 31
0.0
  0
LINE
  5
1A1F
  8
0
 10
147.7665059999999926
 20
88.1583449999999971
 30
0.0
 11
147.7665059999999926
 21
90.9418390000000016
 31
0.0
  0
ARC
  5
1A20
  8
0
 10
147.5500000000000114
 20
90.9418390000000016
 30
0.0
 40
0.216506
 50
0.0
 51
180.0
  0
LINE
  5
1A21
  8
0
 10
149.4139920000000075
 20
89.9981560000000087
 30
0.0
 11
148.8014249999999947
 21
88.1583449999999971
 31
0.0
  0
LINE
  5
1A22
  8
0
 10
149.2889649566272965
 20
90.9902029508947692
 30
0.0
 11
148.4369773293331036
 21
88.4313011942932121
 31
0.0
  0
LINE
  5
1A23
  8
0
 10
150.7868714581047982
 20
90.9799321338509088
 30
0.0
 11
150.0720801207710906
 21
88.4269417884815141
 31
0.0
  0
LINE
  5
1A24
  8
0
 10
150.9295749999999998
 20
89.8872800000000041
 30
0.0
 11
150.4455039999999997
 21
88.1583449999999971
 31
0.0
  0
LINE
  5
1A25
  8
0
 10
151.1725600000000043
 20
88.1583449999999971
 30
0.0
 11
150.785601000000014
 21
90.9117069999999927
 31
0.0
  0
LINE
  5
1A26
  8
0
 10
151.6098289999999906
 20
88.1583449999999971
 30
0.0
 11
151.2143989999999008
 21
90.9719709999999964
 31
0.0
  0
LINE
  5
1A27
  8
0
 10
152.286871458104514
 20
90.9799321338493314
 30
0.0
 11
151.5720801207710053
 21
88.4269417884814573
 31
0.0
  0
LINE
  5
1A28
  8
0
 10
152.4295749999999998
 20
89.8872800000000041
 30
0.0
 11
151.9455039999999997
 21
88.1583449999999971
 31
0.0
  0
ARC
  5
1A29
  8
0
 10
151.0000000066175119
 20
90.9418389529145372
 30
0.0
 40
0.2165060475482247
 50
8.0000612168585459
 51
188.0000360507106905
  0
LINE
  5
1A2A
  8
0
 10
152.6725599999998906
 20
88.1583449999999971
 30
0.0
 11
152.285601000000014
 21
90.9117069999999927
 31
0.0
  0
LINE
  5
1A2B
  8
0
 10
153.1098289999999906
 20
88.1583449999999971
 30
0.0
 11
152.7143989999999008
 21
90.9719709999999964
 31
0.0
  0
LINE
  5
1A2C
  8
0
 10
153.786871458104514
 20
90.9799321338494451
 30
0.0
 11
153.0720801207710906
 21
88.4269417884816136
 31
0.0
  0
LINE
  5
1A2D
  8
0
 10
153.9295749999999998
 20
89.8872800000000041
 30
0.0
 11
153.4455039999999997
 21
88.1583449999999971
 31
0.0
  0
ARC
  5
1A2E
  8
0
 10
152.5000000066175119
 20
90.9418389529144946
 30
0.0
 40
0.2165060475482889
 50
8.0000612168723038
 51
188.0000360506973891
  0
LINE
  5
1A2F
  8
0
 10
154.1725599999998906
 20
88.1583449999999971
 30
0.0
 11
153.785601000000014
 21
90.9117069999999927
 31
0.0
  0
LINE
  5
1A30
  8
0
 10
154.6098289999999906
 20
88.1583449999999971
 30
0.0
 11
154.2143989999999008
 21
90.9719709999999964
 31
0.0
  0
LINE
  5
1A31
  8
0
 10
155.2924739685205964
 20
90.9999423861497263
 30
0.0
 11
154.5720801207710906
 21
88.4269417884817557
 31
0.0
  0
LINE
  5
1A32
  8
0
 10
155.4295749999999998
 20
89.8872800000000041
 30
0.0
 11
154.9455039999999997
 21
88.1583449999999971
 31
0.0
  0
ARC
  5
1A33
  8
0
 10
154.0000000066175119
 20
90.941838952914523
 30
0.0
 40
0.216506047548283
 50
8.0000612168601588
 51
188.0000360507079051
  0
LINE
  5
1A34
  8
0
 10
155.6725600000000043
 20
88.1583449999999971
 30
0.0
 11
155.285601000000014
 21
90.9117069999999927
 31
0.0
  0
LINE
  5
1A35
  8
0
 10
156.1098289999999906
 20
88.1583449999999971
 30
0.0
 11
155.7143989999999008
 21
90.9719709999999964
 31
0.0
  0
LINE
  5
1A36
  8
0
 10
156.7924739685205964
 20
90.9999423861497263
 30
0.0
 11
156.0720801207710906
 21
88.4269417884814857
 31
0.0
  0
LINE
  5
1A37
  8
0
 10
156.9295749999999998
 20
89.8872800000000041
 30
0.0
 11
156.4455039999999997
 21
88.1583449999999971
 31
0.0
  0
ARC
  5
1A38
  8
0
 10
155.5000000066173982
 20
90.941838952914523
 30
0.0
 40
0.2165060475483393
 50
8.0000612168581444
 51
188.0000360507112021
  0
LINE
  5
1A39
  8
0
 10
157.1725599999998906
 20
88.1583449999999971
 30
0.0
 11
156.785601000000014
 21
90.9117069999999927
 31
0.0
  0
LINE
  5
1A3A
  8
0
 10
157.6098289999999906
 20
88.1583449999999971
 30
0.0
 11
157.2143989999999008
 21
90.9719709999999964
 31
0.0
  0
LINE
  5
1A3B
  8
0
 10
158.2868714581042866
 20
90.9799321338481377
 30
0.0
 11
157.5720801207710906
 21
88.4269417884815283
 31
0.0
  0
LINE
  5
1A3C
  8
0
 10
158.4295749999999998
 20
89.8872800000000041
 30
0.0
 11
157.9455039999999997
 21
88.1583449999999971
 31
0.0
  0
ARC
  5
1A3D
  8
0
 10
157.0000000066175971
 20
90.9418389529145372
 30
0.0
 40
0.2165060475481674
 50
8.0000612168589509
 51
188.0000360507106905
  0
LINE
  5
1A3E
  8
0
 10
158.6725600000000043
 20
88.1583449999999971
 30
0.0
 11
158.285601000000014
 21
90.9117069999999927
 31
0.0
  0
LINE
  5
1A3F
  8
0
 10
159.1098289999999906
 20
88.1583449999999971
 30
0.0
 11
158.7143989999999008
 21
90.9719709999999964
 31
0.0
  0
LINE
  5
1A40
  8
0
 10
159.7868714581042866
 20
90.979932133848223
 30
0.0
 11
159.0720801207712043
 21
88.4269417884815283
 31
0.0
  0
LINE
  5
1A41
  8
0
 10
159.9295749999999998
 20
89.8872800000000041
 30
0.0
 11
159.4455039999999997
 21
88.1583449999999971
 31
0.0
  0
ARC
  5
1A42
  8
0
 10
158.5000000066175119
 20
90.941838952914452
 30
0.0
 40
0.2165060475482919
 50
8.000061216877544
 51
188.0000360506921879
  0
LINE
  5
1A43
  8
0
 10
160.1725599999998906
 20
88.1583449999999971
 30
0.0
 11
159.785601000000014
 21
90.9117069999999927
 31
0.0
  0
LINE
  5
1A44
  8
0
 10
160.6098289999999906
 20
88.1583449999999971
 30
0.0
 11
160.2143989999999008
 21
90.9719709999999964
 31
0.0
  0
LINE
  5
1A45
  8
0
 10
161.2868714581045992
 20
90.9799321338501272
 30
0.0
 11
160.5720801207708917
 21
88.4269417884815283
 31
0.0
  0
LINE
  5
1A46
  8
0
 10
161.4295749999999998
 20
89.8872800000000041
 30
0.0
 11
160.9455039999999997
 21
88.1583449999999971
 31
0.0
  0
ARC
  5
1A47
  8
0
 10
160.0000000066175119
 20
90.9418389529144946
 30
0.0
 40
0.216506047548284
 50
8.0000612168621732
 51
188.0000360507063135
  0
LINE
  5
1A48
  8
0
 10
161.6725599999998906
 20
88.1583449999999971
 30
0.0
 11
161.285601000000014
 21
90.9117069999999927
 31
0.0
  0
LINE
  5
1A49
  8
0
 10
162.215707000000009
 20
87.4049830000000014
 30
0.0
 11
161.7143989999999008
 21
90.9719709999999964
 31
0.0
  0
LINE
  5
1A4A
  8
0
 10
162.6957949999998903
 20
90.6583449999999971
 30
0.0
 11
162.071732921322706
 21
88.4294107189922158
 31
0.0
  0
LINE
  5
1A4B
  8
0
 10
162.9292274145684019
 20
89.8897475497113447
 30
0.0
 11
162.2144370360400103
 21
87.3367631827021569
 31
0.0
  0
ARC
  5
1A4C
  8
0
 10
162.0013063232964896
 20
87.374852502890235
 30
0.0
 40
0.2165074987776412
 50
269.6542971207521759
 51
7.999593031021945
  0
ARC
  5
1A4D
  8
0
 10
161.5000000066175119
 20
90.9418389529144946
 30
0.0
 40
0.216506047548284
 50
8.0000612168621732
 51
188.0000360507063135
  0
LINE
  5
1A4E
  8
0
 10
163.286908000000011
 20
87.3447199999999953
 30
0.0
 11
162.8212080000000128
 21
90.6583449999999971
 31
0.0
  0
LINE
  5
1A4F
  8
0
 10
163.715707000000009
 20
87.4049830000000014
 30
0.0
 11
163.2584769999999992
 21
90.6583449999999971
 31
0.0
  0
ARC
  5
1A50
  8
0
 10
132.4999999933824881
 20
90.9418389529144235
 30
0.0
 40
0.2165060475482933
 50
351.9999639493129848
 51
171.9999387831171873
  0
ARC
  5
1A51
  8
0
 10
131.9986936767033114
 20
87.374852502890235
 30
0.0
 40
0.2165074987776081
 50
172.0004069689732091
 51
270.3458005212672788
  0
LINE
  5
1A52
  8
0
 10
131.784292999999991
 20
87.4049830000000014
 30
0.0
 11
132.285601000000014
 21
90.9719709999999964
 31
0.0
  0
LINE
  5
1A53
  8
0
 10
132.3274399999999957
 20
88.1583449999999971
 30
0.0
 11
132.7143989999999008
 21
90.9117069999999927
 31
0.0
  0
ARC
  5
1A54
  8
0
 10
133.9999999933824029
 20
90.9418389529144946
 30
0.0
 40
0.2165060475483546
 50
351.9999639493058226
 51
171.9999387831240938
  0
LINE
  5
1A55
  8
0
 10
132.5704250000000002
 20
89.8872800000000041
 30
0.0
 11
133.0544959999998866
 21
88.1583449999999971
 31
0.0
  0
LINE
  5
1A56
  8
0
 10
132.713128541895486
 20
90.9799321338492462
 30
0.0
 11
133.4279198792289094
 21
88.4269417884815709
 31
0.0
  0
LINE
  5
1A57
  8
0
 10
133.3901710000000094
 20
88.1583449999999971
 30
0.0
 11
133.785601000000014
 21
90.9719709999999964
 31
0.0
  0
LINE
  5
1A58
  8
0
 10
133.8274399999999957
 20
88.1583449999999971
 30
0.0
 11
134.2143989999999008
 21
90.9117069999999927
 31
0.0
  0
ARC
  5
1A59
  8
0
 10
135.4999999933824881
 20
90.9418389529144093
 30
0.0
 40
0.2165060475482924
 50
351.9999639493158838
 51
171.9999387831155957
  0
LINE
  5
1A5A
  8
0
 10
134.0704250000000002
 20
89.8872800000000041
 30
0.0
 11
134.5544960000000003
 21
88.1583449999999971
 31
0.0
  0
LINE
  5
1A5B
  8
0
 10
134.213128541895486
 20
90.979932133849104
 30
0.0
 11
134.9279198792289094
 21
88.4269417884816136
 31
0.0
  0
LINE
  5
1A5C
  8
0
 10
134.8901710000000094
 20
88.1583449999999971
 30
0.0
 11
135.285601000000014
 21
90.9719709999999964
 31
0.0
  0
LINE
  5
1A5D
  8
0
 10
135.3274399999999957
 20
88.1583449999999971
 30
0.0
 11
135.7143989999999008
 21
90.9117069999999927
 31
0.0
  0
ARC
  5
1A5E
  8
0
 10
136.9999999933824881
 20
90.941838952914452
 30
0.0
 40
0.2165060475482963
 50
351.9999639493074142
 51
171.9999387831223885
  0
LINE
  5
1A5F
  8
0
 10
135.5704250000000002
 20
89.8872800000000041
 30
0.0
 11
136.0544959999998866
 21
88.1583449999999971
 31
0.0
  0
LINE
  5
1A60
  8
0
 10
135.713128541895486
 20
90.9799321338492462
 30
0.0
 11
136.4279198792287957
 21
88.4269417884816846
 31
0.0
  0
LINE
  5
1A61
  8
0
 10
136.3901710000000094
 20
88.1583449999999971
 30
0.0
 11
136.785601000000014
 21
90.9719709999999964
 31
0.0
  0
LINE
  5
1A62
  8
0
 10
136.8274399999999957
 20
88.1583449999999971
 30
0.0
 11
137.2143989999999008
 21
90.9117069999999927
 31
0.0
  0
ARC
  5
1A63
  8
0
 10
138.4999999933826018
 20
90.9418389529144235
 30
0.0
 40
0.2165060475482371
 50
351.9999639493109953
 51
171.9999387831192053
  0
LINE
  5
1A64
  8
0
 10
137.0704250000000002
 20
89.8872800000000041
 30
0.0
 11
137.5544960000000003
 21
88.1583449999999971
 31
0.0
  0
LINE
  5
1A65
  8
0
 10
137.213128541895486
 20
90.9799321338492462
 30
0.0
 11
137.9279198792289094
 21
88.4269417884814573
 31
0.0
  0
LINE
  5
1A66
  8
0
 10
137.8901710000000094
 20
88.1583449999999971
 30
0.0
 11
138.285601000000014
 21
90.9719709999999964
 31
0.0
  0
LINE
  5
1A67
  8
0
 10
138.3274399999999957
 20
88.1583449999999971
 30
0.0
 11
138.7143989999999008
 21
90.9117069999999927
 31
0.0
  0
ARC
  5
1A68
  8
0
 10
139.9999999933824881
 20
90.9418389529144093
 30
0.0
 40
0.2165060475482924
 50
351.9999639493158838
 51
171.9999387831155957
  0
LINE
  5
1A69
  8
0
 10
138.5704250000000002
 20
89.8872800000000041
 30
0.0
 11
139.0544959999998866
 21
88.1583449999999971
 31
0.0
  0
LINE
  5
1A6A
  8
0
 10
138.7131285418954008
 20
90.9799321338493741
 30
0.0
 11
139.4279198792289094
 21
88.4269417884816136
 31
0.0
  0
LINE
  5
1A6B
  8
0
 10
139.3901710000000094
 20
88.1583449999999971
 30
0.0
 11
139.785601000000014
 21
90.9719709999999964
 31
0.0
  0
LINE
  5
1A6C
  8
0
 10
139.8274399999999957
 20
88.1583449999999971
 30
0.0
 11
140.2143989999999008
 21
90.9117069999999927
 31
0.0
  0
ARC
  5
1A6D
  8
0
 10
141.4999999933824881
 20
90.9418389529144093
 30
0.0
 40
0.2165060475482894
 50
351.9999639493211134
 51
171.9999387831103093
  0
LINE
  5
1A6E
  8
0
 10
140.0704250000000002
 20
89.8872800000000041
 30
0.0
 11
140.5544960000000003
 21
88.1583449999999971
 31
0.0
  0
LINE
  5
1A6F
  8
0
 10
140.213128541895486
 20
90.9799321338492462
 30
0.0
 11
140.9279198792287957
 21
88.426941788481372
 31
0.0
  0
LINE
  5
1A70
  8
0
 10
140.8901710000000094
 20
88.1583449999999971
 30
0.0
 11
141.285601000000014
 21
90.9719709999999964
 31
0.0
  0
LINE
  5
1A71
  8
0
 10
141.3274399999999957
 20
88.1583449999999971
 30
0.0
 11
141.7143989999999008
 21
90.9117069999999927
 31
0.0
  0
ARC
  5
1A72
  8
0
 10
142.9999999933824881
 20
90.9418389529144093
 30
0.0
 40
0.2165060475482913
 50
351.9999639493178734
 51
171.9999387831140041
  0
LINE
  5
1A73
  8
0
 10
141.5704250000000002
 20
89.8872800000000041
 30
0.0
 11
142.0544959999998866
 21
88.1583449999999971
 31
0.0
  0
LINE
  5
1A74
  8
0
 10
141.713128541895486
 20
90.9799321338492604
 30
0.0
 11
142.4279198792287957
 21
88.4269417884814999
 31
0.0
  0
LINE
  5
1A75
  8
0
 10
142.3901710000000094
 20
88.1583449999999971
 30
0.0
 11
142.785601000000014
 21
90.9719709999999964
 31
0.0
  0
LINE
  5
1A76
  8
0
 10
142.8274399999999957
 20
88.1583449999999971
 30
0.0
 11
143.2143989999999008
 21
90.9117069999999927
 31
0.0
  0
LINE
  5
1A77
  8
0
 10
143.0704250000000002
 20
89.8872800000000041
 30
0.0
 11
143.5544959999998866
 21
88.1583449999999971
 31
0.0
  0
LINE
  5
1A78
  8
0
 10
143.213128541895486
 20
90.9799321338492462
 30
0.0
 11
143.9279198792287957
 21
88.4269417884815283
 31
0.0
  0
LINE
  5
1A79
  8
0
 10
144.7110350433725046
 20
90.9902029508954797
 30
0.0
 11
145.5630226706668964
 21
88.4313011942932263
 31
0.0
  0
LINE
  5
1A7A
  8
0
 10
144.5860079999999925
 20
89.9981560000000087
 30
0.0
 11
145.1985750000000053
 21
88.1583449999999971
 31
0.0
  0
ARC
  5
1A7B
  8
0
 10
146.4499999999999886
 20
90.9418390000000016
 30
0.0
 40
0.216506
 50
0.0
 51
180.0
  0
LINE
  5
1A7C
  8
0
 10
146.2334940000000074
 20
88.1583449999999971
 30
0.0
 11
146.2334940000000074
 21
90.9418390000000016
 31
0.0
  0
LINE
  5
1A7D
  8
0
 10
146.6665059999999983
 20
88.1583449999999971
 30
0.0
 11
146.6665059999999983
 21
90.9418390000000016
 31
0.0
  0
ARC
  5
1A7E
  8
0
 10
144.4999999933824881
 20
90.9418389529144093
 30
0.0
 40
0.2165060475482351
 50
351.9999639493158838
 51
171.9999387831155957
  0
LINE
  5
1A7F
  8
0
 10
143.8901710000000094
 20
88.1583449999999971
 30
0.0
 11
144.285601000000014
 21
90.9719709999999964
 31
0.0
  0
LINE
  5
1A80
  8
0
 10
144.3274399999999957
 20
88.1583449999999971
 30
0.0
 11
144.7143989999999008
 21
90.9117069999999927
 31
0.0
  0
ARC
  5
1A81
  8
0
 10
146.0000000564704976
 20
90.9418391454691033
 30
0.0
 40
0.2165058501627221
 50
354.999889147445117
 51
175.0002320843213113
  0
LINE
  5
1A82
  8
0
 10
145.539141999999913
 20
88.1583449999999971
 30
0.0
 11
145.7843180000000132
 21
90.9607079999999968
 31
0.0
  0
LINE
  5
1A83
  8
0
 10
145.9738089999999886
 20
88.1583449999999971
 30
0.0
 11
146.2156819999999868
 21
90.9229689999999948
 31
0.0
  0
ARC
  5
1A84
  8
0
 10
173.2799999999998875
 20
95.6583449999999971
 30
0.0
 40
0.22
 50
270.0
 51
90.0
  0
LINE
  5
1A85
  8
0
 10
173.2799999999998875
 20
95.8783449999999959
 30
0.0
 11
170.4951580000000035
 21
95.8783449999999959
 31
0.0
  0
LINE
  5
1A86
  8
0
 10
173.2799999999998875
 20
95.4383449999999982
 30
0.0
 11
170.4951580000000035
 21
95.4383449999999982
 31
0.0
  0
LINE
  5
1A87
  8
0
 10
170.854660999999993
 20
95.4383449999999982
 30
0.0
 11
173.2039914504647129
 21
94.5232795280842595
 31
0.0
  0
LINE
  5
1A88
  8
0
 10
170.4706710000000101
 20
95.1175790000000063
 30
0.0
 11
171.002869000000004
 21
94.9114349999999831
 31
0.0
  0
LINE
  5
1A89
  8
0
 10
170.735108999999909
 20
94.5118599999999844
 30
0.0
 11
172.889852008781304
 21
93.2027384830117001
 31
0.0
  0
LINE
  5
1A8A
  8
0
 10
170.3012519999998915
 20
94.2626459999999895
 30
0.0
 11
170.7895680000000027
 21
93.9672190000000143
 31
0.0
  0
LINE
  5
1A8B
  8
0
 10
172.3511692385054062
 20
91.9568122188264141
 30
0.0
 11
170.4564909999999998
 21
93.6202109999999834
 31
0.0
  0
LINE
  5
1A8C
  8
0
 10
169.9859500000000025
 20
93.4501209999999958
 30
0.0
 11
170.4155470000000037
 21
93.0743870000000015
 31
0.0
  0
LINE
  5
1A8D
  8
0
 10
170.0272730000000081
 20
92.790489000000008
 30
0.0
 11
171.6043242265124036
 21
90.8233493161154115
 31
0.0
  0
LINE
  5
1A8E
  8
0
 10
169.8921689999999103
 20
92.2600670000000065
 30
0.0
 11
169.5343440000000044
 21
92.7046919999999943
 31
0.0
  0
LINE
  5
1A8F
  8
0
 10
169.235336999999987
 20
91.5490029999999848
 30
0.0
 11
168.9601569999998958
 21
92.0490080000000006
 31
0.0
  0
LINE
  5
1A90
  8
0
 10
170.6719969895526106
 20
89.8368000814344043
 30
0.0
 11
169.4604950000000088
 21
92.0479049999999859
 31
0.0
  0
LINE
  5
1A91
  8
0
 10
168.4650090000000091
 20
90.9627979999999923
 30
0.0
 11
168.2808349999999962
 21
91.5029920000000061
 31
0.0
  0
LINE
  5
1A92
  8
0
 10
169.5825208309761933
 20
89.0271371057988858
 30
0.0
 11
168.7733799999998894
 21
91.415023000000005
 31
0.0
  0
LINE
  5
1A93
  8
0
 10
167.5170180000000073
 20
91.0832339999999903
 30
0.0
 11
167.6045909999999992
 21
90.5192659999999876
 31
0.0
  0
LINE
  5
1A94
  8
0
 10
168.3690013607929927
 20
88.4189560779451398
 30
0.0
 11
167.9868050000000039
 21
90.9110719999999901
 31
0.0
  0
LINE
  5
1A95
  8
0
 10
166.7907542960923877
 20
87.7667153839544483
 30
0.0
 11
167.0606650000000002
 21
90.7272159999999843
 31
0.0
  0
LINE
  5
1A96
  8
0
 10
166.502523999999994
 20
89.4061470000000043
 30
0.0
 11
166.6259629999998992
 21
90.7867739999999941
 31
0.0
  0
LINE
  5
1A97
  8
0
 10
165.215641865526095
 20
87.3442602115413962
 30
0.0
 11
165.9126103420545917
 21
90.2178556850312816
 31
0.0
  0
LINE
  5
1A98
  8
0
 10
165.0572540000000004
 20
88.5324329999999975
 30
0.0
 11
165.5690880816202082
 21
90.6588223390874504
 31
0.0
  0
ARC
  5
1A99
  8
0
 10
166.5715964375764884
 20
87.7474868540217585
 30
0.0
 40
0.2199997802558934
 50
190.0000775094599987
 51
9.9998902650586725
  0
LINE
  5
1A9A
  8
0
 10
166.3549390000000017
 20
87.7092839999999967
 30
0.0
 11
165.8329830000000129
 21
90.6694449999999961
 31
0.0
  0
LINE
  5
1A9B
  8
0
 10
166.7882539999999949
 20
87.785689000000005
 30
0.0
 11
166.2711779999999067
 21
90.718174999999988
 31
0.0
  0
ARC
  5
1A9C
  8
0
 10
168.1609166715078061
 20
88.3475360287862657
 30
0.0
 40
0.2200001394016727
 50
199.999875165451698
 51
20.0001363586192902
  0
LINE
  5
1A9D
  8
0
 10
167.9541839999999979
 20
88.2722920000000073
 30
0.0
 11
167.0017119999999977
 21
90.8891880000000043
 31
0.0
  0
LINE
  5
1A9E
  8
0
 10
168.3676490000000001
 20
88.4227809999999863
 30
0.0
 11
167.4151769999998862
 21
91.0396769999999975
 31
0.0
  0
ARC
  5
1A9F
  8
0
 10
169.3899998219594067
 20
88.9206673083759824
 30
0.0
 40
0.2200003560817837
 50
210.0000391949392906
 51
29.9998537227022304
  0
LINE
  5
1AA0
  8
0
 10
169.1994740000000093
 20
88.8106670000000094
 30
0.0
 11
167.8070529999999962
 21
91.2224120000000056
 31
0.0
  0
LINE
  5
1AA1
  8
0
 10
169.5805259999999919
 20
89.0306670000000082
 30
0.0
 11
168.1881040000000098
 21
91.4424120000000045
 31
0.0
  0
ARC
  5
1AA2
  8
0
 10
170.5008879961013122
 20
89.6985189087712342
 30
0.0
 40
0.2199999326205548
 50
219.999890511649113
 51
40.0002925173560797
  0
LINE
  5
1AA3
  8
0
 10
170.3323579999999993
 20
89.5571060000000045
 30
0.0
 11
168.542295999999908
 21
91.6904189999999915
 31
0.0
  0
LINE
  5
1AA4
  8
0
 10
170.6694169999998962
 20
89.8399329999999878
 30
0.0
 11
168.8793550000000039
 21
91.973245999999989
 31
0.0
  0
ARC
  5
1AA5
  8
0
 10
171.4598260912287913
 20
90.6574570038985428
 30
0.0
 40
0.219999932620679
 50
229.9997074826275139
 51
50.0001094883910824
  0
LINE
  5
1AA6
  8
0
 10
171.318411999999995
 20
90.4889280000000014
 30
0.0
 11
169.1850990000000081
 21
92.2789899999999932
 31
0.0
  0
LINE
  5
1AA7
  8
0
 10
171.6012389999999073
 20
90.8259869999999978
 30
0.0
 11
169.4679260000000056
 21
92.6160490000000038
 31
0.0
  0
ARC
  5
1AA8
  8
0
 10
172.2376776916242136
 20
91.7683451780404624
 30
0.0
 40
0.2200003560818132
 50
240.0001462772511047
 51
59.9999608051155917
  0
LINE
  5
1AA9
  8
0
 10
172.1276780000000031
 20
91.577818999999991
 30
0.0
 11
169.7159330000000068
 21
92.9702409999999873
 31
0.0
  0
LINE
  5
1AAA
  8
0
 10
172.3476779999998882
 20
91.958871000000002
 30
0.0
 11
169.9359330000000057
 21
93.3512920000000008
 31
0.0
  0
ARC
  5
1AAB
  8
0
 10
172.8108089712133051
 20
92.9974283284923331
 30
0.0
 40
0.2200001394016792
 50
249.99986364148549
 51
70.0001248344287603
  0
LINE
  5
1AAC
  8
0
 10
172.7355639999998971
 20
92.790695999999997
 30
0.0
 11
170.1186679999999001
 21
93.7431679999999972
 31
0.0
  0
LINE
  5
1AAD
  8
0
 10
172.886053000000004
 20
93.2041609999999991
 30
0.0
 11
170.269157000000007
 21
94.1566329999999994
 31
0.0
  0
ARC
  5
1AAE
  8
0
 10
173.1618043169885084
 20
94.3073625322697353
 30
0.0
 40
0.2199997802555776
 50
260.0000645107293735
 51
79.9999677147445283
  0
LINE
  5
1AAF
  8
0
 10
173.1236020000000053
 20
94.0907049999999998
 30
0.0
 11
170.3810670000000016
 21
94.574286999999984
 31
0.0
  0
LINE
  5
1AB0
  8
0
 10
173.2000069999999994
 20
94.524019999999993
 30
0.0
 11
170.4574729999999931
 21
95.0076030000000031
 31
0.0
  0
LINE
  5
1AB1
  8
0
 10
173.2799999999998875
 20
95.8783449999999959
 30
0.0
 11
170.4951580000000035
 21
95.8783449999999959
 31
0.0
  0
LINE
  5
1AB2
  8
0
 10
173.2799999999998875
 20
95.4383449999999982
 30
0.0
 11
170.4951580000000035
 21
95.4383449999999982
 31
0.0
  0
ARC
  5
1AB3
  8
0
 10
173.2799999999998875
 20
95.6583449999999971
 30
0.0
 40
0.22
 50
270.0
 51
90.0
  0
LINE
  5
1AB4
  8
0
 10
164.786908000000011
 20
87.3447199999999953
 30
0.0
 11
164.3212080000000128
 21
90.6583449999999971
 31
0.0
  0
LINE
  5
1AB5
  8
0
 10
165.215707000000009
 20
87.4049830000000014
 30
0.0
 11
164.7584769999999139
 21
90.6583449999999971
 31
0.0
  0
ARC
  5
1AB6
  8
0
 10
165.0013074933827113
 20
87.3748515470852141
 30
0.0
 40
0.2165064730960302
 50
187.9999117702948865
 51
7.9998866043449111
  0
LINE
  5
1AB7
  8
0
 10
164.4292274145684019
 20
89.8897475497112453
 30
0.0
 11
163.7144378625199863
 21
87.3367661346032662
 31
0.0
  0
LINE
  5
1AB8
  8
0
 10
164.1957950000000039
 20
90.6583449999999971
 30
0.0
 11
163.5717329999999947
 21
88.4294110000000018
 31
0.0
  0
ARC
  5
1AB9
  8
0
 10
163.5013074933827113
 20
87.3748515470852141
 30
0.0
 40
0.2165064730960865
 50
187.999911770292897
 51
7.9998866043469272
  0
ARC
  5
1ABA
  8
0
 10
130.4986925066172034
 20
87.3748515470842761
 30
0.0
 40
0.2165064730961102
 50
172.0001133954081922
 51
352.000088229950677
  0
LINE
  5
1ABB
  8
0
 10
129.8042049999999961
 20
90.6583449999999971
 30
0.0
 11
130.4282670000000053
 21
88.4294110000000018
 31
0.0
  0
LINE
  5
1ABC
  8
0
 10
129.5707725854315129
 20
89.8897475497114158
 30
0.0
 11
130.2855621374793884
 21
87.3367661346051705
 31
0.0
  0
ARC
  5
1ABD
  8
0
 10
128.9986925066170897
 20
87.3748515470842761
 30
0.0
 40
0.2165064730960529
 50
172.0001133954077943
 51
352.0000882299502791
  0
LINE
  5
1ABE
  8
0
 10
128.784292999999991
 20
87.4049830000000014
 30
0.0
 11
129.2415230000000008
 21
90.6583449999999971
 31
0.0
  0
LINE
  5
1ABF
  8
0
 10
129.2130919999999037
 20
87.3447199999999953
 30
0.0
 11
129.6787919999999872
 21
90.6583449999999971
 31
0.0
  0
ARC
  5
1AC0
  8
0
 10
120.7199999999999989
 20
95.6583449999999971
 30
0.0
 40
0.22
 50
90.0
 51
270.0
  0
LINE
  5
1AC1
  8
0
 10
120.7199999999999989
 20
95.4383449999999982
 30
0.0
 11
123.5048419999999965
 21
95.4383449999999982
 31
0.0
  0
LINE
  5
1AC2
  8
0
 10
120.7199999999999989
 20
95.8783449999999959
 30
0.0
 11
123.5048419999999965
 21
95.8783449999999959
 31
0.0
  0
LINE
  5
1AC3
  8
0
 10
120.7999929999999011
 20
94.524019999999993
 30
0.0
 11
123.5425270000000069
 21
95.0076030000000031
 31
0.0
  0
LINE
  5
1AC4
  8
0
 10
120.8763979999999947
 20
94.0907049999999998
 30
0.0
 11
123.6189329999999984
 21
94.574286999999984
 31
0.0
  0
ARC
  5
1AC5
  8
0
 10
120.8381956830119037
 20
94.3073625322699343
 30
0.0
 40
0.2199997802556178
 50
100.0000322853778982
 51
279.9999354891450025
  0
LINE
  5
1AC6
  8
0
 10
121.113946999999996
 20
93.2041609999999991
 30
0.0
 11
123.730842999999993
 21
94.1566329999999994
 31
0.0
  0
LINE
  5
1AC7
  8
0
 10
121.2644360000000034
 20
92.790695999999997
 30
0.0
 11
123.8813320000000004
 21
93.7431679999999972
 31
0.0
  0
ARC
  5
1AC8
  8
0
 10
121.1891910287861975
 20
92.997428328492191
 30
0.0
 40
0.2200001394016192
 50
109.999875165435995
 51
290.0001363586392245
  0
LINE
  5
1AC9
  8
0
 10
121.6523219999999981
 20
91.958871000000002
 30
0.0
 11
124.0640669999999943
 21
93.3512920000000008
 31
0.0
  0
LINE
  5
1ACA
  8
0
 10
121.8723219999999969
 20
91.577818999999991
 30
0.0
 11
124.2840669999999932
 21
92.9702409999999873
 31
0.0
  0
ARC
  5
1ACB
  8
0
 10
121.7623223083759996
 20
91.7683451780405761
 30
0.0
 40
0.2200003560818271
 50
120.0000391949483998
 51
299.9998537226809958
  0
LINE
  5
1ACC
  8
0
 10
122.3987609999999933
 20
90.8259869999999978
 30
0.0
 11
124.5320739999998949
 21
92.6160490000000038
 31
0.0
  0
LINE
  5
1ACD
  8
0
 10
122.6815879999999055
 20
90.4889280000000014
 30
0.0
 11
124.8149010000000061
 21
92.2789899999999932
 31
0.0
  0
ARC
  5
1ACE
  8
0
 10
122.5401739087711945
 20
90.6574570038985144
 30
0.0
 40
0.2199999326206307
 50
129.9998905116046046
 51
310.0002925173724861
  0
LINE
  5
1ACF
  8
0
 10
123.3305830000000043
 20
89.8399329999999878
 30
0.0
 11
125.1206449999998966
 21
91.973245999999989
 31
0.0
  0
LINE
  5
1AD0
  8
0
 10
123.6676420000000007
 20
89.5571060000000045
 30
0.0
 11
125.4577040000000068
 21
91.6904189999999915
 31
0.0
  0
ARC
  5
1AD1
  8
0
 10
123.4991120038985031
 20
89.6985189087713053
 30
0.0
 40
0.2199999326205987
 50
139.9997074826436005
 51
320.0001094883609767
  0
LINE
  5
1AD2
  8
0
 10
124.4194739999998944
 20
89.0306670000000082
 30
0.0
 11
125.8118960000000044
 21
91.4424120000000045
 31
0.0
  0
LINE
  5
1AD3
  8
0
 10
124.800526000000005
 20
88.8106670000000094
 30
0.0
 11
126.1929470000000038
 21
91.2224120000000056
 31
0.0
  0
ARC
  5
1AD4
  8
0
 10
124.6100001780403943
 20
88.920667308375883
 30
0.0
 40
0.2200003560817601
 50
150.0001462772632124
 51
329.9999608051014093
  0
LINE
  5
1AD5
  8
0
 10
125.6323509999999004
 20
88.4227809999999863
 30
0.0
 11
126.5848230000000001
 21
91.0396769999999975
 31
0.0
  0
LINE
  5
1AD6
  8
0
 10
126.0458160000000021
 20
88.2722920000000073
 30
0.0
 11
126.9982880000000023
 21
90.8891880000000043
 31
0.0
  0
ARC
  5
1AD7
  8
0
 10
125.8390833284922934
 20
88.3475360287867204
 30
0.0
 40
0.2200001394016907
 50
159.999863641504902
 51
340.0001248344258897
  0
LINE
  5
1AD8
  8
0
 10
127.2117460000000051
 20
87.785689000000005
 30
0.0
 11
127.7288219999998944
 21
90.718174999999988
 31
0.0
  0
LINE
  5
1AD9
  8
0
 10
127.6450609999999983
 20
87.7092839999999967
 30
0.0
 11
128.1670169999999871
 21
90.6694449999999961
 31
0.0
  0
ARC
  5
1ADA
  8
0
 10
127.4284035624235969
 20
87.7474868540223554
 30
0.0
 40
0.2199997802558935
 50
170.0001097351070882
 51
349.9999224903733079
  0
LINE
  5
1ADB
  8
0
 10
128.9427459999999996
 20
88.5324329999999975
 30
0.0
 11
128.4309120000000064
 21
90.6588220000000007
 31
0.0
  0
LINE
  5
1ADC
  8
0
 10
128.7843581344733082
 20
87.344260211543201
 30
0.0
 11
128.0873896579452946
 21
90.2178556850314664
 31
0.0
  0
LINE
  5
1ADD
  8
0
 10
127.497476000000006
 20
89.4061470000000043
 30
0.0
 11
127.3740370000000013
 21
90.7867739999999941
 31
0.0
  0
LINE
  5
1ADE
  8
0
 10
127.2092457039075981
 20
87.7667153839537946
 30
0.0
 11
126.9393349999999998
 21
90.7272159999999843
 31
0.0
  0
LINE
  5
1ADF
  8
0
 10
125.6309986392069931
 20
88.4189560779452108
 30
0.0
 11
126.0131949999999961
 21
90.9110719999999901
 31
0.0
  0
LINE
  5
1AE0
  8
0
 10
126.4829820000000069
 20
91.0832339999999903
 30
0.0
 11
126.3954090000000008
 21
90.5192659999999876
 31
0.0
  0
LINE
  5
1AE1
  8
0
 10
124.4174791690238067
 20
89.0271371057990848
 30
0.0
 11
125.2266199999999969
 21
91.415023000000005
 31
0.0
  0
LINE
  5
1AE2
  8
0
 10
125.5349910000000051
 20
90.9627979999999923
 30
0.0
 11
125.7191649999999044
 21
91.5029920000000061
 31
0.0
  0
LINE
  5
1AE3
  8
0
 10
123.3280030104481
 20
89.8368000814356833
 30
0.0
 11
124.5395050000000055
 21
92.0479049999999859
 31
0.0
  0
LINE
  5
1AE4
  8
0
 10
124.7646629999999988
 20
91.5490029999999848
 30
0.0
 11
125.0398430000000047
 21
92.0490080000000006
 31
0.0
  0
LINE
  5
1AE5
  8
0
 10
124.1078310000000045
 20
92.2600670000000065
 30
0.0
 11
124.4656559999999956
 21
92.7046919999999943
 31
0.0
  0
LINE
  5
1AE6
  8
0
 10
123.9727270000000061
 20
92.790489000000008
 30
0.0
 11
122.3956757734869996
 21
90.8233493161148431
 31
0.0
  0
LINE
  5
1AE7
  8
0
 10
124.0140499999999975
 20
93.4501209999999958
 30
0.0
 11
123.5844529999999963
 21
93.0743870000000015
 31
0.0
  0
LINE
  5
1AE8
  8
0
 10
121.6488307614945938
 20
91.9568122188264852
 30
0.0
 11
123.5435090000000002
 21
93.6202109999999834
 31
0.0
  0
LINE
  5
1AE9
  8
0
 10
123.6987479999999948
 20
94.2626459999999895
 30
0.0
 11
123.2104319999999973
 21
93.9672190000000143
 31
0.0
  0
LINE
  5
1AEA
  8
0
 10
123.2648909999999063
 20
94.5118599999999844
 30
0.0
 11
121.110147991218696
 21
93.2027384830117569
 31
0.0
  0
LINE
  5
1AEB
  8
0
 10
123.5293290000000042
 20
95.1175790000000063
 30
0.0
 11
122.997130999999996
 21
94.9114349999999831
 31
0.0
  0
LINE
  5
1AEC
  8
0
 10
123.1453389999998933
 20
95.4383449999999982
 30
0.0
 11
120.7960085495358982
 21
94.5232795280845153
 31
0.0
  0
LINE
  5
1AED
  8
0
 10
125.5349910000000051
 20
100.3538920000000019
 30
0.0
 11
125.7191649999999044
 21
99.8136980000000165
 31
0.0
  0
LINE
  5
1AEE
  8
0
 10
126.4829820000000069
 20
100.2334560000000039
 30
0.0
 11
126.3954090000000008
 21
100.7974240000000066
 31
0.0
  0
LINE
  5
1AEF
  8
0
 10
130.284292999999991
 20
87.4049830000000014
 30
0.0
 11
130.7415230000000008
 21
90.6583449999999971
 31
0.0
  0
LINE
  5
1AF0
  8
0
 10
130.7130919999999037
 20
87.3447199999999953
 30
0.0
 11
131.1787919999999872
 21
90.6583449999999971
 31
0.0
  0
LINE
  5
1AF1
  8
0
 10
131.0707725854315129
 20
89.8897475497113163
 30
0.0
 11
131.7855629639595918
 21
87.3367631827032085
 31
0.0
  0
LINE
  5
1AF2
  8
0
 10
131.3042049999999961
 20
90.6583449999999971
 30
0.0
 11
131.9282670000000053
 21
88.4294110000000018
 31
0.0
  0
LINE
  5
1AF3
  8
0
 10
132.1999999999999886
 20
88.1583449999999971
 30
0.0
 11
161.8000000000000114
 21
88.1583449999999971
 31
0.0
  0
LINE
  5
1AF4
  8
0
 10
162.0
 20
88.9398160000000075
 30
0.0
 11
162.0
 21
102.3768740000000008
 31
0.0
  0
LINE
  5
1AF5
  8
0
 10
132.0
 20
88.9398160000000075
 30
0.0
 11
132.0
 21
102.3768740000000008
 31
0.0
  0
LINE
  5
1AF6
  8
0
 10
132.1999999999999886
 20
103.1583449999999971
 30
0.0
 11
161.8000000000000114
 21
103.1583449999999971
 31
0.0
  0
LINE
  5
1AF7
  8
0
 10
162.0
 20
103.3583449999999999
 30
0.0
 11
162.0
 21
105.1583449999999971
 31
0.0
  0
LINE
  5
1AF8
  8
0
 10
132.0
 20
103.3583449999999999
 30
0.0
 11
132.0
 21
105.1583449999999971
 31
0.0
  0
LINE
  5
1AF9
  8
0
 10
122.5
 20
114.6583449999999971
 30
0.0
 11
171.5
 21
114.6583449999999971
 31
0.0
  0
LINE
  5
1AFA
  8
0
 10
157.3185550000000035
 20
105.6583449999999971
 30
0.0
 11
161.1018060000000105
 21
114.6583449999999971
 31
0.0
  0
LINE
  5
1AFB
  8
0
 10
169.3981939999999895
 20
109.6583449999999971
 30
0.0
 11
171.5
 21
114.6583449999999971
 31
0.0
  0
LINE
  5
1AFC
  8
0
 10
136.6814449999999965
 20
105.6583449999999971
 30
0.0
 11
132.8981939999999895
 21
114.6583449999999971
 31
0.0
  0
LINE
  5
1AFD
  8
0
 10
124.6018059999999963
 20
109.6583449999999971
 30
0.0
 11
122.5
 21
114.6583449999999971
 31
0.0
  0
ARC
  5
1AFE
  8
0
 10
132.1999999999999886
 20
103.3583449999999999
 30
0.0
 40
0.2
 50
180.0
 51
270.0
  0
ARC
  5
1AFF
  8
0
 10
132.1999999999999886
 20
103.7453710000000058
 30
0.0
 40
0.2
 50
180.0
 51
270.0
  0
LINE
  5
1B00
  8
0
 10
132.1999999999999886
 20
103.5453710000000029
 30
0.0
 11
161.8000000000000114
 21
103.5453710000000029
 31
0.0
  0
ARC
  5
1B01
  8
0
 10
132.5
 20
105.1583449999999971
 30
0.0
 40
0.5
 50
90.0
 51
180.0
  0
ARC
  5
1B02
  8
0
 10
161.8000000000000114
 20
103.7453710000000058
 30
0.0
 40
0.2
 50
270.0
 51
0.0
  0
ARC
  5
1B03
  8
0
 10
161.8000000000000114
 20
103.3583449999999999
 30
0.0
 40
0.2
 50
270.0
 51
0.0
  0
ARC
  5
1B04
  8
0
 10
161.5
 20
105.1583449999999971
 30
0.0
 40
0.5
 50
0.0
 51
90.0
  0
ARC
  5
1B05
  8
0
 10
161.8000000000000114
 20
87.5436990000000037
 30
0.0
 40
0.2
 50
0.0
 51
90.0
  0
ARC
  5
1B06
  8
0
 10
161.8000000000000114
 20
87.9583449999999942
 30
0.0
 40
0.2
 50
0.0
 51
90.0
  0
ARC
  5
1B07
  8
0
 10
132.1999999999999886
 20
87.5436990000000037
 30
0.0
 40
0.2
 50
90.0
 51
180.0
  0
LINE
  5
1B08
  8
0
 10
132.1999999999999886
 20
87.7436989999999923
 30
0.0
 11
161.8000000000000114
 21
87.7436989999999923
 31
0.0
  0
ARC
  5
1B09
  8
0
 10
132.1999999999999886
 20
87.9583449999999942
 30
0.0
 40
0.2
 50
90.0
 51
180.0
  0
ARC
  5
1B0A
  8
0
 10
132.5
 20
81.1583449999999971
 30
0.0
 40
0.5
 50
180.0
 51
270.0
  0
LINE
  5
1B0B
  8
0
 10
132.0
 20
81.1583449999999971
 30
0.0
 11
132.0
 21
87.9583449999999942
 31
0.0
  0
ARC
  5
1B0C
  8
0
 10
161.5
 20
81.1583449999999971
 30
0.0
 40
0.5
 50
270.0
 51
0.0
  0
LINE
  5
1B0D
  8
0
 10
162.0
 20
81.1583449999999971
 30
0.0
 11
162.0
 21
87.9583449999999942
 31
0.0
  0
LINE
  5
1B0E
  8
0
 10
165.2118320549070916
 20
87.3243098624339069
 30
0.0
 11
165.2118320383277137
 21
87.3243098624339069
 31
0.0
  0
LINE
  5
1B0F
  8
0
 10
146.7834939999999904
 20
103.1583449999999971
 30
0.0
 11
146.7834939999999904
 21
100.3748510000000067
 31
0.0
  0
ARC
  5
1B10
  8
0
 10
147.0
 20
100.3748510000000067
 30
0.0
 40
0.216506
 50
180.0
 51
0.0
  0
LINE
  5
1B11
  8
0
 10
147.2165060000000096
 20
103.1583449999999971
 30
0.0
 11
147.2165060000000096
 21
100.3748510000000067
 31
0.0
  0
LINE
  5
1B12
  8
0
 10
148.0261910000000114
 20
103.1583449999999971
 30
0.0
 11
147.7843179999998995
 21
100.3937209999999993
 31
0.0
  0
LINE
  5
1B13
  8
0
 10
148.4608580000000018
 20
103.1583449999999971
 30
0.0
 11
148.2156819999999868
 21
100.3559819999998979
 31
0.0
  0
ARC
  5
1B14
  8
0
 10
147.9999999435293887
 20
100.3748508545308056
 30
0.0
 40
0.216505850162684
 50
174.9998891474232039
 51
355.0002320843436223
  0
LINE
  5
1B15
  8
0
 10
149.6725599999998906
 20
103.1583449999999971
 30
0.0
 11
149.285601000000014
 21
100.4049830000000014
 31
0.0
  0
LINE
  5
1B16
  8
0
 10
150.1098289999999906
 20
103.1583449999999971
 30
0.0
 11
149.7143989999999008
 21
100.3447189999999978
 31
0.0
  0
ARC
  5
1B17
  8
0
 10
149.5000000066175119
 20
100.3748510470854001
 30
0.0
 40
0.216506047548278
 50
171.9999639492816073
 51
351.9999387831483091
  0
LINE
  5
1B18
  8
0
 10
147.333493999999888
 20
103.1583449999999971
 30
0.0
 11
147.333493999999888
 21
100.3748510000000067
 31
0.0
  0
LINE
  5
1B19
  8
0
 10
147.7665059999999926
 20
103.1583449999999971
 30
0.0
 11
147.7665059999999926
 21
100.3748510000000067
 31
0.0
  0
ARC
  5
1B1A
  8
0
 10
147.5500000000000114
 20
100.3748510000000067
 30
0.0
 40
0.216506
 50
180.0
 51
0.0
  0
LINE
  5
1B1B
  8
0
 10
149.4139920000000075
 20
101.3185339999999002
 30
0.0
 11
148.8014249999999947
 21
103.1583449999999971
 31
0.0
  0
LINE
  5
1B1C
  8
0
 10
149.2889649566272965
 20
100.3264870491051965
 30
0.0
 11
148.4369773293331036
 21
102.8853888057067962
 31
0.0
  0
LINE
  5
1B1D
  8
0
 10
150.7868714581047982
 20
100.3367578661490001
 30
0.0
 11
150.0720801207710906
 21
102.8897482115184943
 31
0.0
  0
LINE
  5
1B1E
  8
0
 10
150.9295749999999998
 20
101.4294100000000043
 30
0.0
 11
150.4455039999999997
 21
103.1583449999999971
 31
0.0
  0
LINE
  5
1B1F
  8
0
 10
151.1725600000000043
 20
103.1583449999999971
 30
0.0
 11
150.785601000000014
 21
100.4049830000000014
 31
0.0
  0
LINE
  5
1B20
  8
0
 10
151.6098289999999906
 20
103.1583449999999971
 30
0.0
 11
151.2143989999999008
 21
100.3447189999999978
 31
0.0
  0
LINE
  5
1B21
  8
0
 10
152.286871458104514
 20
100.3367578661506059
 30
0.0
 11
151.5720801207710053
 21
102.8897482115184943
 31
0.0
  0
LINE
  5
1B22
  8
0
 10
152.4295749999999998
 20
101.4294100000000043
 30
0.0
 11
151.9455039999999997
 21
103.1583449999999971
 31
0.0
  0
ARC
  5
1B23
  8
0
 10
151.0000000066175119
 20
100.3748510470854001
 30
0.0
 40
0.2165060475482247
 50
171.9999639492887979
 51
351.9999387831409763
  0
LINE
  5
1B24
  8
0
 10
152.6725599999998906
 20
103.1583449999999971
 30
0.0
 11
152.285601000000014
 21
100.4049830000000014
 31
0.0
  0
LINE
  5
1B25
  8
0
 10
153.1098289999999906
 20
103.1583449999999971
 30
0.0
 11
152.7143989999999008
 21
100.3447189999999978
 31
0.0
  0
LINE
  5
1B26
  8
0
 10
153.786871458104514
 20
100.3367578661505064
 30
0.0
 11
153.0720801207710906
 21
102.8897482115182953
 31
0.0
  0
LINE
  5
1B27
  8
0
 10
153.9295749999999998
 20
101.4294100000000043
 30
0.0
 11
153.4455039999999997
 21
103.1583449999999971
 31
0.0
  0
ARC
  5
1B28
  8
0
 10
152.5000000066175119
 20
100.3748510470854995
 30
0.0
 40
0.2165060475482889
 50
171.999963949302213
 51
351.9999387831276749
  0
LINE
  5
1B29
  8
0
 10
154.1725599999998906
 20
103.1583449999999971
 30
0.0
 11
153.785601000000014
 21
100.4049830000000014
 31
0.0
  0
LINE
  5
1B2A
  8
0
 10
154.6098289999999906
 20
103.1583449999999971
 30
0.0
 11
154.2143989999999008
 21
100.3447189999999978
 31
0.0
  0
LINE
  5
1B2B
  8
0
 10
155.2924739685205964
 20
100.3167476138501968
 30
0.0
 11
154.5720801207710906
 21
102.8897482115181958
 31
0.0
  0
LINE
  5
1B2C
  8
0
 10
155.4295749999999998
 20
101.4294100000000043
 30
0.0
 11
154.9455039999999997
 21
103.1583449999999971
 31
0.0
  0
ARC
  5
1B2D
  8
0
 10
154.0000000066175119
 20
100.3748510470854001
 30
0.0
 40
0.216506047548283
 50
171.999963949291697
 51
351.9999387831393847
  0
LINE
  5
1B2E
  8
0
 10
155.6725600000000043
 20
103.1583449999999971
 30
0.0
 11
155.285601000000014
 21
100.4049830000000014
 31
0.0
  0
LINE
  5
1B2F
  8
0
 10
156.1098289999999906
 20
103.1583449999999971
 30
0.0
 11
155.7143989999999008
 21
100.3447189999999978
 31
0.0
  0
LINE
  5
1B30
  8
0
 10
156.7924739685205964
 20
100.3167476138501968
 30
0.0
 11
156.0720801207710906
 21
102.8897482115184943
 31
0.0
  0
LINE
  5
1B31
  8
0
 10
156.9295749999999998
 20
101.4294100000000043
 30
0.0
 11
156.4455039999999997
 21
103.1583449999999971
 31
0.0
  0
ARC
  5
1B32
  8
0
 10
155.5000000066173982
 20
100.3748510470854001
 30
0.0
 40
0.2165060475483393
 50
171.9999639492887979
 51
351.9999387831418858
  0
LINE
  5
1B33
  8
0
 10
157.1725599999998906
 20
103.1583449999999971
 30
0.0
 11
156.785601000000014
 21
100.4049830000000014
 31
0.0
  0
LINE
  5
1B34
  8
0
 10
157.6098289999999906
 20
103.1583449999999971
 30
0.0
 11
157.2143989999999008
 21
100.3447189999999978
 31
0.0
  0
LINE
  5
1B35
  8
0
 10
158.2868714581042866
 20
100.3367578661517996
 30
0.0
 11
157.5720801207710906
 21
102.8897482115183948
 31
0.0
  0
LINE
  5
1B36
  8
0
 10
158.4295749999999998
 20
101.4294100000000043
 30
0.0
 11
157.9455039999999997
 21
103.1583449999999971
 31
0.0
  0
ARC
  5
1B37
  8
0
 10
157.0000000066175971
 20
100.3748510470854001
 30
0.0
 40
0.2165060475481674
 50
171.9999639492887979
 51
351.9999387831409763
  0
LINE
  5
1B38
  8
0
 10
158.6725600000000043
 20
103.1583449999999971
 30
0.0
 11
158.285601000000014
 21
100.4049830000000014
 31
0.0
  0
LINE
  5
1B39
  8
0
 10
159.1098289999999906
 20
103.1583449999999971
 30
0.0
 11
158.7143989999999008
 21
100.3447189999999978
 31
0.0
  0
LINE
  5
1B3A
  8
0
 10
159.7868714581042866
 20
100.3367578661517001
 30
0.0
 11
159.0720801207712043
 21
102.8897482115183948
 31
0.0
  0
LINE
  5
1B3B
  8
0
 10
159.9295749999999998
 20
101.4294100000000043
 30
0.0
 11
159.4455039999999997
 21
103.1583449999999971
 31
0.0
  0
ARC
  5
1B3C
  8
0
 10
158.5000000066175119
 20
100.3748510470854995
 30
0.0
 40
0.2165060475482919
 50
171.9999639493078121
 51
351.9999387831227864
  0
LINE
  5
1B3D
  8
0
 10
160.1725599999998906
 20
103.1583449999999971
 30
0.0
 11
159.785601000000014
 21
100.4049830000000014
 31
0.0
  0
LINE
  5
1B3E
  8
0
 10
160.6098289999999906
 20
103.1583449999999971
 30
0.0
 11
160.2143989999999008
 21
100.3447189999999978
 31
0.0
  0
LINE
  5
1B3F
  8
0
 10
161.2868714581045992
 20
100.3367578661497959
 30
0.0
 11
160.5720801207708917
 21
102.8897482115183948
 31
0.0
  0
LINE
  5
1B40
  8
0
 10
161.4295749999999998
 20
101.4294100000000043
 30
0.0
 11
160.9455039999999997
 21
103.1583449999999971
 31
0.0
  0
ARC
  5
1B41
  8
0
 10
160.0000000066175119
 20
100.3748510470854001
 30
0.0
 40
0.216506047548284
 50
171.9999639492932886
 51
351.9999387831377931
  0
LINE
  5
1B42
  8
0
 10
161.6725599999998906
 20
103.1583449999999971
 30
0.0
 11
161.285601000000014
 21
100.4049830000000014
 31
0.0
  0
LINE
  5
1B43
  8
0
 10
162.215707000000009
 20
103.9117070000000069
 30
0.0
 11
161.7143989999999008
 21
100.3447189999999978
 31
0.0
  0
LINE
  5
1B44
  8
0
 10
162.6957949999998903
 20
100.6583449999999971
 30
0.0
 11
162.071732921322706
 21
102.887279281007693
 31
0.0
  0
LINE
  5
1B45
  8
0
 10
162.9292274145684019
 20
101.4269424502886068
 30
0.0
 11
162.2144370360400103
 21
103.9799268172977946
 31
0.0
  0
ARC
  5
1B46
  8
0
 10
162.0013063232964896
 20
103.9418374971097023
 30
0.0
 40
0.2165074987776412
 50
352.000406968977984
 51
90.3457028792477672
  0
ARC
  5
1B47
  8
0
 10
161.5000000066175119
 20
100.3748510470854001
 30
0.0
 40
0.216506047548284
 50
171.9999639492932886
 51
351.9999387831377931
  0
LINE
  5
1B48
  8
0
 10
163.286908000000011
 20
103.9719699999999989
 30
0.0
 11
162.8212080000000128
 21
100.6583449999999971
 31
0.0
  0
LINE
  5
1B49
  8
0
 10
163.715707000000009
 20
103.9117070000000069
 30
0.0
 11
163.2584769999999992
 21
100.6583449999999971
 31
0.0
  0
ARC
  5
1B4A
  8
0
 10
132.4999999933824881
 20
100.3748510470854995
 30
0.0
 40
0.2165060475482933
 50
188.0000612168828127
 51
8.0000360506873491
  0
ARC
  5
1B4B
  8
0
 10
131.9986936767033114
 20
103.9418374971097023
 30
0.0
 40
0.2165074987776081
 50
89.6541994787327496
 51
187.9995930310271888
  0
LINE
  5
1B4C
  8
0
 10
131.784292999999991
 20
103.9117070000000069
 30
0.0
 11
132.285601000000014
 21
100.3447189999999978
 31
0.0
  0
LINE
  5
1B4D
  8
0
 10
132.3274399999999957
 20
103.1583449999999971
 30
0.0
 11
132.7143989999999008
 21
100.4049830000000014
 31
0.0
  0
ARC
  5
1B4E
  8
0
 10
133.9999999933824029
 20
100.3748510470854995
 30
0.0
 40
0.2165060475483546
 50
188.0000612168755083
 51
8.0000360506938009
  0
LINE
  5
1B4F
  8
0
 10
132.5704250000000002
 20
101.4294100000000043
 30
0.0
 11
133.0544959999998866
 21
103.1583449999999971
 31
0.0
  0
LINE
  5
1B50
  8
0
 10
132.713128541895486
 20
100.3367578661507054
 30
0.0
 11
133.4279198792289094
 21
102.8897482115183948
 31
0.0
  0
LINE
  5
1B51
  8
0
 10
133.3901710000000094
 20
103.1583449999999971
 30
0.0
 11
133.785601000000014
 21
100.3447189999999978
 31
0.0
  0
LINE
  5
1B52
  8
0
 10
133.8274399999999957
 20
103.1583449999999971
 30
0.0
 11
134.2143989999999008
 21
100.4049830000000014
 31
0.0
  0
ARC
  5
1B53
  8
0
 10
135.4999999933824881
 20
100.3748510470854995
 30
0.0
 40
0.2165060475482924
 50
188.0000612168844043
 51
8.0000360506836721
  0
LINE
  5
1B54
  8
0
 10
134.0704250000000002
 20
101.4294100000000043
 30
0.0
 11
134.5544960000000003
 21
103.1583449999999971
 31
0.0
  0
LINE
  5
1B55
  8
0
 10
134.213128541895486
 20
100.3367578661509043
 30
0.0
 11
134.9279198792289094
 21
102.8897482115183948
 31
0.0
  0
LINE
  5
1B56
  8
0
 10
134.8901710000000094
 20
103.1583449999999971
 30
0.0
 11
135.285601000000014
 21
100.3447189999999978
 31
0.0
  0
LINE
  5
1B57
  8
0
 10
135.3274399999999957
 20
103.1583449999999971
 30
0.0
 11
135.7143989999999008
 21
100.4049830000000014
 31
0.0
  0
ARC
  5
1B58
  8
0
 10
136.9999999933824881
 20
100.3748510470854995
 30
0.0
 40
0.2165060475482963
 50
188.0000612168770999
 51
8.0000360506921862
  0
LINE
  5
1B59
  8
0
 10
135.5704250000000002
 20
101.4294100000000043
 30
0.0
 11
136.0544959999998866
 21
103.1583449999999971
 31
0.0
  0
LINE
  5
1B5A
  8
0
 10
135.713128541895486
 20
100.3367578661507054
 30
0.0
 11
136.4279198792287957
 21
102.8897482115182953
 31
0.0
  0
LINE
  5
1B5B
  8
0
 10
136.3901710000000094
 20
103.1583449999999971
 30
0.0
 11
136.785601000000014
 21
100.3447189999999978
 31
0.0
  0
LINE
  5
1B5C
  8
0
 10
136.8274399999999957
 20
103.1583449999999971
 30
0.0
 11
137.2143989999999008
 21
100.4049830000000014
 31
0.0
  0
ARC
  5
1B5D
  8
0
 10
138.4999999933826018
 20
100.3748510470854995
 30
0.0
 40
0.2165060475482371
 50
188.0000612168803116
 51
8.0000360506889638
  0
LINE
  5
1B5E
  8
0
 10
137.0704250000000002
 20
101.4294100000000043
 30
0.0
 11
137.5544960000000003
 21
103.1583449999999971
 31
0.0
  0
LINE
  5
1B5F
  8
0
 10
137.213128541895486
 20
100.3367578661507054
 30
0.0
 11
137.9279198792289094
 21
102.8897482115184943
 31
0.0
  0
LINE
  5
1B60
  8
0
 10
137.8901710000000094
 20
103.1583449999999971
 30
0.0
 11
138.285601000000014
 21
100.3447189999999978
 31
0.0
  0
LINE
  5
1B61
  8
0
 10
138.3274399999999957
 20
103.1583449999999971
 30
0.0
 11
138.7143989999999008
 21
100.4049830000000014
 31
0.0
  0
ARC
  5
1B62
  8
0
 10
139.9999999933824881
 20
100.3748510470854995
 30
0.0
 40
0.2165060475482924
 50
188.0000612168844043
 51
8.0000360506836721
  0
LINE
  5
1B63
  8
0
 10
138.5704250000000002
 20
101.4294100000000043
 30
0.0
 11
139.0544959999998866
 21
103.1583449999999971
 31
0.0
  0
LINE
  5
1B64
  8
0
 10
138.7131285418954008
 20
100.3367578661506059
 30
0.0
 11
139.4279198792289094
 21
102.8897482115182953
 31
0.0
  0
LINE
  5
1B65
  8
0
 10
139.3901710000000094
 20
103.1583449999999971
 30
0.0
 11
139.785601000000014
 21
100.3447189999999978
 31
0.0
  0
LINE
  5
1B66
  8
0
 10
139.8274399999999957
 20
103.1583449999999971
 30
0.0
 11
140.2143989999999008
 21
100.4049830000000014
 31
0.0
  0
ARC
  5
1B67
  8
0
 10
141.4999999933824881
 20
100.3748510470854995
 30
0.0
 40
0.2165060475482894
 50
188.0000612168900034
 51
8.0000360506788351
  0
LINE
  5
1B68
  8
0
 10
140.0704250000000002
 20
101.4294100000000043
 30
0.0
 11
140.5544960000000003
 21
103.1583449999999971
 31
0.0
  0
LINE
  5
1B69
  8
0
 10
140.213128541895486
 20
100.3367578661507054
 30
0.0
 11
140.9279198792287957
 21
102.8897482115185937
 31
0.0
  0
LINE
  5
1B6A
  8
0
 10
140.8901710000000094
 20
103.1583449999999971
 30
0.0
 11
141.285601000000014
 21
100.3447189999999978
 31
0.0
  0
LINE
  5
1B6B
  8
0
 10
141.3274399999999957
 20
103.1583449999999971
 30
0.0
 11
141.7143989999999008
 21
100.4049830000000014
 31
0.0
  0
ARC
  5
1B6C
  8
0
 10
142.9999999933824881
 20
100.3748510470854995
 30
0.0
 40
0.2165060475482913
 50
188.0000612168859959
 51
8.0000360506820591
  0
LINE
  5
1B6D
  8
0
 10
141.5704250000000002
 20
101.4294100000000043
 30
0.0
 11
142.0544959999998866
 21
103.1583449999999971
 31
0.0
  0
LINE
  5
1B6E
  8
0
 10
141.713128541895486
 20
100.3367578661507054
 30
0.0
 11
142.4279198792287957
 21
102.8897482115184943
 31
0.0
  0
LINE
  5
1B6F
  8
0
 10
142.3901710000000094
 20
103.1583449999999971
 30
0.0
 11
142.785601000000014
 21
100.3447189999999978
 31
0.0
  0
LINE
  5
1B70
  8
0
 10
142.8274399999999957
 20
103.1583449999999971
 30
0.0
 11
143.2143989999999008
 21
100.4049830000000014
 31
0.0
  0
LINE
  5
1B71
  8
0
 10
143.0704250000000002
 20
101.4294100000000043
 30
0.0
 11
143.5544959999998866
 21
103.1583449999999971
 31
0.0
  0
LINE
  5
1B72
  8
0
 10
143.213128541895486
 20
100.3367578661507054
 30
0.0
 11
143.9279198792287957
 21
102.8897482115183948
 31
0.0
  0
LINE
  5
1B73
  8
0
 10
144.7110350433725046
 20
100.3264870491045002
 30
0.0
 11
145.5630226706668964
 21
102.8853888057066968
 31
0.0
  0
LINE
  5
1B74
  8
0
 10
144.5860079999999925
 20
101.3185339999999002
 30
0.0
 11
145.1985750000000053
 21
103.1583449999999971
 31
0.0
  0
ARC
  5
1B75
  8
0
 10
146.4499999999999886
 20
100.3748510000000067
 30
0.0
 40
0.216506
 50
180.0
 51
0.0
  0
LINE
  5
1B76
  8
0
 10
146.2334940000000074
 20
103.1583449999999971
 30
0.0
 11
146.2334940000000074
 21
100.3748510000000067
 31
0.0
  0
LINE
  5
1B77
  8
0
 10
146.6665059999999983
 20
103.1583449999999971
 30
0.0
 11
146.6665059999999983
 21
100.3748510000000067
 31
0.0
  0
ARC
  5
1B78
  8
0
 10
144.4999999933824881
 20
100.3748510470854995
 30
0.0
 40
0.2165060475482351
 50
188.0000612168844043
 51
8.0000360506836721
  0
LINE
  5
1B79
  8
0
 10
143.8901710000000094
 20
103.1583449999999971
 30
0.0
 11
144.285601000000014
 21
100.3447189999999978
 31
0.0
  0
LINE
  5
1B7A
  8
0
 10
144.3274399999999957
 20
103.1583449999999971
 30
0.0
 11
144.7143989999999008
 21
100.4049830000000014
 31
0.0
  0
ARC
  5
1B7B
  8
0
 10
146.0000000564704976
 20
100.3748508545309051
 30
0.0
 40
0.2165058501627221
 50
184.9997679156790866
 51
5.0001108525548918
  0
LINE
  5
1B7C
  8
0
 10
145.539141999999913
 20
103.1583449999999971
 30
0.0
 11
145.7843180000000132
 21
100.3559819999998979
 31
0.0
  0
LINE
  5
1B7D
  8
0
 10
145.9738089999999886
 20
103.1583449999999971
 30
0.0
 11
146.2156819999999868
 21
100.3937209999999993
 31
0.0
  0
LINE
  5
1B7E
  8
0
 10
170.854660999999993
 20
95.8783449999999675
 30
0.0
 11
173.2039914504647129
 21
96.7934104719157347
 31
0.0
  0
LINE
  5
1B7F
  8
0
 10
170.4706710000000101
 20
96.1991109999999736
 30
0.0
 11
171.002869000000004
 21
96.4052549999999826
 31
0.0
  0
LINE
  5
1B80
  8
0
 10
170.735108999999909
 20
96.8048299999999813
 30
0.0
 11
172.889852008781304
 21
98.1139515169882657
 31
0.0
  0
LINE
  5
1B81
  8
0
 10
170.3012519999998915
 20
97.0540439999999904
 30
0.0
 11
170.7895680000000027
 21
97.3494709999999941
 31
0.0
  0
LINE
  5
1B82
  8
0
 10
172.3511692385054062
 20
99.3598777811735658
 30
0.0
 11
170.4564909999999998
 21
97.6964789999999823
 31
0.0
  0
LINE
  5
1B83
  8
0
 10
169.9859500000000025
 20
97.8665689999999842
 30
0.0
 11
170.4155470000000037
 21
98.2423029999999784
 31
0.0
  0
LINE
  5
1B84
  8
0
 10
170.0272730000000081
 20
98.5262009999999719
 30
0.0
 11
171.6043242265124036
 21
100.4933406838845968
 31
0.0
  0
LINE
  5
1B85
  8
0
 10
169.8921689999999103
 20
99.0566229999999734
 30
0.0
 11
169.5343440000000044
 21
98.6119979999999714
 31
0.0
  0
LINE
  5
1B86
  8
0
 10
169.235336999999987
 20
99.7676869999999951
 30
0.0
 11
168.9601569999998958
 21
99.2676819999999651
 31
0.0
  0
LINE
  5
1B87
  8
0
 10
170.6719969895526106
 20
101.4798899185655046
 30
0.0
 11
169.4604950000000088
 21
99.2687849999999941
 31
0.0
  0
LINE
  5
1B88
  8
0
 10
168.4650090000000091
 20
100.3538920000000019
 30
0.0
 11
168.2808349999999962
 21
99.8136979999999738
 31
0.0
  0
LINE
  5
1B89
  8
0
 10
169.5825208309761933
 20
102.2895528942010941
 30
0.0
 11
168.7733799999998894
 21
99.9016669999999749
 31
0.0
  0
LINE
  5
1B8A
  8
0
 10
167.5170180000000073
 20
100.2334560000000039
 30
0.0
 11
167.6045909999999992
 21
100.7974240000000066
 31
0.0
  0
LINE
  5
1B8B
  8
0
 10
168.3690013607929927
 20
102.8977339220547975
 30
0.0
 11
167.9868050000000039
 21
100.405618000000004
 31
0.0
  0
LINE
  5
1B8C
  8
0
 10
166.7907542960923877
 20
103.5499746160455032
 30
0.0
 11
167.0606650000000002
 21
100.5894739999999956
 31
0.0
  0
LINE
  5
1B8D
  8
0
 10
166.502523999999994
 20
101.9105429999999046
 30
0.0
 11
166.6259629999998992
 21
100.5299160000000001
 31
0.0
  0
LINE
  5
1B8E
  8
0
 10
165.215641865526095
 20
103.9724297884584985
 30
0.0
 11
165.9126103420545917
 21
101.0988343149686983
 31
0.0
  0
LINE
  5
1B8F
  8
0
 10
165.0572540000000004
 20
102.7842569999999967
 30
0.0
 11
165.5690880816202082
 21
100.6578676609125012
 31
0.0
  0
ARC
  5
1B90
  8
0
 10
166.5715964375764884
 20
103.569203145978193
 30
0.0
 40
0.2199997802558934
 50
350.0001097349413044
 51
169.9999224905398876
  0
LINE
  5
1B91
  8
0
 10
166.3549390000000017
 20
103.6074059999999974
 30
0.0
 11
165.8329830000000129
 21
100.6472449999999981
 31
0.0
  0
LINE
  5
1B92
  8
0
 10
166.7882539999999949
 20
103.5310009999999039
 30
0.0
 11
166.2711779999999067
 21
100.5985150000000061
 31
0.0
  0
ARC
  5
1B93
  8
0
 10
168.1609166715078061
 20
102.9691539712137001
 30
0.0
 40
0.2200001394016727
 50
339.9998636413807276
 51
160.0001248345479041
  0
LINE
  5
1B94
  8
0
 10
167.9541839999999979
 20
103.044398000000001
 30
0.0
 11
167.0017119999999977
 21
100.4275019999999046
 31
0.0
  0
LINE
  5
1B95
  8
0
 10
168.3676490000000001
 20
102.8939089999998941
 30
0.0
 11
167.4151769999998862
 21
100.2770129999999966
 31
0.0
  0
ARC
  5
1B96
  8
0
 10
169.3899998219594067
 20
102.3960226916239975
 30
0.0
 40
0.2200003560817837
 50
330.0001462772978016
 51
149.9999608050603115
  0
LINE
  5
1B97
  8
0
 10
169.1994740000000093
 20
102.506022999999999
 30
0.0
 11
167.8070529999999962
 21
100.0942779999999033
 31
0.0
  0
LINE
  5
1B98
  8
0
 10
169.5805259999999919
 20
102.2860230000000001
 30
0.0
 11
168.1881040000000098
 21
99.8742779999999755
 31
0.0
  0
ARC
  5
1B99
  8
0
 10
170.5008879961013122
 20
101.6181710912287031
 30
0.0
 40
0.2199999326205548
 50
319.9997074826436005
 51
140.000109488350887
  0
LINE
  5
1B9A
  8
0
 10
170.3323579999999993
 20
101.7595840000000038
 30
0.0
 11
168.542295999999908
 21
99.6262709999999743
 31
0.0
  0
LINE
  5
1B9B
  8
0
 10
170.6694169999998962
 20
101.4767570000000063
 30
0.0
 11
168.8793550000000039
 21
99.3434439999999768
 31
0.0
  0
ARC
  5
1B9C
  8
0
 10
171.4598260912287913
 20
100.6592329961013945
 30
0.0
 40
0.219999932620679
 50
309.9998905116088963
 51
130.0002925173724861
  0
LINE
  5
1B9D
  8
0
 10
171.318411999999995
 20
100.827762000000007
 30
0.0
 11
169.1850990000000081
 21
99.0376999999999725
 31
0.0
  0
LINE
  5
1B9E
  8
0
 10
171.6012389999999073
 20
100.4907029999999963
 30
0.0
 11
169.4679260000000056
 21
98.7006409999999761
 31
0.0
  0
ARC
  5
1B9F
  8
0
 10
172.2376776916242136
 20
99.5483448219595175
 30
0.0
 40
0.2200003560818132
 50
300.0000391948843799
 51
119.9998537227488953
  0
LINE
  5
1BA0
  8
0
 10
172.1276780000000031
 20
99.7388709999999747
 30
0.0
 11
169.7159330000000068
 21
98.3464489999999785
 31
0.0
  0
LINE
  5
1BA1
  8
0
 10
172.3476779999998882
 20
99.3578189999999779
 30
0.0
 11
169.9359330000000057
 21
97.9653979999999649
 31
0.0
  0
ARC
  5
1BA2
  8
0
 10
172.8108089712133051
 20
98.3192616715076753
 30
0.0
 40
0.2200001394016792
 50
289.9998751655713249
 51
110.0001363585143963
  0
LINE
  5
1BA3
  8
0
 10
172.7355639999998971
 20
98.525993999999983
 30
0.0
 11
170.1186679999999001
 21
97.5735219999999686
 31
0.0
  0
LINE
  5
1BA4
  8
0
 10
172.886053000000004
 20
98.112528999999995
 30
0.0
 11
170.269157000000007
 21
97.1600569999999806
 31
0.0
  0
ARC
  5
1BA5
  8
0
 10
173.1618043169885084
 20
97.0093274677302304
 30
0.0
 40
0.2199997802555776
 50
280.0000322852554859
 51
99.9999354892706265
  0
LINE
  5
1BA6
  8
0
 10
173.1236020000000053
 20
97.2259849999999801
 30
0.0
 11
170.3810670000000016
 21
96.7424029999999959
 31
0.0
  0
LINE
  5
1BA7
  8
0
 10
173.2000069999999994
 20
96.7926699999999869
 30
0.0
 11
170.4574729999999931
 21
96.309086999999991
 31
0.0
  0
LINE
  5
1BA8
  8
0
 10
164.786908000000011
 20
103.9719699999999989
 30
0.0
 11
164.3212080000000128
 21
100.6583449999999971
 31
0.0
  0
LINE
  5
1BA9
  8
0
 10
165.215707000000009
 20
103.9117070000000069
 30
0.0
 11
164.7584769999999139
 21
100.6583449999999971
 31
0.0
  0
ARC
  5
1BAA
  8
0
 10
165.0013074933827113
 20
103.9418384529147943
 30
0.0
 40
0.2165064730960302
 50
352.0001133956550916
 51
172.0000882297046871
  0
LINE
  5
1BAB
  8
0
 10
164.4292274145684019
 20
101.4269424502887063
 30
0.0
 11
163.7144378625199863
 21
103.9799238653966995
 31
0.0
  0
LINE
  5
1BAC
  8
0
 10
164.1957950000000039
 20
100.6583449999999971
 30
0.0
 11
163.5717329999999947
 21
102.8872790000000066
 31
0.0
  0
ARC
  5
1BAD
  8
0
 10
163.5013074933827113
 20
103.9418384529147943
 30
0.0
 40
0.2165064730960865
 50
352.0001133956525905
 51
172.000088229707103
  0
ARC
  5
1BAE
  8
0
 10
130.4986925066172034
 20
103.9418384529157038
 30
0.0
 40
0.2165064730961102
 50
7.999911770048918
 51
187.9998866045918078
  0
LINE
  5
1BAF
  8
0
 10
129.8042049999999961
 20
100.6583449999999971
 30
0.0
 11
130.4282670000000053
 21
102.8872790000000066
 31
0.0
  0
LINE
  5
1BB0
  8
0
 10
129.5707725854315129
 20
101.4269424502886068
 30
0.0
 11
130.2855621374793884
 21
103.9799238653947953
 31
0.0
  0
ARC
  5
1BB1
  8
0
 10
128.9986925066170897
 20
103.9418384529157038
 30
0.0
 40
0.2165064730960529
 50
7.9999117700497244
 51
187.9998866045918078
  0
LINE
  5
1BB2
  8
0
 10
128.784292999999991
 20
103.9117070000000069
 30
0.0
 11
129.2415230000000008
 21
100.6583449999999971
 31
0.0
  0
LINE
  5
1BB3
  8
0
 10
129.2130919999999037
 20
103.9719699999999989
 30
0.0
 11
129.6787919999999872
 21
100.6583449999999971
 31
0.0
  0
LINE
  5
1BB4
  8
0
 10
120.7999929999999011
 20
96.7926700000000153
 30
0.0
 11
123.5425270000000069
 21
96.309086999999991
 31
0.0
  0
LINE
  5
1BB5
  8
0
 10
120.8763979999999947
 20
97.2259850000000085
 30
0.0
 11
123.6189329999999984
 21
96.7424030000000101
 31
0.0
  0
ARC
  5
1BB6
  8
0
 10
120.8381956830119037
 20
97.0093274677300741
 30
0.0
 40
0.2199997802556178
 50
80.0000645108549975
 51
259.9999677146220733
  0
LINE
  5
1BB7
  8
0
 10
121.113946999999996
 20
98.112528999999995
 30
0.0
 11
123.730842999999993
 21
97.1600569999999948
 31
0.0
  0
LINE
  5
1BB8
  8
0
 10
121.2644360000000034
 20
98.5259939999999972
 30
0.0
 11
123.8813320000000004
 21
97.573521999999997
 31
0.0
  0
ARC
  5
1BB9
  8
0
 10
121.1891910287861975
 20
98.3192616715078032
 30
0.0
 40
0.2200001394016192
 50
69.9998636413607329
 51
250.0001248345639908
  0
LINE
  5
1BBA
  8
0
 10
121.6523219999999981
 20
99.3578190000000063
 30
0.0
 11
124.0640669999999943
 21
97.9653979999999933
 31
0.0
  0
LINE
  5
1BBB
  8
0
 10
121.8723219999999969
 20
99.7388710000000032
 30
0.0
 11
124.2840669999999932
 21
98.3464490000000069
 31
0.0
  0
ARC
  5
1BBC
  8
0
 10
121.7623223083759996
 20
99.5483448219594038
 30
0.0
 40
0.2200003560818271
 50
60.00014627731899
 51
239.9999608050515008
  0
LINE
  5
1BBD
  8
0
 10
122.3987609999999933
 20
100.4907029999999963
 30
0.0
 11
124.5320739999998949
 21
98.7006410000000045
 31
0.0
  0
LINE
  5
1BBE
  8
0
 10
122.6815879999999055
 20
100.827762000000007
 30
0.0
 11
124.8149010000000061
 21
99.0376999999999867
 31
0.0
  0
ARC
  5
1BBF
  8
0
 10
122.5401739087711945
 20
100.659232996101494
 30
0.0
 40
0.2199999326206307
 50
49.9997074826274499
 51
230.0001094883953954
  0
LINE
  5
1BC0
  8
0
 10
123.3305830000000043
 20
101.4767570000000063
 30
0.0
 11
125.1206449999998966
 21
99.3434440000000052
 31
0.0
  0
LINE
  5
1BC1
  8
0
 10
123.6676420000000007
 20
101.7595840000000038
 30
0.0
 11
125.4577040000000068
 21
99.6262710000000027
 31
0.0
  0
ARC
  5
1BC2
  8
0
 10
123.4991120038985031
 20
101.6181710912287031
 30
0.0
 40
0.2199999326205987
 50
39.9998905116386823
 51
220.0002925173563995
  0
LINE
  5
1BC3
  8
0
 10
124.4194739999998944
 20
102.2860230000000001
 30
0.0
 11
125.8118960000000044
 21
99.8742779999999755
 31
0.0
  0
LINE
  5
1BC4
  8
0
 10
124.800526000000005
 20
102.506022999999999
 30
0.0
 11
126.1929470000000038
 21
100.0942780000000027
 31
0.0
  0
ARC
  5
1BC5
  8
0
 10
124.6100001780403943
 20
102.396022691624097
 30
0.0
 40
0.2200003560817601
 50
30.0000391948981608
 51
209.999853722737214
  0
LINE
  5
1BC6
  8
0
 10
125.6323509999999004
 20
102.8939089999999936
 30
0.0
 11
126.5848230000000001
 21
100.2770129999999966
 31
0.0
  0
LINE
  5
1BC7
  8
0
 10
126.0458160000000021
 20
103.044398000000001
 30
0.0
 11
126.9982880000000023
 21
100.427502000000004
 31
0.0
  0
ARC
  5
1BC8
  8
0
 10
125.8390833284922934
 20
102.9691539712132027
 30
0.0
 40
0.2200001394016907
 50
19.99987516557443
 51
200.0001363584945864
  0
LINE
  5
1BC9
  8
0
 10
127.2117460000000051
 20
103.5310010000000034
 30
0.0
 11
127.7288219999998944
 21
100.5985150000000061
 31
0.0
  0
LINE
  5
1BCA
  8
0
 10
127.6450609999999983
 20
103.6074059999999974
 30
0.0
 11
128.1670169999999871
 21
100.6472449999999981
 31
0.0
  0
ARC
  5
1BCB
  8
0
 10
127.4284035624235969
 20
103.5692031459775961
 30
0.0
 40
0.2199997802558935
 50
10.0000775096271006
 51
189.999890264893196
  0
LINE
  5
1BCC
  8
0
 10
128.9427459999999996
 20
102.7842569999999967
 30
0.0
 11
128.4309120000000064
 21
100.6578679999999935
 31
0.0
  0
LINE
  5
1BCD
  8
0
 10
128.7843581344733082
 20
103.9724297884567932
 30
0.0
 11
128.0873896579452946
 21
101.0988343149684994
 31
0.0
  0
LINE
  5
1BCE
  8
0
 10
127.497476000000006
 20
101.9105430000000041
 30
0.0
 11
127.3740370000000013
 21
100.5299160000000001
 31
0.0
  0
LINE
  5
1BCF
  8
0
 10
127.2092457039075981
 20
103.5499746160461996
 30
0.0
 11
126.9393349999999998
 21
100.5894739999999956
 31
0.0
  0
LINE
  5
1BD0
  8
0
 10
125.6309986392069931
 20
102.8977339220547975
 30
0.0
 11
126.0131949999999961
 21
100.405618000000004
 31
0.0
  0
LINE
  5
1BD1
  8
0
 10
126.4829820000000069
 20
100.2334560000000039
 30
0.0
 11
126.3954090000000008
 21
100.7974240000000066
 31
0.0
  0
LINE
  5
1BD2
  8
0
 10
124.4174791690238067
 20
102.2895528942008951
 30
0.0
 11
125.2266199999999969
 21
99.9016669999999891
 31
0.0
  0
LINE
  5
1BD3
  8
0
 10
125.5349910000000051
 20
100.3538920000000019
 30
0.0
 11
125.7191649999999044
 21
99.813697999999988
 31
0.0
  0
LINE
  5
1BD4
  8
0
 10
123.3280030104481
 20
101.4798899185642966
 30
0.0
 11
124.5395050000000055
 21
99.2687849999999941
 31
0.0
  0
LINE
  5
1BD5
  8
0
 10
124.7646629999999988
 20
99.7676869999999951
 30
0.0
 11
125.0398430000000047
 21
99.2676819999999935
 31
0.0
  0
LINE
  5
1BD6
  8
0
 10
124.1078310000000045
 20
99.0566229999999877
 30
0.0
 11
124.4656559999999956
 21
98.6119979999999856
 31
0.0
  0
LINE
  5
1BD7
  8
0
 10
123.9727270000000061
 20
98.5262009999999862
 30
0.0
 11
122.3956757734869996
 21
100.4933406838850942
 31
0.0
  0
LINE
  5
1BD8
  8
0
 10
124.0140499999999975
 20
97.8665689999999984
 30
0.0
 11
123.5844529999999963
 21
98.2423029999999926
 31
0.0
  0
LINE
  5
1BD9
  8
0
 10
121.6488307614945938
 20
99.3598777811734948
 30
0.0
 11
123.5435090000000002
 21
97.6964789999999965
 31
0.0
  0
LINE
  5
1BDA
  8
0
 10
123.6987479999999948
 20
97.0540440000000046
 30
0.0
 11
123.2104319999999973
 21
97.3494709999999941
 31
0.0
  0
LINE
  5
1BDB
  8
0
 10
123.2648909999999063
 20
96.8048299999999955
 30
0.0
 11
121.110147991218696
 21
98.1139515169882515
 31
0.0
  0
LINE
  5
1BDC
  8
0
 10
123.5293290000000042
 20
96.1991109999999878
 30
0.0
 11
122.997130999999996
 21
96.4052549999999968
 31
0.0
  0
LINE
  5
1BDD
  8
0
 10
123.1453389999998933
 20
95.8783449999999959
 30
0.0
 11
120.7960085495358982
 21
96.7934104719154931
 31
0.0
  0
LINE
  5
1BDE
  8
0
 10
130.284292999999991
 20
103.9117070000000069
 30
0.0
 11
130.7415230000000008
 21
100.6583449999999971
 31
0.0
  0
LINE
  5
1BDF
  8
0
 10
130.7130919999999037
 20
103.9719699999999989
 30
0.0
 11
131.1787919999999872
 21
100.6583449999999971
 31
0.0
  0
LINE
  5
1BE0
  8
0
 10
131.0707725854315129
 20
101.4269424502886068
 30
0.0
 11
131.7855629639595918
 21
103.9799268172967999
 31
0.0
  0
LINE
  5
1BE1
  8
0
 10
131.3042049999999961
 20
100.6583449999999971
 30
0.0
 11
131.9282670000000053
 21
102.8872790000000066
 31
0.0
  0
ENDSEC
  0
EOF
