  0
SECTION
  2
HEADER
  9
$ACADVER
  1
AC1009
  9
$INSBASE
 10
0.0
 20
0.0
 30
0.0
  9
$EXTMIN
 10
0.0
 20
-2.960436562073669
 30
0.0
  9
$EXTMAX
 10
237.3424401600993
 20
189.5724157169721
 30
0.0
  9
$LIMMIN
 10
0.0
 20
0.0
  9
$LIMMAX
 10
750.0
 20
540.0
  9
$ORTHOMODE
 70
     0
  9
$REGENMODE
 70
     1
  9
$FILLMODE
 70
     1
  9
$QTEXTMODE
 70
     0
  9
$MIRRTEXT
 70
     0
  9
$DRAGMODE
 70
     2
  9
$LTSCALE
 40
20.0
  9
$OSMODE
 70
    55
  9
$ATTMODE
 70
     1
  9
$TEXTSIZE
 40
0.2
  9
$TRACEWID
 40
0.05
  9
$TEXTSTYLE
  7
STANDARD
  9
$CLAYER
  8
0
  9
$CELTYPE
  6
BYLAYER
  9
$CECOLOR
 62
   256
  9
$DIMSCALE
 40
1.0
  9
$DIMASZ
 40
3.0
  9
$DIMEXO
 40
2.0
  9
$DIMDLI
 40
0.38
  9
$DIMRND
 40
0.0
  9
$DIMDLE
 40
0.0
  9
$DIMEXE
 40
2.0
  9
$DIMTP
 40
0.0
  9
$DIMTM
 40
0.0
  9
$DIMTXT
 40
3.2000000000000002
  9
$DIMCEN
 40
0.0
  9
$DIMTSZ
 40
0.0
  9
$DIMTOL
 70
     0
  9
$DIMLIM
 70
     0
  9
$DIMTIH
 70
     0
  9
$DIMTOH
 70
     0
  9
$DIMSE1
 70
     0
  9
$DIMSE2
 70
     0
  9
$DIMTAD
 70
     1
  9
$DIMZIN
 70
     0
  9
$DIMBLK
  1

  9
$DIMASO
 70
     0
  9
$DIMSHO
 70
     0
  9
$DIMPOST
  1

  9
$DIMAPOST
  1

  9
$DIMALT
 70
     0
  9
$DIMALTD
 70
     2
  9
$DIMALTF
 40
25.399999999999999
  9
$DIMLFAC
 40
1.0
  9
$DIMTOFL
 70
     0
  9
$DIMTVP
 40
1.6000000000000001
  9
$DIMTIX
 70
     1
  9
$DIMSOXD
 70
     0
  9
$DIMSAH
 70
     0
  9
$DIMBLK1
  1

  9
$DIMBLK2
  1

  9
$DIMSTYLE
  2
STANDARD
  9
$DIMCLRD
 70
     0
  9
$DIMCLRE
 70
     0
  9
$DIMCLRT
 70
     0
  9
$DIMTFAC
 40
1.0
  9
$DIMGAP
 40
0.09
  9
$LUNITS
 70
     2
  9
$LUPREC
 70
     4
  9
$SKETCHINC
 40
0.1
  9
$FILLETRAD
 40
0.0
  9
$AUNITS
 70
     0
  9
$AUPREC
 70
     4
  9
$MENU
  1
E:\r13\win\SUPPORT\ACAD
  9
$ELEVATION
 40
0.0
  9
$PELEVATION
 40
0.0
  9
$THICKNESS
 40
0.0
  9
$LIMCHECK
 70
     0
  9
$BLIPMODE
 70
     0
  9
$CHAMFERA
 40
0.0
  9
$CHAMFERB
 40
0.0
  9
$SKPOLY
 70
     0
  9
$TDCREATE
 40
2449840.6227546302
  9
$TDUPDATE
 40
2456598.650174445
  9
$TDINDWG
 40
0.0424434028
  9
$TDUSRTIMER
 40
2456429.0554580791
  9
$USRTIMER
 70
     1
  9
$ANGBASE
 50
0.0
  9
$ANGDIR
 70
     0
  9
$PDMODE
 70
     0
  9
$PDSIZE
 40
0.0
  9
$PLINEWID
 40
0.0
  9
$COORDS
 70
     1
  9
$SPLFRAME
 70
     0
  9
$SPLINETYPE
 70
     6
  9
$SPLINESEGS
 70
     8
  9
$ATTDIA
 70
     0
  9
$ATTREQ
 70
     1
  9
$HANDLING
 70
     1
  9
$HANDSEED
  5
21C6
  9
$SURFTAB1
 70
     6
  9
$SURFTAB2
 70
     6
  9
$SURFTYPE
 70
     6
  9
$SURFU
 70
     6
  9
$SURFV
 70
     6
  9
$UCSNAME
  2

  9
$UCSORG
 10
0.0
 20
0.0
 30
0.0
  9
$UCSXDIR
 10
1.0
 20
0.0
 30
0.0
  9
$UCSYDIR
 10
0.0
 20
1.0
 30
0.0
  9
$PUCSNAME
  2

  9
$PUCSORG
 10
0.0
 20
0.0
 30
0.0
  9
$PUCSXDIR
 10
1.0
 20
0.0
 30
0.0
  9
$PUCSYDIR
 10
0.0
 20
1.0
 30
0.0
  9
$USERI1
 70
     0
  9
$USERI2
 70
     1
  9
$USERI3
 70
     0
  9
$USERI4
 70
     0
  9
$USERI5
 70
     0
  9
$USERR1
 40
0.0
  9
$USERR2
 40
0.0
  9
$USERR3
 40
0.0
  9
$USERR4
 40
0.0
  9
$USERR5
 40
0.0
  9
$WORLDVIEW
 70
     1
  9
$SHADEDGE
 70
     3
  9
$SHADEDIF
 70
    70
  9
$TILEMODE
 70
     1
  9
$MAXACTVP
 70
    16
  9
$PLIMCHECK
 70
     0
  9
$PEXTMIN
 10
1.0000000000000000E+020
 20
1.0000000000000000E+020
 30
1.0000000000000000E+020
  9
$PEXTMAX
 10
-1.0000000000000000E+020
 20
-1.0000000000000000E+020
 30
-1.0000000000000000E+020
  9
$PLIMMIN
 10
0.0
 20
0.0
  9
$PLIMMAX
 10
12.0
 20
9.0
  9
$UNITMODE
 70
     0
  9
$VISRETAIN
 70
     0
  9
$PLINEGEN
 70
     0
  9
$PSLTSCALE
 70
     0
  0
ENDSEC
  0
SECTION
  2
TABLES
  0
TABLE
  2
VPORT
 70
     1
  0
VPORT
  2
*ACTIVE
 70
     0
 10
0.0
 20
0.0
 11
1.0
 21
1.0
 12
374.98855678130462
 22
350.86677766270412
 13
0.0
 23
0.0
 14
20.0
 24
20.0
 15
20.0
 25
20.0
 16
0.0
 26
0.0
 36
1.0
 17
0.0
 27
0.0
 37
0.0
 40
713.9403104474975
 41
1.7807262569832401
 42
50.0
 43
0.0
 44
0.0
 50
0.0
 51
0.0
 71
    16
 72
   100
 73
     1
 74
     0
 75
     0
 76
     0
 77
     0
 78
     2
  0
ENDTAB
  0
TABLE
  2
LTYPE
 70
     4
  0
LTYPE
  2
CONTINUOUS
 70
     0
  3
Solid Line
 72
    65
 73
     0
 40
0.0
  0
LTYPE
  2
PHANTOM2
 70
     0
  3
___ _ _ ___ _ _ ___ _ _ ___ _ _
 72
    65
 73
     6
 40
1.25
 49
0.625
 49
-0.125
 49
0.125
 49
-0.125
 49
0.125
 49
-0.125
  0
LTYPE
  2
CENTER
 70
     0
  3
____ _ ____ _ ____ _ ____ _ ____ _ ____ _ ____
 72
    65
 73
     4
 40
2.0
 49
1.25
 49
-0.25
 49
0.25
 49
-0.25
  0
LTYPE
  2
HIDDEN
 70
     0
  3
_ _ _ _ _ _ _ _ _ _ _ _ _ _ _ _ _ _ _ _ _ _ _
 72
    65
 73
     2
 40
0.375
 49
0.25
 49
-0.125
  0
ENDTAB
  0
TABLE
  2
LAYER
 70
     4
  0
LAYER
  2
0
 70
     0
 62
     7
  6
CONTINUOUS
  0
LAYER
  2
1
 70
     0
 62
     1
  6
CENTER
  0
LAYER
  2
2
 70
     0
 62
     2
  6
HIDDEN
  0
LAYER
  2
3
 70
     0
 62
     3
  6
CONTINUOUS
  0
ENDTAB
  0
TABLE
  2
STYLE
 70
     3
  0
STYLE
  2
STANDARD
 70
     0
 40
0.0
 41
1.0
 50
0.0
 71
     0
 42
0.2
  3
TXT
  4
BIGFONT
  0
STYLE
  2
ANNOTATIVE
 70
     0
 40
0.0
 41
1.0
 50
0.0
 71
     0
 42
0.2
  3
txt
  4

  0
STYLE
  2
STANDARD1
 70
     0
 40
0.0
 41
1.0
 50
0.0
 71
     0
 42
3.0
  3
txt
  4

  0
ENDTAB
  0
TABLE
  2
VIEW
 70
     1
  0
VIEW
  2
ALL
 70
     0
 40
540.0
 10
441.98319299999991
 20
270.0
 41
0.0
 11
0.0
 21
0.0
 31
1.0
 12
0.0
 22
0.0
 32
0.0
 42
0.0
 43
0.0
 44
0.0
 50
0.0
 71
     0
  0
ENDTAB
  0
TABLE
  2
UCS
 70
     0
  0
ENDTAB
  0
TABLE
  2
APPID
 70
     7
  0
APPID
  2
ACAD
 70
     0
  0
APPID
  2
ACADANNOTATIVE
 70
     0
  0
APPID
  2
ACAD_NAV_VCDISPLAY
 70
     0
  0
APPID
  2
ACAD_EXEMPT_FROM_CAD_STANDARDS
 70
     0
  0
APPID
  2
ACAD_DSTYLE_DIMJAG
 70
     0
  0
APPID
  2
ACAD_DSTYLE_DIMTALN
 70
     0
  0
APPID
  2
ACAD_MLEADERVER
 70
     0
  0
ENDTAB
  0
TABLE
  2
DIMSTYLE
 70
     2
  0
DIMSTYLE
  2
STANDARD
 70
     0
  3

  4

  5

  6

  7

 40
1.0
 41
0.18
 42
0.0625
 43
0.38
 44
0.18
 45
0.0
 46
0.0
 47
0.0
 48
0.0
140
0.18
141
0.09
142
0.0
143
25.399999999999999
144
1.0
145
0.0
146
1.0
147
0.09
 71
     0
 72
     0
 73
     1
 74
     1
 75
     0
 76
     0
 77
     0
 78
     0
170
     0
171
     2
172
     0
173
     0
174
     0
175
     0
176
     0
177
     0
178
     0
  0
DIMSTYLE
  2
ANNOTATIVE
 70
     0
  3

  4

  5

  6

  7

 40
1.0
 41
0.18
 42
0.0625
 43
0.38
 44
0.18
 45
0.0
 46
0.0
 47
0.0
 48
0.0
140
0.18
141
0.09
142
0.0
143
25.399999999999999
144
1.0
145
0.0
146
1.0
147
0.09
 71
     0
 72
     0
 73
     1
 74
     1
 75
     0
 76
     0
 77
     0
 78
     0
170
     0
171
     2
172
     0
173
     0
174
     0
175
     0
176
     0
177
     0
178
     0
  0
ENDTAB
  0
ENDSEC
  0
SECTION
  2
BLOCKS
  0
BLOCK
  8
0
  2
$MODEL_SPACE
 70
     0
 10
0.0
 20
0.0
 30
0.0
  3
$MODEL_SPACE
  1

  0
ENDBLK
  5
17DF
  8
0
  0
BLOCK
 67
     1
  8
0
  2
$PAPER_SPACE
 70
     0
 10
0.0
 20
0.0
 30
0.0
  3
$PAPER_SPACE
  1

  0
ENDBLK
  5
17DB
 67
     1
  8
0
  0
ENDSEC
  0
SECTION
  2
ENTITIES
  0
LINE
  5
6F1
  8
2
 10
107.48889654662339
 20
96.661404751256214
 30
0.0
 11
103.30089654662351
 21
99.079347678622185
 31
0.0
  0
LINE
  5
6F2
  8
2
 10
103.30089654662351
 20
99.079347678622185
 30
0.0
 11
99.112896546623503
 21
96.661404751256214
 31
0.0
  0
LINE
  5
6F3
  8
2
 10
107.48889654662339
 20
81.473404751256183
 30
0.0
 11
107.48889654662339
 21
96.661404751256214
 31
0.0
  0
LINE
  5
6F4
  8
2
 10
99.112896546623503
 20
96.661404751256214
 30
0.0
 11
99.112896546623503
 21
81.473404751256183
 31
0.0
  0
LINE
  5
6F5
  8
2
 10
108.30089654662341
 20
80.661404751256185
 30
0.0
 11
107.48889654662339
 21
81.473404751256183
 31
0.0
  0
LINE
  5
6F6
  8
2
 10
99.112896546623503
 20
81.473404751256183
 30
0.0
 11
98.300896546623477
 21
80.661404751256185
 31
0.0
  0
LINE
  5
6FE
  8
2
 10
99.112896546623503
 20
96.661404751256214
 30
0.0
 11
107.48889654662339
 21
96.661404751256214
 31
0.0
  0
LINE
  5
6FF
  8
2
 10
99.112896546623503
 20
81.473404751256183
 30
0.0
 11
107.48889654662339
 21
81.473404751256183
 31
0.0
  0
LINE
  5
700
  8
2
 10
108.30089654662351
 20
80.661404751256185
 30
0.0
 11
108.30089654662351
 21
94.661404751256185
 31
0.0
  0
LINE
  5
701
  8
2
 10
108.30089654662351
 20
94.661404751256185
 30
0.0
 11
98.300896546623505
 21
94.661404751256185
 31
0.0
  0
LINE
  5
702
  8
2
 10
98.300896546623505
 20
80.661404751256185
 30
0.0
 11
98.300896546623505
 21
94.661404751256185
 31
0.0
  0
LINE
  5
704
  8
1
 10
103.30089654662351
 20
124.1614047512562
 30
0.0
 11
103.30089654662351
 21
78.661404751256185
 31
0.0
  0
LINE
  5
705
  8
0
 10
183.30089654662351
 20
131.22744973399719
 30
0.0
 11
183.30089654662351
 21
133.62533997887039
 31
0.0
  0
LINE
  5
706
  8
0
 10
92.790896546623514
 20
108.9799023503986
 30
0.0
 11
92.790896546623514
 21
90.911366998405654
 31
0.0
  0
LINE
  5
707
  8
0
 10
113.7908965466235
 20
90.911366998405654
 30
0.0
 11
113.7908965466235
 21
104.6614047512562
 31
0.0
  0
ARC
  5
708
  8
0
 10
103.30089654662351
 20
112.1614047512561
 30
0.0
 40
10.00000000000002
 50
56.25101140411136
 51
123.7489885958886
  0
ARC
  5
709
  8
0
 10
98.300896546623505
 20
119.6447195248041
 30
0.0
 40
1.0
 50
123.7489885958875
 51
180.0
  0
ARC
  5
70A
  8
0
 10
108.30089654662351
 20
119.6447195248041
 30
0.0
 40
0.9999999999999785
 50
0.0
 51
56.25101140411293
  0
LINE
  5
70B
  8
0
 10
111.00089654662349
 20
80.661404751256185
 30
0.0
 11
111.30089654662351
 21
80.961404751256183
 31
0.0
  0
LINE
  5
70C
  8
0
 10
95.300896546623491
 20
80.961404751256183
 30
0.0
 11
95.600896546623517
 21
80.661404751256185
 31
0.0
  0
LINE
  5
70D
  8
0
 10
109.30089654662351
 20
119.0230267875407
 30
0.0
 11
109.30089654662351
 21
119.6447195248041
 31
0.0
  0
LINE
  5
70E
  8
0
 10
97.300896546623505
 20
119.6447195248041
 30
0.0
 11
97.300896546623505
 21
114.21581955881901
 31
0.0
  0
LINE
  5
70F
  8
0
 10
111.30089654662351
 20
80.961404751256183
 30
0.0
 11
111.30089654662351
 21
90.661404751256185
 31
0.0
  0
LINE
  5
710
  8
0
 10
95.300896546623491
 20
90.661404751256185
 30
0.0
 11
95.300896546623491
 21
80.961404751256183
 31
0.0
  0
POLYLINE
  5
711
  8
0
 66
     1
 10
0.0
 20
0.0
 30
0.0
  0
VERTEX
  5
1886
  8
0
 10
181.0996395201262
 20
134.95920781078911
 30
0.0
  0
VERTEX
  5
1887
  8
0
 10
181.12076693768171
 20
134.96080036050941
 30
0.0
  0
VERTEX
  5
1888
  8
0
 10
181.1627682877714
 20
134.96335960219471
 30
0.0
  0
VERTEX
  5
1889
  8
0
 10
181.20439467415
 20
134.965101622958
 30
0.0
  0
VERTEX
  5
188A
  8
0
 10
181.2250534893731
 20
134.96567316233359
 30
0.0
  0
VERTEX
  5
188B
  8
0
 10
181.24560212363559
 20
134.96604905202571
 30
0.0
  0
VERTEX
  5
188C
  8
0
 10
181.28634737893319
 20
134.96622666974031
 30
0.0
  0
VERTEX
  5
188D
  8
0
 10
181.32658813864401
 20
134.96566133172641
 30
0.0
  0
VERTEX
  5
188E
  8
0
 10
181.36628325892411
 20
134.9643818704952
 30
0.0
  0
VERTEX
  5
188F
  8
0
 10
181.40539292058881
 20
134.96241897931719
 30
0.0
  0
VERTEX
  5
1890
  8
0
 10
181.44387876549081
 20
134.95980508243059
 30
0.0
  0
VERTEX
  5
1891
  8
0
 10
181.46287619666589
 20
134.95826457842071
 30
0.0
  0
VERTEX
  5
1892
  8
0
 10
181.48170400597769
 20
134.9565741949406
 30
0.0
  0
VERTEX
  5
1893
  8
0
 10
181.5188335111512
 20
134.9527617751028
 30
0.0
  0
VERTEX
  5
1894
  8
0
 10
181.55523387358841
 20
134.9484045710775
 30
0.0
  0
VERTEX
  5
1895
  8
0
 10
181.5908880768647
 20
134.9435383468674
 30
0.0
  0
VERTEX
  5
1896
  8
0
 10
181.62606680710789
 20
134.9381527616176
 30
0.0
  0
VERTEX
  5
1897
  8
0
 10
181.66088214623829
 20
134.93224717246721
 30
0.0
  0
VERTEX
  5
1898
  8
0
 10
181.67815363202399
 20
134.92910353467039
 30
0.0
  0
VERTEX
  5
1899
  8
0
 10
181.69533437913199
 20
134.9258348331272
 30
0.0
  0
VERTEX
  5
189A
  8
0
 10
181.72942381417849
 20
134.91892858399851
 30
0.0
  0
VERTEX
  5
189B
  8
0
 10
181.76315076583401
 20
134.9115408785533
 30
0.0
  0
VERTEX
  5
189C
  8
0
 10
181.7798784066114
 20
134.90767027199419
 30
0.0
  0
VERTEX
  5
189D
  8
0
 10
181.79651553976981
 20
134.9036838091792
 30
0.0
  0
VERTEX
  5
189E
  8
0
 10
181.8295184204342
 20
134.89536913237779
 30
0.0
  0
VERTEX
  5
189F
  8
0
 10
181.86215966084461
 20
134.88660829322899
 30
0.0
  0
VERTEX
  5
18A0
  8
0
 10
181.87834473438039
 20
134.88206406004659
 30
0.0
  0
VERTEX
  5
18A1
  8
0
 10
181.89443947442601
 20
134.87741244904711
 30
0.0
  0
VERTEX
  5
18A2
  8
0
 10
181.92635802871879
 20
134.86779249217221
 30
0.0
  0
VERTEX
  5
18A3
  8
0
 10
181.95791544077809
 20
134.85775907185391
 30
0.0
  0
VERTEX
  5
18A4
  8
0
 10
182.06552280469839
 20
134.81953484470361
 30
0.0
  0
VERTEX
  5
18A5
  8
0
 10
182.23968889181339
 20
134.7437424726923
 30
0.0
  0
VERTEX
  5
18A6
  8
0
 10
182.4007818846037
 20
134.65672550500591
 30
0.0
  0
VERTEX
  5
18A7
  8
0
 10
182.54871479971351
 20
134.56043492041701
 30
0.0
  0
VERTEX
  5
18A8
  8
0
 10
182.68340802095051
 20
134.4568082524595
 30
0.0
  0
VERTEX
  5
18A9
  8
0
 10
182.74576998964159
 20
134.40286421053301
 30
0.0
  0
VERTEX
  5
18AA
  8
0
 10
182.8048025357761
 20
134.34784443294799
 30
0.0
  0
VERTEX
  5
18AB
  8
0
 10
182.9128611131961
 20
134.2356951455937
 30
0.0
  0
VERTEX
  5
18AC
  8
0
 10
183.00755060868261
 20
134.1228017550645
 30
0.0
  0
VERTEX
  5
18AD
  8
0
 10
183.08900678781751
 20
134.01181610969221
 30
0.0
  0
VERTEX
  5
18AE
  8
0
 10
183.15736745448771
 20
133.905909973711
 30
0.0
  0
VERTEX
  5
18AF
  8
0
 10
183.21271509705591
 20
133.8090607137953
 30
0.0
  0
VERTEX
  5
18B0
  8
0
 10
183.2354992470726
 20
133.76558084637969
 30
0.0
  0
VERTEX
  5
18B1
  8
0
 10
183.2389779681956
 20
133.7587286466734
 30
0.0
  0
VERTEX
  5
18B2
  8
0
 10
183.24566114584209
 20
133.74539525749771
 30
0.0
  0
VERTEX
  5
18B3
  8
0
 10
183.25197753341021
 20
133.73258207120389
 30
0.0
  0
VERTEX
  5
18B4
  8
0
 10
183.25499770607769
 20
133.72638035313989
 30
0.0
  0
VERTEX
  5
18B5
  8
0
 10
183.2579255762837
 20
133.72032056254861
 30
0.0
  0
VERTEX
  5
18B6
  8
0
 10
183.2635034299841
 20
133.70864313130949
 30
0.0
  0
VERTEX
  5
18B7
  8
0
 10
183.26870893210301
 20
133.69758302746681
 30
0.0
  0
VERTEX
  5
18B8
  8
0
 10
183.27353957752879
 20
133.68717424272319
 30
0.0
  0
VERTEX
  5
18B9
  8
0
 10
183.2779924979933
 20
133.6774513632096
 30
0.0
  0
VERTEX
  5
18BA
  8
0
 10
183.28206444680589
 20
133.6684493790512
 30
0.0
  0
VERTEX
  5
18BB
  8
0
 10
183.2839564363218
 20
133.66422971037991
 30
0.0
  0
VERTEX
  5
18BC
  8
0
 10
183.28575178937911
 20
133.6602034478864
 30
0.0
  0
VERTEX
  5
18BD
  8
0
 10
183.28905049975751
 20
133.6527486115553
 30
0.0
  0
VERTEX
  5
18BE
  8
0
 10
183.29195616285091
 20
133.6461194679959
 30
0.0
  0
VERTEX
  5
18BF
  8
0
 10
183.29446398143389
 20
133.64034980385259
 30
0.0
  0
VERTEX
  5
18C0
  8
0
 10
183.29656878626071
 20
133.63547219721741
 30
0.0
  0
VERTEX
  5
18C1
  8
0
 10
183.29826504688509
 20
133.63151760399199
 30
0.0
  0
VERTEX
  5
18C2
  8
0
 10
183.2989581482675
 20
133.62989556564469
 30
0.0
  0
VERTEX
  5
18C3
  8
0
 10
183.29954688006441
 20
133.62851494513021
 30
0.0
  0
VERTEX
  5
18C4
  8
0
 10
183.30040805203461
 20
133.626490714998
 30
0.0
  0
VERTEX
  5
18C5
  8
0
 10
183.30084197058341
 20
133.6254686327207
 30
0.0
  0
VERTEX
  5
18C6
  8
0
 10
183.30089654662351
 20
133.62533997887039
 30
0.0
  0
SEQEND
  5
18C7
  8
0
  0
LINE
  5
712
  8
0
 10
183.30089654662351
 20
131.22744973399719
 30
0.0
 11
183.29760167415731
 21
131.20099691752921
 31
0.0
  0
POLYLINE
  5
713
  8
0
 66
     1
 10
0.0
 20
0.0
 30
0.0
  0
VERTEX
  5
18C8
  8
0
 10
183.29760167415731
 20
131.2009969175293
 30
0.0
  0
VERTEX
  5
18C9
  8
0
 10
183.2973722255459
 20
131.19915666396909
 30
0.0
  0
VERTEX
  5
18CA
  8
0
 10
183.29689500960771
 20
131.19534113945349
 30
0.0
  0
VERTEX
  5
18CB
  8
0
 10
183.29639411626471
 20
131.191353420562
 30
0.0
  0
VERTEX
  5
18CC
  8
0
 10
183.29613505224501
 20
131.18929776167639
 30
0.0
  0
VERTEX
  5
18CD
  8
0
 10
183.29587037338581
 20
131.18720229913691
 30
0.0
  0
VERTEX
  5
18CE
  8
0
 10
183.29532453440149
 20
131.18289591385181
 30
0.0
  0
VERTEX
  5
18CF
  8
0
 10
183.29475728364309
 20
131.17844179266859
 30
0.0
  0
VERTEX
  5
18D0
  8
0
 10
183.2941692417574
 20
131.17384689689641
 30
0.0
  0
VERTEX
  5
18D1
  8
0
 10
183.2935609710587
 20
131.16911766544911
 30
0.0
  0
VERTEX
  5
18D2
  8
0
 10
183.2929329807049
 20
131.16426005809711
 30
0.0
  0
VERTEX
  5
18D3
  8
0
 10
183.29261173644551
 20
131.1617848550728
 30
0.0
  0
VERTEX
  5
18D4
  8
0
 10
183.2922857315896
 20
131.15927959670611
 30
0.0
  0
VERTEX
  5
18D5
  8
0
 10
183.29161965538549
 20
131.15418151448591
 30
0.0
  0
VERTEX
  5
18D6
  8
0
 10
183.2909353307551
 20
131.14897209465789
 30
0.0
  0
VERTEX
  5
18D7
  8
0
 10
183.28840243984521
 20
131.12993289098841
 30
0.0
  0
VERTEX
  5
18D8
  8
0
 10
183.28606826468311
 20
131.11271141422699
 30
0.0
  0
VERTEX
  5
18D9
  8
0
 10
183.28358970985431
 20
131.09474695621759
 30
0.0
  0
VERTEX
  5
18DA
  8
0
 10
183.27821188890951
 20
131.0568313151432
 30
0.0
  0
VERTEX
  5
18DB
  8
0
 10
183.2722783390544
 20
131.01653779205239
 30
0.0
  0
VERTEX
  5
18DC
  8
0
 10
183.26579800606081
 20
130.97418306590581
 30
0.0
  0
VERTEX
  5
18DD
  8
0
 10
183.25878905984061
 20
130.9301081065758
 30
0.0
  0
VERTEX
  5
18DE
  8
0
 10
183.25124568068441
 20
130.88447136404361
 30
0.0
  0
VERTEX
  5
18DF
  8
0
 10
183.24726978378399
 20
130.8611010301841
 30
0.0
  0
VERTEX
  5
18E0
  8
0
 10
183.2431550169639
 20
130.8373754942873
 30
0.0
  0
VERTEX
  5
18E1
  8
0
 10
183.23449880025171
 20
130.78888486278231
 30
0.0
  0
VERTEX
  5
18E2
  8
0
 10
183.22525361723291
 20
130.73903306855149
 30
0.0
  0
VERTEX
  5
18E3
  8
0
 10
183.1879066980753
 20
130.5542691677033
 30
0.0
  0
VERTEX
  5
18E4
  8
0
 10
183.14955273455871
 20
130.38571087813199
 30
0.0
  0
VERTEX
  5
18E5
  8
0
 10
183.1049863133376
 20
130.20938985552669
 30
0.0
  0
VERTEX
  5
18E6
  8
0
 10
182.9954780589251
 20
129.83684430012369
 30
0.0
  0
VERTEX
  5
18E7
  8
0
 10
182.85604483061411
 20
129.44278191260969
 30
0.0
  0
VERTEX
  5
18E8
  8
0
 10
182.68522333605469
 20
129.0362824930192
 30
0.0
  0
VERTEX
  5
18E9
  8
0
 10
182.48236370930849
 20
128.62505708949041
 30
0.0
  0
VERTEX
  5
18EA
  8
0
 10
182.2477300204674
 20
128.21601465468021
 30
0.0
  0
VERTEX
  5
18EB
  8
0
 10
182.11886201197311
 20
128.01433097441151
 30
0.0
  0
VERTEX
  5
18EC
  8
0
 10
181.9826280552744
 20
127.8155637656923
 30
0.0
  0
VERTEX
  5
18ED
  8
0
 10
181.68738996736261
 20
127.427075417871
 30
0.0
  0
VERTEX
  5
18EE
  8
0
 10
181.4966302635863
 20
127.2017384513595
 30
0.0
  0
VERTEX
  5
18EF
  8
0
 10
181.4394805320394
 20
127.1376339161406
 30
0.0
  0
VERTEX
  5
18F0
  8
0
 10
181.3811624269608
 20
127.0737251173184
 30
0.0
  0
VERTEX
  5
18F1
  8
0
 10
181.35156699943471
 20
127.041856244789
 30
0.0
  0
VERTEX
  5
18F2
  8
0
 10
181.32168169703621
 20
127.0100507918286
 30
0.0
  0
VERTEX
  5
18F3
  8
0
 10
181.26104488421879
 20
126.9466491400614
 30
0.0
  0
VERTEX
  5
18F4
  8
0
 10
181.1992592878502
 20
126.8835577812238
 30
0.0
  0
VERTEX
  5
18F5
  8
0
 10
181.1363329221968
 20
126.8208137077409
 30
0.0
  0
VERTEX
  5
18F6
  8
0
 10
181.07227446680599
 20
126.7584532387467
 30
0.0
  0
VERTEX
  5
18F7
  8
0
 10
181.00709323718721
 20
126.69651199917701
 30
0.0
  0
VERTEX
  5
18F8
  8
0
 10
180.9740847139735
 20
126.66570957922541
 30
0.0
  0
VERTEX
  5
18F9
  8
0
 10
180.94079938117531
 20
126.63502510891929
 30
0.0
  0
VERTEX
  5
18FA
  8
0
 10
180.87340405419181
 20
126.574027325994
 30
0.0
  0
VERTEX
  5
18FB
  8
0
 10
180.80491941246839
 20
126.5135530081368
 30
0.0
  0
VERTEX
  5
18FC
  8
0
 10
180.73535858886569
 20
126.4536360614552
 30
0.0
  0
VERTEX
  5
18FD
  8
0
 10
180.66473566351559
 20
126.3943098886885
 30
0.0
  0
VERTEX
  5
18FE
  8
0
 10
180.59306562870481
 20
126.3356073370454
 30
0.0
  0
VERTEX
  5
18FF
  8
0
 10
180.55684286969071
 20
126.3065000190701
 30
0.0
  0
VERTEX
  5
1900
  8
0
 10
180.5203643473921
 20
126.2775606456554
 30
0.0
  0
VERTEX
  5
1901
  8
0
 10
180.4466485047252
 20
126.22020139271029
 30
0.0
  0
VERTEX
  5
1902
  8
0
 10
180.37193555190649
 20
126.16356044244159
 30
0.0
  0
VERTEX
  5
1903
  8
0
 10
180.29624364175501
 20
126.10766789213839
 30
0.0
  0
VERTEX
  5
1904
  8
0
 10
180.2195915553053
 20
126.0525530194835
 30
0.0
  0
VERTEX
  5
1905
  8
0
 10
180.1419986188173
 20
125.9982442305643
 30
0.0
  0
VERTEX
  5
1906
  8
0
 10
180.10285416708339
 20
125.97139983729279
 30
0.0
  0
VERTEX
  5
1907
  8
0
 10
180.0634774684724
 20
125.9447642110253
 30
0.0
  0
VERTEX
  5
1908
  8
0
 10
179.98403727752861
 20
125.89213271129439
 30
0.0
  0
VERTEX
  5
1909
  8
0
 10
179.90369931863941
 20
125.840376785652
 30
0.0
  0
VERTEX
  5
190A
  8
0
 10
179.86320066883621
 20
125.81483549827681
 30
0.0
  0
VERTEX
  5
190B
  8
0
 10
179.82248610199159
 20
125.7895230317486
 30
0.0
  0
VERTEX
  5
190C
  8
0
 10
179.7404211919835
 20
125.73959742709729
 30
0.0
  0
VERTEX
  5
190D
  8
0
 10
179.65752914970321
 20
125.6906252588732
 30
0.0
  0
VERTEX
  5
190E
  8
0
 10
179.61578088568359
 20
125.6665044098573
 30
0.0
  0
VERTEX
  5
190F
  8
0
 10
179.5738354665211
 20
125.64263105477551
 30
0.0
  0
VERTEX
  5
1910
  8
0
 10
179.48936648814919
 20
125.595638515323
 30
0.0
  0
VERTEX
  5
1911
  8
0
 10
179.40414932855799
 20
125.54967044802891
 30
0.0
  0
VERTEX
  5
1912
  8
0
 10
179.31821177319881
 20
125.5047487039915
 30
0.0
  0
VERTEX
  5
1913
  8
0
 10
179.23158217106521
 20
125.4608941175145
 30
0.0
  0
VERTEX
  5
1914
  8
0
 10
179.1442893152325
 20
125.4181264494653
 30
0.0
  0
VERTEX
  5
1915
  8
0
 10
179.1004032543982
 20
125.3971560786713
 30
0.0
  0
VERTEX
  5
1916
  8
0
 10
179.05636231165741
 20
125.37646433515459
 30
0.0
  0
VERTEX
  5
1917
  8
0
 10
178.96783013145301
 20
125.33592510047551
 30
0.0
  0
VERTEX
  5
1918
  8
0
 10
178.87872138903299
 20
125.29652471615979
 30
0.0
  0
VERTEX
  5
1919
  8
0
 10
178.78906740882601
 20
125.2582791470256
 30
0.0
  0
VERTEX
  5
191A
  8
0
 10
178.69890063214359
 20
125.2212035353654
 30
0.0
  0
VERTEX
  5
191B
  8
0
 10
178.60825429209811
 20
125.1853120258257
 30
0.0
  0
VERTEX
  5
191C
  8
0
 10
178.5627618568638
 20
125.1678144390262
 30
0.0
  0
VERTEX
  5
191D
  8
0
 10
178.51716228748231
 20
125.1506176938709
 30
0.0
  0
VERTEX
  5
191E
  8
0
 10
178.425659045402
 20
125.11713248069179
 30
0.0
  0
VERTEX
  5
191F
  8
0
 10
178.33377937291439
 20
125.084867135419
 30
0.0
  0
VERTEX
  5
1920
  8
0
 10
178.28770931746701
 20
125.0691949340072
 30
0.0
  0
SEQEND
  5
1921
  8
0
  0
LINE
  5
714
  8
0
 10
178.28770931746701
 20
125.0691949340072
 30
0.0
 11
173.06208212082419
 21
123.310577086348
 31
0.0
  0
POLYLINE
  5
715
  8
0
 66
     1
 10
0.0
 20
0.0
 30
0.0
  0
VERTEX
  5
1922
  8
0
 10
92.790896546623514
 20
108.9799023503986
 30
0.0
  0
VERTEX
  5
1923
  8
0
 10
92.791018423594224
 20
109.0148130200198
 30
0.0
  0
VERTEX
  5
1924
  8
0
 10
92.791968660763644
 20
109.08343974447919
 30
0.0
  0
VERTEX
  5
1925
  8
0
 10
92.793809385054885
 20
109.1505478885357
 30
0.0
  0
VERTEX
  5
1926
  8
0
 10
92.795045991190548
 20
109.18356193838871
 30
0.0
  0
VERTEX
  5
1927
  8
0
 10
92.796484847718148
 20
109.2162321662011
 30
0.0
  0
VERTEX
  5
1928
  8
0
 10
92.799946038161636
 20
109.2805899325904
 30
0.0
  0
VERTEX
  5
1929
  8
0
 10
92.804150231348984
 20
109.3437171207089
 30
0.0
  0
VERTEX
  5
192A
  8
0
 10
92.809060308212011
 20
109.40570476191159
 30
0.0
  0
VERTEX
  5
192B
  8
0
 10
92.814643943508145
 20
109.4666363948085
 30
0.0
  0
VERTEX
  5
192C
  8
0
 10
92.820872760735639
 20
109.5265865075763
 30
0.0
  0
VERTEX
  5
192D
  8
0
 10
92.824221167510984
 20
109.5562144867601
 30
0.0
  0
VERTEX
  5
192E
  8
0
 10
92.827721791503734
 20
109.585622046415
 30
0.0
  0
VERTEX
  5
192F
  8
0
 10
92.835169750216394
 20
109.64380890961669
 30
0.0
  0
VERTEX
  5
1930
  8
0
 10
92.843198901441042
 20
109.7012122781384
 30
0.0
  0
VERTEX
  5
1931
  8
0
 10
92.851794657067074
 20
109.7578949754153
 30
0.0
  0
VERTEX
  5
1932
  8
0
 10
92.860945151419131
 20
109.8139162836889
 30
0.0
  0
VERTEX
  5
1933
  8
0
 10
92.870640819494994
 20
109.8693311444339
 30
0.0
  0
VERTEX
  5
1934
  8
0
 10
92.875690635567707
 20
109.8968270211989
 30
0.0
  0
VERTEX
  5
1935
  8
0
 10
92.880874001494334
 20
109.9241897040805
 30
0.0
  0
VERTEX
  5
1936
  8
0
 10
92.891638585509398
 20
109.97853713372049
 30
0.0
  0
VERTEX
  5
1937
  8
0
 10
92.902924617292115
 20
110.0323900786256
 30
0.0
  0
VERTEX
  5
1938
  8
0
 10
92.908759804263781
 20
110.0591339422736
 30
0.0
  0
VERTEX
  5
1939
  8
0
 10
92.914722216985851
 20
110.0857612505224
 30
0.0
  0
VERTEX
  5
193A
  8
0
 10
92.927026488968082
 20
110.1386810446467
 30
0.0
  0
VERTEX
  5
193B
  8
0
 10
92.939833608499512
 20
110.1911778642104
 30
0.0
  0
VERTEX
  5
193C
  8
0
 10
92.946424792461713
 20
110.21727594924771
 30
0.0
  0
VERTEX
  5
193D
  8
0
 10
92.953140655385894
 20
110.2432779623194
 30
0.0
  0
VERTEX
  5
193E
  8
0
 10
92.966945462068196
 20
110.2950053630246
 30
0.0
  0
VERTEX
  5
193F
  8
0
 10
92.981246477574075
 20
110.34638184651
 30
0.0
  0
VERTEX
  5
1940
  8
0
 10
92.996042647913214
 20
110.3974269851133
 30
0.0
  0
VERTEX
  5
1941
  8
0
 10
93.011333323457009
 20
110.4481582530786
 30
0.0
  0
VERTEX
  5
1942
  8
0
 10
93.027118300617843
 20
110.49859152955391
 30
0.0
  0
VERTEX
  5
1943
  8
0
 10
93.035196221832777
 20
110.5237010486703
 30
0.0
  0
VERTEX
  5
1944
  8
0
 10
93.043397855500984
 20
110.54874146827849
 30
0.0
  0
VERTEX
  5
1945
  8
0
 10
93.060172672802622
 20
110.5986214828182
 30
0.0
  0
VERTEX
  5
1946
  8
0
 10
93.077443780814633
 20
110.6482437496598
 30
0.0
  0
VERTEX
  5
1947
  8
0
 10
93.141821836274076
 20
110.8200393935531
 30
0.0
  0
VERTEX
  5
1948
  8
0
 10
93.265919642206455
 20
111.1070093092731
 30
0.0
  0
VERTEX
  5
1949
  8
0
 10
93.406443289197156
 20
111.3833518783571
 30
0.0
  0
VERTEX
  5
194A
  8
0
 10
93.562357778635629
 20
111.6481339534691
 30
0.0
  0
VERTEX
  5
194B
  8
0
 10
93.645655807880075
 20
111.77578847430679
 30
0.0
  0
VERTEX
  5
194C
  8
0
 10
93.732228198512004
 20
111.9000412580601
 30
0.0
  0
VERTEX
  5
194D
  8
0
 10
93.914147111325917
 20
112.1375618975823
 30
0.0
  0
VERTEX
  5
194E
  8
0
 10
94.107145143236082
 20
112.3607270423993
 30
0.0
  0
VERTEX
  5
194F
  8
0
 10
94.317581397839206
 20
112.5765788547879
 30
0.0
  0
VERTEX
  5
1950
  8
0
 10
94.546457964201849
 20
112.7843232373267
 30
0.0
  0
VERTEX
  5
1951
  8
0
 10
94.793453267098158
 20
112.9818186146436
 30
0.0
  0
VERTEX
  5
1952
  8
0
 10
94.923592731049709
 20
113.0760674873525
 30
0.0
  0
VERTEX
  5
1953
  8
0
 10
95.058052553239307
 20
113.1669733681656
 30
0.0
  0
VERTEX
  5
1954
  8
0
 10
95.339523907189843
 20
113.3377426621398
 30
0.0
  0
VERTEX
  5
1955
  8
0
 10
95.636913482318022
 20
113.49214757408561
 30
0.0
  0
VERTEX
  5
1956
  8
0
 10
95.791254768355685
 20
113.5626343694683
 30
0.0
  0
SEQEND
  5
1957
  8
0
  0
POLYLINE
  5
717
  8
0
 66
     1
 10
0.0
 20
0.0
 30
0.0
  0
VERTEX
  5
1958
  8
0
 10
173.06208212082419
 20
123.310577086348
 30
0.0
  0
VERTEX
  5
1959
  8
0
 10
172.9655322396828
 20
123.27856835472571
 30
0.0
  0
VERTEX
  5
195A
  8
0
 10
172.77158622023961
 20
123.21716921782981
 30
0.0
  0
VERTEX
  5
195B
  8
0
 10
172.57656446410439
 20
123.1592777063332
 30
0.0
  0
VERTEX
  5
195C
  8
0
 10
172.47866999410471
 20
123.1316532390629
 30
0.0
  0
VERTEX
  5
195D
  8
0
 10
172.38053040305809
 20
123.10491264973339
 30
0.0
  0
VERTEX
  5
195E
  8
0
 10
172.18354779813859
 20
123.054091730531
 30
0.0
  0
VERTEX
  5
195F
  8
0
 10
171.98568071890259
 20
123.006831478479
 30
0.0
  0
VERTEX
  5
1960
  8
0
 10
171.7869935225861
 20
122.96314726520571
 30
0.0
  0
VERTEX
  5
1961
  8
0
 10
171.5875508331724
 20
122.9230532992152
 30
0.0
  0
VERTEX
  5
1962
  8
0
 10
171.38741752037251
 20
122.88656262126619
 30
0.0
  0
VERTEX
  5
1963
  8
0
 10
171.2871122139878
 20
122.86967227018739
 30
0.0
  0
VERTEX
  5
1964
  8
0
 10
171.18665867852619
 20
122.8536871001305
 30
0.0
  0
VERTEX
  5
1965
  8
0
 10
170.98533960542949
 20
122.8244374287322
 30
0.0
  0
VERTEX
  5
1966
  8
0
 10
170.7835257810965
 20
122.79882312066999
 30
0.0
  0
VERTEX
  5
1967
  8
0
 10
170.58128284646151
 20
122.77685250712319
 30
0.0
  0
VERTEX
  5
1968
  8
0
 10
170.3786765820289
 20
122.7585327341412
 30
0.0
  0
VERTEX
  5
1969
  8
0
 10
170.1757728864782
 20
122.7438697603199
 30
0.0
  0
VERTEX
  5
196A
  8
0
 10
170.07423012241011
 20
122.73791110997639
 30
0.0
  0
VERTEX
  5
196B
  8
0
 10
169.97263775522961
 20
122.7328683548634
 30
0.0
  0
VERTEX
  5
196C
  8
0
 10
169.76933725897891
 20
122.72553209603259
 30
0.0
  0
VERTEX
  5
196D
  8
0
 10
169.56593752220769
 20
122.7218633699817
 30
0.0
  0
VERTEX
  5
196E
  8
0
 10
169.4642211119419
 20
122.7214047512562
 30
0.0
  0
SEQEND
  5
196F
  8
0
  0
LINE
  5
718
  8
0
 10
169.4642211119419
 20
122.7214047512562
 30
0.0
 11
160.67694776148369
 21
122.7214047512562
 31
0.0
  0
POLYLINE
  5
719
  8
0
 66
     1
 10
0.0
 20
0.0
 30
0.0
  0
VERTEX
  5
1970
  8
0
 10
160.67694776148369
 20
122.7214047512562
 30
0.0
  0
VERTEX
  5
1971
  8
0
 10
160.61335833083129
 20
122.7211693804128
 30
0.0
  0
VERTEX
  5
1972
  8
0
 10
160.48619340842561
 20
122.7192864910561
 30
0.0
  0
VERTEX
  5
1973
  8
0
 10
160.35907029966179
 20
122.7155211250751
 30
0.0
  0
VERTEX
  5
1974
  8
0
 10
160.29553313391341
 20
122.7129327551653
 30
0.0
  0
VERTEX
  5
1975
  8
0
 10
160.23201687011669
 20
122.7098741078435
 30
0.0
  0
VERTEX
  5
1976
  8
0
 10
160.10506097009389
 20
122.7023466771961
 30
0.0
  0
VERTEX
  5
1977
  8
0
 10
159.97823042851789
 20
122.6929404831569
 30
0.0
  0
VERTEX
  5
1978
  8
0
 10
159.8515530468346
 20
122.681657587578
 30
0.0
  0
VERTEX
  5
1979
  8
0
 10
159.7250565929171
 20
122.668500463687
 30
0.0
  0
VERTEX
  5
197A
  8
0
 10
159.59876879497901
 20
122.6534719955454
 30
0.0
  0
VERTEX
  5
197B
  8
0
 10
159.5357117947284
 20
122.6452570208333
 30
0.0
  0
VERTEX
  5
197C
  8
0
 10
159.4727173354957
 20
122.6365754774159
 30
0.0
  0
VERTEX
  5
197D
  8
0
 10
159.34692984513731
 20
122.61781461304091
 30
0.0
  0
VERTEX
  5
197E
  8
0
 10
159.2214338967112
 20
122.5971935148301
 30
0.0
  0
VERTEX
  5
197F
  8
0
 10
159.09625699911871
 20
122.57471670295941
 30
0.0
  0
VERTEX
  5
1980
  8
0
 10
158.97142659132439
 20
122.5503891043797
 30
0.0
  0
VERTEX
  5
1981
  8
0
 10
158.84697003634159
 20
122.5242160517374
 30
0.0
  0
VERTEX
  5
1982
  8
0
 10
158.78489048235221
 20
122.5104392572411
 30
0.0
  0
VERTEX
  5
1983
  8
0
 10
158.72291461523531
 20
122.496203282205
 30
0.0
  0
VERTEX
  5
1984
  8
0
 10
158.5992875211405
 20
122.4663569362238
 30
0.0
  0
VERTEX
  5
1985
  8
0
 10
158.47611585330259
 20
122.43468355615801
 30
0.0
  0
VERTEX
  5
1986
  8
0
 10
158.4147092456088
 20
122.41816388238171
 30
0.0
  0
SEQEND
  5
1987
  8
0
  0
LINE
  5
71E
  8
0
 10
113.5409342994741
 20
90.661404751256185
 30
0.0
 11
93.040858793772955
 21
90.661404751256185
 31
0.0
  0
POLYLINE
  5
71F
  8
0
 66
     1
 10
0.0
 20
0.0
 30
0.0
  0
VERTEX
  5
1988
  8
0
 10
133.48032515273201
 20
113.93465417368481
 30
0.0
  0
VERTEX
  5
1989
  8
0
 10
132.92704668377351
 20
113.7067152807913
 30
0.0
  0
VERTEX
  5
198A
  8
0
 10
131.8151908312019
 20
113.2431776251094
 30
0.0
  0
VERTEX
  5
198B
  8
0
 10
130.6975935573349
 20
112.7698320927432
 30
0.0
  0
VERTEX
  5
198C
  8
0
 10
130.13714689742551
 20
112.5296460972402
 30
0.0
  0
VERTEX
  5
198D
  8
0
 10
129.57587056701291
 20
112.28721067856461
 30
0.0
  0
VERTEX
  5
198E
  8
0
 10
128.45163087759931
 20
111.7958828952938
 30
0.0
  0
VERTEX
  5
198F
  8
0
 10
127.326470936821
 20
111.29645394749851
 30
0.0
  0
VERTEX
  5
1990
  8
0
 10
126.2019802136663
 20
110.7895677593251
 30
0.0
  0
VERTEX
  5
1991
  8
0
 10
125.0797107109417
 20
110.2758934758476
 30
0.0
  0
VERTEX
  5
1992
  8
0
 10
123.9609883615263
 20
109.7560365362542
 30
0.0
  0
VERTEX
  5
1993
  8
0
 10
123.4034159975713
 20
109.4940095809078
 30
0.0
  0
VERTEX
  5
1994
  8
0
 10
122.8472900688938
 20
109.2307104675301
 30
0.0
  0
VERTEX
  5
1995
  8
0
 10
121.7401304473137
 20
108.7006879715493
 30
0.0
  0
VERTEX
  5
1996
  8
0
 10
120.640998219089
 20
108.166771448688
 30
0.0
  0
VERTEX
  5
1997
  8
0
 10
119.5513604058977
 20
107.62979435702211
 30
0.0
  0
VERTEX
  5
1998
  8
0
 10
118.4726617059128
 20
107.0906201895327
 30
0.0
  0
VERTEX
  5
1999
  8
0
 10
117.40630267748109
 20
106.5501304715628
 30
0.0
  0
VERTEX
  5
199A
  8
0
 10
116.8781797614963
 20
106.2796741143804
 30
0.0
  0
VERTEX
  5
199B
  8
0
 10
116.35365668201079
 20
106.009231758006
 30
0.0
  0
VERTEX
  5
199C
  8
0
 10
115.31608572127941
 20
105.46886262868151
 30
0.0
  0
VERTEX
  5
199D
  8
0
 10
114.2949201116076
 20
104.9299819952211
 30
0.0
  0
VERTEX
  5
199E
  8
0
 10
113.7908965466234
 20
104.6614047512562
 30
0.0
  0
SEQEND
  5
199F
  8
0
  0
LINE
  5
720
  8
0
 10
134.94882910782511
 20
114.5309203318245
 30
0.0
 11
133.48032515273201
 21
113.93465417368481
 31
0.0
  0
POLYLINE
  5
721
  8
0
 66
     1
 10
0.0
 20
0.0
 30
0.0
  0
VERTEX
  5
19A0
  8
0
 10
158.4147092456088
 20
122.41816388238161
 30
0.0
  0
VERTEX
  5
19A1
  8
0
 10
154.44287167831791
 20
121.29268593894579
 30
0.0
  0
VERTEX
  5
19A2
  8
0
 10
146.56786211304919
 20
118.8134348375913
 30
0.0
  0
VERTEX
  5
19A3
  8
0
 10
138.7941189070055
 20
116.0328992339476
 30
0.0
  0
VERTEX
  5
19A4
  8
0
 10
134.94882910782511
 20
114.5309203318245
 30
0.0
  0
SEQEND
  5
19A5
  8
0
  0
LINE
  5
722
  8
0
 10
92.790896546623514
 20
90.911366998405654
 30
0.0
 11
93.040858793772955
 21
90.661404751256185
 31
0.0
  0
LINE
  5
723
  8
0
 10
109.30099311243239
 20
119.0230673497918
 30
0.0
 11
110.19315404769399
 21
119.3537906439841
 31
0.0
  0
LINE
  5
724
  8
0
 10
177.80089654662351
 20
134.6739479092727
 30
0.0
 11
181.0996395201262
 21
134.95920781078911
 31
0.0
  0
POLYLINE
  5
725
  8
0
 66
     1
 10
0.0
 20
0.0
 30
0.0
  0
VERTEX
  5
19A6
  8
0
 10
134.94882910782511
 20
127.1345853679103
 30
0.0
  0
VERTEX
  5
19A7
  8
0
 10
141.99644600927809
 20
128.87591579307741
 30
0.0
  0
VERTEX
  5
19A8
  8
0
 10
156.22081053723099
 20
131.77986574709399
 30
0.0
  0
VERTEX
  5
19A9
  8
0
 10
170.5821527464733
 20
133.9052648880909
 30
0.0
  0
VERTEX
  5
19AA
  8
0
 10
177.80089654662351
 20
134.6739479092727
 30
0.0
  0
SEQEND
  5
19AB
  8
0
  0
LINE
  5
726
  8
0
 10
133.48032515273201
 20
126.7459870170174
 30
0.0
 11
134.94882910782511
 21
127.1345853679103
 31
0.0
  0
POLYLINE
  5
727
  8
0
 66
     1
 10
0.0
 20
0.0
 30
0.0
  0
VERTEX
  5
19AC
  8
0
 10
108.0234068075885
 20
118.5431449120934
 30
0.0
  0
VERTEX
  5
19AD
  8
0
 10
108.70317220187449
 20
118.7994261711076
 30
0.0
  0
VERTEX
  5
19AE
  8
0
 10
110.0707935505437
 20
119.30864588756261
 30
0.0
  0
VERTEX
  5
19AF
  8
0
 10
111.4464473494547
 20
119.8122838170561
 30
0.0
  0
VERTEX
  5
19B0
  8
0
 10
112.1362268369078
 20
120.06159754326841
 30
0.0
  0
VERTEX
  5
19B1
  8
0
 10
112.8267387413496
 20
120.3090303407344
 30
0.0
  0
VERTEX
  5
19B2
  8
0
 10
114.2082136572692
 20
120.7976389900748
 30
0.0
  0
VERTEX
  5
19B3
  8
0
 10
115.5872805292212
 20
121.2769005036303
 30
0.0
  0
VERTEX
  5
19B4
  8
0
 10
116.96025649925021
 20
121.7456613496197
 30
0.0
  0
VERTEX
  5
19B5
  8
0
 10
118.3233756998078
 20
122.20282736193251
 30
0.0
  0
VERTEX
  5
19B6
  8
0
 10
119.67950759710349
 20
122.6495570683318
 30
0.0
  0
VERTEX
  5
19B7
  8
0
 10
120.3663974795292
 20
122.87276257855061
 30
0.0
  0
VERTEX
  5
19B8
  8
0
 10
121.0602865522232
 20
123.0961565042801
 30
0.0
  0
VERTEX
  5
19B9
  8
0
 10
122.46725018303979
 20
123.5427082974342
 30
0.0
  0
VERTEX
  5
19BA
  8
0
 10
123.896749743277
 20
123.987654475591
 30
0.0
  0
VERTEX
  5
19BB
  8
0
 10
125.3450868589325
 20
124.4295079999501
 30
0.0
  0
VERTEX
  5
19BC
  8
0
 10
126.8085406804299
 20
124.8668644193172
 30
0.0
  0
VERTEX
  5
19BD
  8
0
 10
128.28338905495889
 20
125.2984101811759
 30
0.0
  0
VERTEX
  5
19BE
  8
0
 10
129.0239009918136
 20
125.5116124672095
 30
0.0
  0
VERTEX
  5
19BF
  8
0
 10
129.7658381446405
 20
125.7229036221576
 30
0.0
  0
VERTEX
  5
19C0
  8
0
 10
131.25208810688019
 20
126.1391957015898
 30
0.0
  0
VERTEX
  5
19C1
  8
0
 10
132.73832925364181
 20
126.5462288734538
 30
0.0
  0
VERTEX
  5
19C2
  8
0
 10
133.48032515273201
 20
126.7459870170174
 30
0.0
  0
SEQEND
  5
19C3
  8
0
  0
POLYLINE
  5
728
  8
0
 66
     1
 10
0.0
 20
0.0
 30
0.0
  0
VERTEX
  5
19C4
  8
0
 10
95.7912547683556
 20
113.5626343694686
 30
0.0
  0
VERTEX
  5
19C5
  8
0
 10
96.073737174875419
 20
113.6856992550221
 30
0.0
  0
VERTEX
  5
19C6
  8
0
 10
96.660377128224425
 20
113.9400326106621
 30
0.0
  0
VERTEX
  5
19C7
  8
0
 10
97.269907899822954
 20
114.20252254225549
 30
0.0
  0
VERTEX
  5
19C8
  8
0
 10
97.580843025891681
 20
114.33573245134021
 30
0.0
  0
VERTEX
  5
19C9
  8
0
 10
97.894516510167691
 20
114.4696428230417
 30
0.0
  0
VERTEX
  5
19CA
  8
0
 10
98.525659676839311
 20
114.73764863332271
 30
0.0
  0
VERTEX
  5
19CB
  8
0
 10
99.167403914450105
 20
115.0081948903256
 30
0.0
  0
VERTEX
  5
19CC
  8
0
 10
99.840432572185122
 20
115.28981267279249
 30
0.0
  0
VERTEX
  5
19CD
  8
0
 10
100.5397390041306
 20
115.5801374755758
 30
0.0
  0
VERTEX
  5
19CE
  8
0
 10
101.2591490965759
 20
115.8763832620885
 30
0.0
  0
VERTEX
  5
19CF
  8
0
 10
101.62437357390399
 20
116.02584049706741
 30
0.0
  0
VERTEX
  5
19D0
  8
0
 10
101.99216153623669
 20
116.1757095934681
 30
0.0
  0
VERTEX
  5
19D1
  8
0
 10
102.732191393804
 20
116.4753298126961
 30
0.0
  0
VERTEX
  5
19D2
  8
0
 10
103.472826316076
 20
116.77261727081719
 30
0.0
  0
VERTEX
  5
19D3
  8
0
 10
104.2071133556686
 20
117.06482011761619
 30
0.0
  0
VERTEX
  5
19D4
  8
0
 10
104.92812393544421
 20
117.3492907760302
 30
0.0
  0
VERTEX
  5
19D5
  8
0
 10
105.6289555353396
 20
117.6234822154121
 30
0.0
  0
VERTEX
  5
19D6
  8
0
 10
105.96990492668959
 20
117.75605046310289
 30
0.0
  0
VERTEX
  5
19D7
  8
0
 10
106.3106110686339
 20
117.8879866143858
 30
0.0
  0
VERTEX
  5
19D8
  8
0
 10
106.99708624853
 20
118.1521909652518
 30
0.0
  0
VERTEX
  5
19D9
  8
0
 10
107.68313104848779
 20
118.41406075305579
 30
0.0
  0
VERTEX
  5
19DA
  8
0
 10
108.0234068075885
 20
118.5431449120934
 30
0.0
  0
SEQEND
  5
19DB
  8
0
  0
LINE
  5
72A
  8
0
 10
95.600896546623517
 20
80.661404751256185
 30
0.0
 11
111.00089654662349
 21
80.661404751256185
 31
0.0
  0
LINE
  5
72C
  8
0
 10
95.300896546623491
 20
80.961404751256183
 30
0.0
 11
111.30089654662351
 21
80.961404751256183
 31
0.0
  0
LINE
  5
740
  8
2
 10
230.53044016009929
 20
96.661404751256214
 30
0.0
 11
226.3424401600993
 21
99.079347678622185
 31
0.0
  0
LINE
  5
741
  8
2
 10
226.3424401600993
 20
99.079347678622185
 30
0.0
 11
222.15444016009931
 21
96.661404751256214
 31
0.0
  0
LINE
  5
742
  8
2
 10
230.53044016009929
 20
81.473404751256183
 30
0.0
 11
230.53044016009929
 21
96.661404751256214
 31
0.0
  0
LINE
  5
743
  8
2
 10
222.15444016009931
 20
96.661404751256214
 30
0.0
 11
222.15444016009931
 21
81.473404751256183
 31
0.0
  0
LINE
  5
744
  8
2
 10
231.3424401600993
 20
80.661404751256185
 30
0.0
 11
230.53044016009929
 21
81.473404751256183
 31
0.0
  0
LINE
  5
745
  8
2
 10
222.15444016009931
 20
81.473404751256183
 30
0.0
 11
221.3424401600993
 21
80.661404751256185
 31
0.0
  0
LINE
  5
763
  8
2
 10
222.15444016009931
 20
96.661404751256214
 30
0.0
 11
230.53044016009929
 21
96.661404751256214
 31
0.0
  0
LINE
  5
764
  8
2
 10
222.15444016009931
 20
81.473404751256183
 30
0.0
 11
230.53044016009929
 21
81.473404751256183
 31
0.0
  0
LINE
  5
765
  8
2
 10
231.3424401600993
 20
80.661404751256185
 30
0.0
 11
231.3424401600993
 21
94.661404751256185
 31
0.0
  0
LINE
  5
766
  8
2
 10
231.3424401600993
 20
94.661404751256185
 30
0.0
 11
221.3424401600993
 21
94.661404751256185
 31
0.0
  0
LINE
  5
767
  8
2
 10
221.3424401600993
 20
80.661404751256185
 30
0.0
 11
221.3424401600993
 21
94.661404751256185
 31
0.0
  0
LINE
  5
768
  8
1
 10
226.3424401600993
 20
136.96625309479779
 30
0.0
 11
226.3424401600993
 21
78.586404751256183
 31
0.0
  0
LINE
  5
769
  8
0
 10
230.6058522115124
 20
134.96625309479779
 30
0.0
 11
222.07902810868629
 21
134.96625309479779
 31
0.0
  0
LINE
  5
76A
  8
0
 10
233.3965075647256
 20
114.41458875799739
 30
0.0
 11
233.3965075647256
 21
127.058826423092
 31
0.0
  0
LINE
  5
76D
  8
0
 10
219.28837275547329
 20
127.0588264230919
 30
0.0
 11
219.28837275547329
 21
114.41458875799729
 31
0.0
  0
LINE
  5
770
  8
0
 10
234.04244016009929
 20
80.661404751256185
 30
0.0
 11
234.3424401600993
 21
80.961404751256183
 31
0.0
  0
LINE
  5
771
  8
0
 10
218.3424401600993
 20
80.961404751256183
 30
0.0
 11
218.6424401600994
 21
80.661404751256185
 31
0.0
  0
LINE
  5
772
  8
0
 10
234.3424401600993
 20
80.961404751256183
 30
0.0
 11
234.3424401600993
 21
90.661404751256185
 31
0.0
  0
LINE
  5
773
  8
0
 10
218.3424401600993
 20
90.661404751256185
 30
0.0
 11
218.3424401600993
 21
80.961404751256183
 31
0.0
  0
LINE
  5
774
  8
0
 10
226.152091162354
 20
131.2009969175293
 30
0.0
 11
226.5327891578446
 21
131.2009969175293
 31
0.0
  0
LINE
  5
775
  8
0
 10
220.86402676513319
 20
125.0691949340072
 30
0.0
 11
231.82085355506541
 21
125.0691949340072
 31
0.0
  0
LINE
  5
776
  8
0
 10
220.67116024953529
 20
123.310577086348
 30
0.0
 11
232.0137200706634
 21
123.310577086348
 31
0.0
  0
POLYLINE
  5
777
  8
0
 66
     1
 10
0.0
 20
0.0
 30
0.0
  0
VERTEX
  5
19DC
  8
0
 10
221.94149767072651
 20
134.95920781078911
 30
0.0
  0
VERTEX
  5
19DD
  8
0
 10
221.9639893484775
 20
134.9613945863403
 30
0.0
  0
VERTEX
  5
19DE
  8
0
 10
222.0095285418532
 20
134.96452975459201
 30
0.0
  0
VERTEX
  5
19DF
  8
0
 10
222.05572138711099
 20
134.9660646458486
 30
0.0
  0
VERTEX
  5
19E0
  8
0
 10
222.07902810896491
 20
134.96625309479779
 30
0.0
  0
SEQEND
  5
19E1
  8
0
  0
POLYLINE
  5
778
  8
0
 66
     1
 10
0.0
 20
0.0
 30
0.0
  0
VERTEX
  5
19E2
  8
0
 10
222.07902810896491
 20
134.96625309479779
 30
0.0
  0
VERTEX
  5
19E3
  8
0
 10
222.1109507164615
 20
134.96591082300071
 30
0.0
  0
VERTEX
  5
19E4
  8
0
 10
222.17531056068711
 20
134.96325035232871
 30
0.0
  0
VERTEX
  5
19E5
  8
0
 10
222.2400831624731
 20
134.95814077456831
 30
0.0
  0
VERTEX
  5
19E6
  8
0
 10
222.2725173691781
 20
134.95474237127081
 30
0.0
  0
VERTEX
  5
19E7
  8
0
 10
222.30492453710761
 20
134.95082391962211
 30
0.0
  0
VERTEX
  5
19E8
  8
0
 10
222.3695607290324
 20
134.94154678591471
 30
0.0
  0
VERTEX
  5
19E9
  8
0
 10
222.43481500758611
 20
134.9303575684124
 30
0.0
  0
VERTEX
  5
19EA
  8
0
 10
222.50097290782111
 20
134.91731135757561
 30
0.0
  0
VERTEX
  5
19EB
  8
0
 10
222.56801430615761
 20
134.90249721071851
 30
0.0
  0
VERTEX
  5
19EC
  8
0
 10
222.63591970778509
 20
134.88599933579829
 30
0.0
  0
VERTEX
  5
19ED
  8
0
 10
222.67019040583079
 20
134.87714414911341
 30
0.0
  0
VERTEX
  5
19EE
  8
0
 10
222.70466991071649
 20
134.86789773750999
 30
0.0
  0
VERTEX
  5
19EF
  8
0
 10
222.774245724944
 20
134.84826882277099
 30
0.0
  0
VERTEX
  5
19F0
  8
0
 10
222.84462774639849
 20
134.82718596085229
 30
0.0
  0
VERTEX
  5
19F1
  8
0
 10
222.9157961837582
 20
134.80471999589909
 30
0.0
  0
VERTEX
  5
19F2
  8
0
 10
222.98773073498751
 20
134.78093971163719
 30
0.0
  0
VERTEX
  5
19F3
  8
0
 10
223.06041050974571
 20
134.7559122497168
 30
0.0
  0
VERTEX
  5
19F4
  8
0
 10
223.09702315721691
 20
134.74295145294681
 30
0.0
  0
VERTEX
  5
19F5
  8
0
 10
223.1338139934154
 20
134.7297034844226
 30
0.0
  0
VERTEX
  5
19F6
  8
0
 10
223.2079190483683
 20
134.70237835744041
 30
0.0
  0
VERTEX
  5
19F7
  8
0
 10
223.2827030829533
 20
134.67400112524669
 30
0.0
  0
VERTEX
  5
19F8
  8
0
 10
223.3203427538144
 20
134.6594378476222
 30
0.0
  0
VERTEX
  5
19F9
  8
0
 10
223.35814383023541
 20
134.6446353394679
 30
0.0
  0
VERTEX
  5
19FA
  8
0
 10
223.43421901451541
 20
134.6143442246638
 30
0.0
  0
VERTEX
  5
19FB
  8
0
 10
223.5109061426046
 20
134.58319102379471
 30
0.0
  0
VERTEX
  5
19FC
  8
0
 10
223.54947211681949
 20
134.56731096765
 30
0.0
  0
VERTEX
  5
19FD
  8
0
 10
223.58818258588789
 20
134.5512392337009
 30
0.0
  0
VERTEX
  5
19FE
  8
0
 10
223.6660256794751
 20
134.51855283401679
 30
0.0
  0
VERTEX
  5
19FF
  8
0
 10
223.7444128361179
 20
134.4851965147833
 30
0.0
  0
VERTEX
  5
1A00
  8
0
 10
223.82332167323241
 20
134.45123590809459
 30
0.0
  0
VERTEX
  5
1A01
  8
0
 10
223.90273015153809
 20
134.4167378293948
 30
0.0
  0
VERTEX
  5
1A02
  8
0
 10
223.98261672394321
 20
134.38177053435501
 30
0.0
  0
VERTEX
  5
1A03
  8
0
 10
224.02273273522101
 20
134.36413272246111
 30
0.0
  0
VERTEX
  5
1A04
  8
0
 10
224.0629604933377
 20
134.34640399762779
 30
0.0
  0
VERTEX
  5
1A05
  8
0
 10
224.1437413778967
 20
134.31071022018921
 30
0.0
  0
VERTEX
  5
1A06
  8
0
 10
224.2249370936924
 20
134.2747649844413
 30
0.0
  0
VERTEX
  5
1A07
  8
0
 10
224.30650466236321
 20
134.2386564914967
 30
0.0
  0
VERTEX
  5
1A08
  8
0
 10
224.38842728143831
 20
134.20246502815681
 30
0.0
  0
VERTEX
  5
1A09
  8
0
 10
224.4706963175345
 20
134.1662714878702
 30
0.0
  0
VERTEX
  5
1A0A
  8
0
 10
224.51195855326131
 20
134.14820031446601
 30
0.0
  0
VERTEX
  5
1A0B
  8
0
 10
224.55330502555699
 20
134.13016083662239
 30
0.0
  0
VERTEX
  5
1A0C
  8
0
 10
224.6362488013317
 20
134.09422276522159
 30
0.0
  0
VERTEX
  5
1A0D
  8
0
 10
224.7195254007504
 20
134.05855243962719
 30
0.0
  0
VERTEX
  5
1A0E
  8
0
 10
224.80313511482001
 20
134.02325135659771
 30
0.0
  0
VERTEX
  5
1A0F
  8
0
 10
224.88708134579079
 20
133.9884281188468
 30
0.0
  0
VERTEX
  5
1A10
  8
0
 10
224.9713714302207
 20
133.95419920998199
 30
0.0
  0
VERTEX
  5
1A11
  8
0
 10
225.01364888374201
 20
133.9373464420818
 30
0.0
  0
VERTEX
  5
1A12
  8
0
 10
225.05601701583791
 20
133.92069005386981
 30
0.0
  0
VERTEX
  5
1A13
  8
0
 10
225.14103418970379
 20
133.8880362374687
 30
0.0
  0
VERTEX
  5
1A14
  8
0
 10
225.22644332505169
 20
133.85638484719269
 30
0.0
  0
VERTEX
  5
1A15
  8
0
 10
225.31226605518469
 20
133.8258967175347
 30
0.0
  0
VERTEX
  5
1A16
  8
0
 10
225.3985261499964
 20
133.79674688666071
 30
0.0
  0
VERTEX
  5
1A17
  8
0
 10
225.48525691781171
 20
133.76912273325769
 30
0.0
  0
VERTEX
  5
1A18
  8
0
 10
225.52881149741251
 20
133.75594499007229
 30
0.0
  0
VERTEX
  5
1A19
  8
0
 10
225.57249996657529
 20
133.7432250131298
 30
0.0
  0
VERTEX
  5
1A1A
  8
0
 10
225.66030444714889
 20
133.71926804912769
 30
0.0
  0
VERTEX
  5
1A1B
  8
0
 10
225.74872547318961
 20
133.69747918466791
 30
0.0
  0
VERTEX
  5
1A1C
  8
0
 10
225.83782179492269
 20
133.67809703591519
 30
0.0
  0
VERTEX
  5
1A1D
  8
0
 10
225.9276529870337
 20
133.66136803832231
 30
0.0
  0
VERTEX
  5
1A1E
  8
0
 10
226.01827664637071
 20
133.647540868481
 30
0.0
  0
VERTEX
  5
1A1F
  8
0
 10
226.063902574987
 20
133.6417919055045
 30
0.0
  0
VERTEX
  5
1A20
  8
0
 10
226.109746341837
 20
133.63685860045271
 30
0.0
  0
VERTEX
  5
1A21
  8
0
 10
226.202111225149
 20
133.62954896032701
 30
0.0
  0
VERTEX
  5
1A22
  8
0
 10
226.2954181719623
 20
133.62581371344709
 30
0.0
  0
VERTEX
  5
1A23
  8
0
 10
226.3424401600993
 20
133.62533997887039
 30
0.0
  0
VERTEX
  5
1A24
  8
0
 10
226.3894621482363
 20
133.6258137134472
 30
0.0
  0
VERTEX
  5
1A25
  8
0
 10
226.48276909504969
 20
133.6295489603269
 30
0.0
  0
VERTEX
  5
1A26
  8
0
 10
226.57513397836169
 20
133.63685860045271
 30
0.0
  0
VERTEX
  5
1A27
  8
0
 10
226.62097774521169
 20
133.6417919055045
 30
0.0
  0
VERTEX
  5
1A28
  8
0
 10
226.66660367382781
 20
133.647540868481
 30
0.0
  0
VERTEX
  5
1A29
  8
0
 10
226.75722733316499
 20
133.66136803832231
 30
0.0
  0
VERTEX
  5
1A2A
  8
0
 10
226.84705852527591
 20
133.67809703591519
 30
0.0
  0
VERTEX
  5
1A2B
  8
0
 10
226.93615484700899
 20
133.69747918466791
 30
0.0
  0
VERTEX
  5
1A2C
  8
0
 10
227.02457587304971
 20
133.71926804912769
 30
0.0
  0
VERTEX
  5
1A2D
  8
0
 10
227.11238035362339
 20
133.74322501312989
 30
0.0
  0
VERTEX
  5
1A2E
  8
0
 10
227.15606882278621
 20
133.75594499007229
 30
0.0
  0
VERTEX
  5
1A2F
  8
0
 10
227.19962340238709
 20
133.76912273325769
 30
0.0
  0
VERTEX
  5
1A30
  8
0
 10
227.2863541702022
 20
133.79674688666071
 30
0.0
  0
VERTEX
  5
1A31
  8
0
 10
227.37261426501399
 20
133.8258967175347
 30
0.0
  0
VERTEX
  5
1A32
  8
0
 10
227.458436995147
 20
133.85638484719269
 30
0.0
  0
VERTEX
  5
1A33
  8
0
 10
227.5438461304949
 20
133.8880362374687
 30
0.0
  0
VERTEX
  5
1A34
  8
0
 10
227.62886330436069
 20
133.92069005386981
 30
0.0
  0
VERTEX
  5
1A35
  8
0
 10
227.67123143645671
 20
133.9373464420818
 30
0.0
  0
VERTEX
  5
1A36
  8
0
 10
227.7135088899779
 20
133.95419920998199
 30
0.0
  0
VERTEX
  5
1A37
  8
0
 10
227.79779897440781
 20
133.9884281188468
 30
0.0
  0
VERTEX
  5
1A38
  8
0
 10
227.88174520537871
 20
134.02325135659771
 30
0.0
  0
VERTEX
  5
1A39
  8
0
 10
227.9653549194482
 20
134.05855243962719
 30
0.0
  0
VERTEX
  5
1A3A
  8
0
 10
228.04863151886701
 20
134.09422276522159
 30
0.0
  0
VERTEX
  5
1A3B
  8
0
 10
228.13157529464161
 20
134.13016083662239
 30
0.0
  0
VERTEX
  5
1A3C
  8
0
 10
228.17292176693741
 20
134.14820031446601
 30
0.0
  0
VERTEX
  5
1A3D
  8
0
 10
228.21418400266421
 20
134.1662714878702
 30
0.0
  0
VERTEX
  5
1A3E
  8
0
 10
228.29645303876029
 20
134.20246502815681
 30
0.0
  0
VERTEX
  5
1A3F
  8
0
 10
228.37837565783551
 20
134.2386564914967
 30
0.0
  0
VERTEX
  5
1A40
  8
0
 10
228.4599432265062
 20
134.2747649844413
 30
0.0
  0
VERTEX
  5
1A41
  8
0
 10
228.5411389423019
 20
134.31071022018921
 30
0.0
  0
VERTEX
  5
1A42
  8
0
 10
228.6219198268609
 20
134.34640399762779
 30
0.0
  0
VERTEX
  5
1A43
  8
0
 10
228.6621475849777
 20
134.36413272246111
 30
0.0
  0
VERTEX
  5
1A44
  8
0
 10
228.70226359625539
 20
134.38177053435501
 30
0.0
  0
VERTEX
  5
1A45
  8
0
 10
228.78215016866051
 20
134.4167378293948
 30
0.0
  0
VERTEX
  5
1A46
  8
0
 10
228.86155864696639
 20
134.45123590809459
 30
0.0
  0
VERTEX
  5
1A47
  8
0
 10
228.9404674840807
 20
134.4851965147833
 30
0.0
  0
VERTEX
  5
1A48
  8
0
 10
229.01885464072359
 20
134.51855283401679
 30
0.0
  0
VERTEX
  5
1A49
  8
0
 10
229.09669773431079
 20
134.5512392337009
 30
0.0
  0
VERTEX
  5
1A4A
  8
0
 10
229.1354082033792
 20
134.5673109676502
 30
0.0
  0
VERTEX
  5
1A4B
  8
0
 10
229.17397417759409
 20
134.58319102379471
 30
0.0
  0
VERTEX
  5
1A4C
  8
0
 10
229.25066130568331
 20
134.6143442246638
 30
0.0
  0
VERTEX
  5
1A4D
  8
0
 10
229.3267364899632
 20
134.6446353394679
 30
0.0
  0
VERTEX
  5
1A4E
  8
0
 10
229.3645375663844
 20
134.6594378476222
 30
0.0
  0
VERTEX
  5
1A4F
  8
0
 10
229.40217723724541
 20
134.67400112524669
 30
0.0
  0
VERTEX
  5
1A50
  8
0
 10
229.4769612718305
 20
134.70237835744041
 30
0.0
  0
VERTEX
  5
1A51
  8
0
 10
229.5510663267832
 20
134.7297034844226
 30
0.0
  0
VERTEX
  5
1A52
  8
0
 10
229.58785716298181
 20
134.74295145294681
 30
0.0
  0
VERTEX
  5
1A53
  8
0
 10
229.62446981045289
 20
134.7559122497168
 30
0.0
  0
VERTEX
  5
1A54
  8
0
 10
229.69714958521121
 20
134.78093971163719
 30
0.0
  0
VERTEX
  5
1A55
  8
0
 10
229.7690841364404
 20
134.80471999589909
 30
0.0
  0
VERTEX
  5
1A56
  8
0
 10
229.8402525738002
 20
134.82718596085229
 30
0.0
  0
VERTEX
  5
1A57
  8
0
 10
229.91063459525469
 20
134.84826882277099
 30
0.0
  0
VERTEX
  5
1A58
  8
0
 10
229.98021040948211
 20
134.86789773750999
 30
0.0
  0
VERTEX
  5
1A59
  8
0
 10
230.01468991436781
 20
134.87714414911341
 30
0.0
  0
VERTEX
  5
1A5A
  8
0
 10
230.04896061241359
 20
134.88599933579829
 30
0.0
  0
VERTEX
  5
1A5B
  8
0
 10
230.11686601404111
 20
134.90249721071851
 30
0.0
  0
VERTEX
  5
1A5C
  8
0
 10
230.18390741237761
 20
134.91731135757561
 30
0.0
  0
VERTEX
  5
1A5D
  8
0
 10
230.25006531261241
 20
134.9303575684124
 30
0.0
  0
VERTEX
  5
1A5E
  8
0
 10
230.3153195911662
 20
134.94154678591471
 30
0.0
  0
VERTEX
  5
1A5F
  8
0
 10
230.37995578309099
 20
134.95082391962211
 30
0.0
  0
VERTEX
  5
1A60
  8
0
 10
230.41236295102061
 20
134.95474237127081
 30
0.0
  0
VERTEX
  5
1A61
  8
0
 10
230.44479715772559
 20
134.95814077456831
 30
0.0
  0
VERTEX
  5
1A62
  8
0
 10
230.50956975951161
 20
134.96325035232871
 30
0.0
  0
VERTEX
  5
1A63
  8
0
 10
230.57392960373721
 20
134.96591082300071
 30
0.0
  0
VERTEX
  5
1A64
  8
0
 10
230.60585221123381
 20
134.96625309479779
 30
0.0
  0
SEQEND
  5
1A65
  8
0
  0
POLYLINE
  5
779
  8
0
 66
     1
 10
0.0
 20
0.0
 30
0.0
  0
VERTEX
  5
1A66
  8
0
 10
230.60585221123381
 20
134.96625309479779
 30
0.0
  0
VERTEX
  5
1A67
  8
0
 10
230.62915893308769
 20
134.9660646458486
 30
0.0
  0
VERTEX
  5
1A68
  8
0
 10
230.6753517783456
 20
134.96452975459201
 30
0.0
  0
VERTEX
  5
1A69
  8
0
 10
230.7208909717211
 20
134.9613945863403
 30
0.0
  0
VERTEX
  5
1A6A
  8
0
 10
230.74338264947201
 20
134.95920781078911
 30
0.0
  0
SEQEND
  5
1A6B
  8
0
  0
POLYLINE
  5
77A
  8
0
 66
     1
 10
0.0
 20
0.0
 30
0.0
  0
VERTEX
  5
1A6C
  8
0
 10
231.8424401600993
 20
124.90536433625169
 30
0.0
  0
VERTEX
  5
1A6D
  8
0
 10
231.84184015044011
 20
124.9327042205083
 30
0.0
  0
VERTEX
  5
1A6E
  8
0
 10
231.83704085861751
 20
124.9873601296765
 30
0.0
  0
VERTEX
  5
1A6F
  8
0
 10
231.8274464632843
 20
125.04194448163091
 30
0.0
  0
VERTEX
  5
1A70
  8
0
 10
231.82085355506541
 20
125.0691949340072
 30
0.0
  0
SEQEND
  5
1A71
  8
0
  0
POLYLINE
  5
77B
  8
0
 66
     1
 10
0.0
 20
0.0
 30
0.0
  0
VERTEX
  5
1A72
  8
0
 10
231.82085355506541
 20
125.0691949340072
 30
0.0
  0
VERTEX
  5
1A73
  8
0
 10
231.81656437255961
 20
125.084867135419
 30
0.0
  0
VERTEX
  5
1A74
  8
0
 10
231.80684056820641
 20
125.11713248069179
 30
0.0
  0
VERTEX
  5
1A75
  8
0
 10
231.79560102224821
 20
125.1506176938709
 30
0.0
  0
VERTEX
  5
1A76
  8
0
 10
231.78941741808859
 20
125.1678144390262
 30
0.0
  0
VERTEX
  5
1A77
  8
0
 10
231.7828604996339
 20
125.1853120258257
 30
0.0
  0
VERTEX
  5
1A78
  8
0
 10
231.76863483614889
 20
125.2212035353654
 30
0.0
  0
VERTEX
  5
1A79
  8
0
 10
231.75294090837519
 20
125.2582791470256
 30
0.0
  0
VERTEX
  5
1A7A
  8
0
 10
231.73579659270089
 20
125.29652471615979
 30
0.0
  0
VERTEX
  5
1A7B
  8
0
 10
231.71722071455881
 20
125.33592510047551
 30
0.0
  0
VERTEX
  5
1A7C
  8
0
 10
231.69723293973411
 20
125.37646433515459
 30
0.0
  0
VERTEX
  5
1A7D
  8
0
 10
231.68671581882509
 20
125.3971560786713
 30
0.0
  0
VERTEX
  5
1A7E
  8
0
 10
231.67585331391069
 20
125.4181264494653
 30
0.0
  0
VERTEX
  5
1A7F
  8
0
 10
231.65310289124841
 20
125.4608941175145
 30
0.0
  0
VERTEX
  5
1A80
  8
0
 10
231.62900374178469
 20
125.5047487039915
 30
0.0
  0
VERTEX
  5
1A81
  8
0
 10
231.6035788692781
 20
125.54967044802891
 30
0.0
  0
VERTEX
  5
1A82
  8
0
 10
231.57685218596851
 20
125.595638515323
 30
0.0
  0
VERTEX
  5
1A83
  8
0
 10
231.5488484793068
 20
125.64263105477551
 30
0.0
  0
VERTEX
  5
1A84
  8
0
 10
231.5343757178498
 20
125.6665044098573
 30
0.0
  0
VERTEX
  5
1A85
  8
0
 10
231.51959337177669
 20
125.6906252588731
 30
0.0
  0
VERTEX
  5
1A86
  8
0
 10
231.4891132748445
 20
125.73959742709729
 30
0.0
  0
VERTEX
  5
1A87
  8
0
 10
231.4574353379686
 20
125.7895230317486
 30
0.0
  0
VERTEX
  5
1A88
  8
0
 10
231.44115585206569
 20
125.81483549827681
 30
0.0
  0
VERTEX
  5
1A89
  8
0
 10
231.42458739350391
 20
125.840376785652
 30
0.0
  0
VERTEX
  5
1A8A
  8
0
 10
231.39059789823139
 20
125.89213271129439
 30
0.0
  0
VERTEX
  5
1A8B
  8
0
 10
231.35549587214609
 20
125.9447642110253
 30
0.0
  0
VERTEX
  5
1A8C
  8
0
 10
231.3375368672319
 20
125.97139983729279
 30
0.0
  0
VERTEX
  5
1A8D
  8
0
 10
231.3193107719969
 20
125.9982442305643
 30
0.0
  0
VERTEX
  5
1A8E
  8
0
 10
231.2820671151413
 20
126.0525530194835
 30
0.0
  0
VERTEX
  5
1A8F
  8
0
 10
231.2437912875761
 20
126.10766789213839
 30
0.0
  0
VERTEX
  5
1A90
  8
0
 10
231.2045136306788
 20
126.16356044244159
 30
0.0
  0
VERTEX
  5
1A91
  8
0
 10
231.1642651855644
 20
126.22020139271029
 30
0.0
  0
VERTEX
  5
1A92
  8
0
 10
231.1230776573984
 20
126.2775606456554
 30
0.0
  0
VERTEX
  5
1A93
  8
0
 10
231.10214181717529
 20
126.3065000190701
 30
0.0
  0
VERTEX
  5
1A94
  8
0
 10
231.08098337685581
 20
126.3356073370455
 30
0.0
  0
VERTEX
  5
1A95
  8
0
 10
231.0380152593346
 20
126.3943098886885
 30
0.0
  0
VERTEX
  5
1A96
  8
0
 10
230.99420676243861
 20
126.4536360614552
 30
0.0
  0
VERTEX
  5
1A97
  8
0
 10
230.94959184215639
 20
126.5135530081368
 30
0.0
  0
VERTEX
  5
1A98
  8
0
 10
230.90420490808191
 20
126.574027325994
 30
0.0
  0
VERTEX
  5
1A99
  8
0
 10
230.858080777949
 20
126.63502510891929
 30
0.0
  0
VERTEX
  5
1A9A
  8
0
 10
230.83475324520251
 20
126.66570957922541
 30
0.0
  0
VERTEX
  5
1A9B
  8
0
 10
230.81125463168101
 20
126.69651199917701
 30
0.0
  0
VERTEX
  5
1A9C
  8
0
 10
230.76376196509639
 20
126.7584532387467
 30
0.0
  0
VERTEX
  5
1A9D
  8
0
 10
230.7156385530952
 20
126.8208137077409
 30
0.0
  0
VERTEX
  5
1A9E
  8
0
 10
230.66692055420941
 20
126.8835577812238
 30
0.0
  0
VERTEX
  5
1A9F
  8
0
 10
230.6176446560078
 20
126.9466491400614
 30
0.0
  0
VERTEX
  5
1AA0
  8
0
 10
230.56784806048401
 20
127.0100507918286
 30
0.0
  0
VERTEX
  5
1AA1
  8
0
 10
230.54276625881261
 20
127.041856244789
 30
0.0
  0
VERTEX
  5
1AA2
  8
0
 10
230.51756844867819
 20
127.0737251173184
 30
0.0
  0
VERTEX
  5
1AA3
  8
0
 10
230.4668439450208
 20
127.1376339161406
 30
0.0
  0
VERTEX
  5
1AA4
  8
0
 10
230.4157130816335
 20
127.2017384513595
 30
0.0
  0
VERTEX
  5
1AA5
  8
0
 10
230.2341196035467
 20
127.427075417871
 30
0.0
  0
VERTEX
  5
1AA6
  8
0
 10
229.91499129193161
 20
127.8155637656923
 30
0.0
  0
VERTEX
  5
1AA7
  8
0
 10
229.74907695319141
 20
128.01433097441159
 30
0.0
  0
VERTEX
  5
1AA8
  8
0
 10
229.5790544491214
 20
128.21601465468021
 30
0.0
  0
VERTEX
  5
1AA9
  8
0
 10
229.2292836274006
 20
128.62505708949041
 30
0.0
  0
VERTEX
  5
1AAA
  8
0
 10
228.87094798370691
 20
129.0362824930192
 30
0.0
  0
VERTEX
  5
1AAB
  8
0
 10
228.50934482502279
 20
129.44278191260969
 30
0.0
  0
VERTEX
  5
1AAC
  8
0
 10
228.1497372889782
 20
129.83684430012369
 30
0.0
  0
VERTEX
  5
1AAD
  8
0
 10
227.79730501521081
 20
130.20938985552661
 30
0.0
  0
VERTEX
  5
1AAE
  8
0
 10
227.62379763686451
 20
130.38571087813199
 30
0.0
  0
VERTEX
  5
1AAF
  8
0
 10
227.45154864359199
 20
130.5542691677033
 30
0.0
  0
VERTEX
  5
1AB0
  8
0
 10
227.25147831690509
 20
130.73903306855141
 30
0.0
  0
VERTEX
  5
1AB1
  8
0
 10
227.19447686668309
 20
130.78888486278231
 30
0.0
  0
VERTEX
  5
1AB2
  8
0
 10
227.13731294363629
 20
130.8373754942873
 30
0.0
  0
VERTEX
  5
1AB3
  8
0
 10
227.1086115257491
 20
130.86110103018399
 30
0.0
  0
VERTEX
  5
1AB4
  8
0
 10
227.07979646260239
 20
130.88447136404361
 30
0.0
  0
VERTEX
  5
1AB5
  8
0
 10
227.02171132404521
 20
130.9301081065758
 30
0.0
  0
VERTEX
  5
1AB6
  8
0
 10
226.96280460027899
 20
130.97418306590569
 30
0.0
  0
VERTEX
  5
1AB7
  8
0
 10
226.90278048655799
 20
131.01653779205239
 30
0.0
  0
VERTEX
  5
1AB8
  8
0
 10
226.8414558323565
 20
131.0568313151432
 30
0.0
  0
VERTEX
  5
1AB9
  8
0
 10
226.77841685427239
 20
131.09474695621751
 30
0.0
  0
VERTEX
  5
1ABA
  8
0
 10
226.74603800870469
 20
131.11271141422699
 30
0.0
  0
VERTEX
  5
1ABB
  8
0
 10
226.71295206524769
 20
131.12993289098841
 30
0.0
  0
VERTEX
  5
1ABC
  8
0
 10
226.6733089388172
 20
131.14897209465789
 30
0.0
  0
VERTEX
  5
1ABD
  8
0
 10
226.6617515174091
 20
131.1541815144858
 30
0.0
  0
VERTEX
  5
1ABE
  8
0
 10
226.65008414140991
 20
131.15927959670611
 30
0.0
  0
VERTEX
  5
1ABF
  8
0
 10
226.6442087367906
 20
131.1617848550728
 30
0.0
  0
VERTEX
  5
1AC0
  8
0
 10
226.6383046674685
 20
131.164260058097
 30
0.0
  0
VERTEX
  5
1AC1
  8
0
 10
226.6264076239809
 20
131.16911766544919
 30
0.0
  0
VERTEX
  5
1AC2
  8
0
 10
226.61438702420389
 20
131.17384689689629
 30
0.0
  0
VERTEX
  5
1AC3
  8
0
 10
226.60223662318671
 20
131.17844179266859
 30
0.0
  0
VERTEX
  5
1AC4
  8
0
 10
226.589949931869
 20
131.18289591385181
 30
0.0
  0
VERTEX
  5
1AC5
  8
0
 10
226.57752023836451
 20
131.18720229913691
 30
0.0
  0
VERTEX
  5
1AC6
  8
0
 10
226.57124961430651
 20
131.1892977616765
 30
0.0
  0
VERTEX
  5
1AC7
  8
0
 10
226.5649406366561
 20
131.19135342056211
 30
0.0
  0
VERTEX
  5
1AC8
  8
0
 10
226.55220406279409
 20
131.19534113945349
 30
0.0
  0
VERTEX
  5
1AC9
  8
0
 10
226.53930333851159
 20
131.19915666396909
 30
0.0
  0
VERTEX
  5
1ACA
  8
0
 10
226.5327891578446
 20
131.2009969175293
 30
0.0
  0
SEQEND
  5
1ACB
  8
0
  0
POLYLINE
  5
77C
  8
0
 66
     1
 10
0.0
 20
0.0
 30
0.0
  0
VERTEX
  5
1ACC
  8
0
 10
226.5327891578446
 20
131.2009969175293
 30
0.0
  0
VERTEX
  5
1ACD
  8
0
 10
226.52221809221999
 20
131.2038542203411
 30
0.0
  0
VERTEX
  5
1ACE
  8
0
 10
226.5010740054411
 20
131.2090791620534
 30
0.0
  0
VERTEX
  5
1ACF
  8
0
 10
226.47992757195129
 20
131.2136511551447
 30
0.0
  0
VERTEX
  5
1AD0
  8
0
 10
226.4693535729462
 20
131.21569227444439
 30
0.0
  0
VERTEX
  5
1AD1
  8
0
 10
226.4587791045752
 20
131.21757013198041
 30
0.0
  0
VERTEX
  5
1AD2
  8
0
 10
226.43762891616751
 20
131.2208360345864
 30
0.0
  0
VERTEX
  5
1AD3
  8
0
 10
226.4164773196083
 20
131.223448814649
 30
0.0
  0
VERTEX
  5
1AD4
  8
0
 10
226.3953246277986
 20
131.22540843351669
 30
0.0
  0
VERTEX
  5
1AD5
  8
0
 10
226.37417115365551
 20
131.22671486220051
 30
0.0
  0
VERTEX
  5
1AD6
  8
0
 10
226.35301721010771
 20
131.22736808137401
 30
0.0
  0
VERTEX
  5
1AD7
  8
0
 10
226.3424401600993
 20
131.22744973399719
 30
0.0
  0
VERTEX
  5
1AD8
  8
0
 10
226.33186311009101
 20
131.22736808137401
 30
0.0
  0
VERTEX
  5
1AD9
  8
0
 10
226.31070916654309
 20
131.22671486220051
 30
0.0
  0
VERTEX
  5
1ADA
  8
0
 10
226.28955569240011
 20
131.22540843351669
 30
0.0
  0
VERTEX
  5
1ADB
  8
0
 10
226.2684030005903
 20
131.223448814649
 30
0.0
  0
VERTEX
  5
1ADC
  8
0
 10
226.2472514040312
 20
131.2208360345864
 30
0.0
  0
VERTEX
  5
1ADD
  8
0
 10
226.22610121562349
 20
131.21757013198041
 30
0.0
  0
VERTEX
  5
1ADE
  8
0
 10
226.2155267472524
 20
131.21569227444439
 30
0.0
  0
VERTEX
  5
1ADF
  8
0
 10
226.20495274824739
 20
131.2136511551447
 30
0.0
  0
VERTEX
  5
1AE0
  8
0
 10
226.18380631475759
 20
131.2090791620534
 30
0.0
  0
VERTEX
  5
1AE1
  8
0
 10
226.16266222797859
 20
131.2038542203411
 30
0.0
  0
VERTEX
  5
1AE2
  8
0
 10
226.152091162354
 20
131.20099691752921
 30
0.0
  0
SEQEND
  5
1AE3
  8
0
  0
POLYLINE
  5
77D
  8
0
 66
     1
 10
0.0
 20
0.0
 30
0.0
  0
VERTEX
  5
1AE4
  8
0
 10
226.152091162354
 20
131.2009969175293
 30
0.0
  0
VERTEX
  5
1AE5
  8
0
 10
226.1455769816871
 20
131.19915666396909
 30
0.0
  0
VERTEX
  5
1AE6
  8
0
 10
226.1326762574046
 20
131.19534113945349
 30
0.0
  0
VERTEX
  5
1AE7
  8
0
 10
226.1199396835425
 20
131.191353420562
 30
0.0
  0
VERTEX
  5
1AE8
  8
0
 10
226.11363070589209
 20
131.18929776167639
 30
0.0
  0
VERTEX
  5
1AE9
  8
0
 10
226.107360081834
 20
131.18720229913691
 30
0.0
  0
VERTEX
  5
1AEA
  8
0
 10
226.09493038832969
 20
131.18289591385181
 30
0.0
  0
VERTEX
  5
1AEB
  8
0
 10
226.08264369701209
 20
131.17844179266859
 30
0.0
  0
VERTEX
  5
1AEC
  8
0
 10
226.07049329599471
 20
131.17384689689641
 30
0.0
  0
VERTEX
  5
1AED
  8
0
 10
226.05847269621771
 20
131.16911766544911
 30
0.0
  0
VERTEX
  5
1AEE
  8
0
 10
226.0465756527301
 20
131.16426005809711
 30
0.0
  0
VERTEX
  5
1AEF
  8
0
 10
226.040671583408
 20
131.1617848550728
 30
0.0
  0
VERTEX
  5
1AF0
  8
0
 10
226.03479617878861
 20
131.15927959670611
 30
0.0
  0
VERTEX
  5
1AF1
  8
0
 10
226.0231288027895
 20
131.15418151448591
 30
0.0
  0
VERTEX
  5
1AF2
  8
0
 10
226.01157138138149
 20
131.14897209465789
 30
0.0
  0
VERTEX
  5
1AF3
  8
0
 10
225.971928254951
 20
131.12993289098841
 30
0.0
  0
VERTEX
  5
1AF4
  8
0
 10
225.93884231149389
 20
131.11271141422699
 30
0.0
  0
VERTEX
  5
1AF5
  8
0
 10
225.90646346592609
 20
131.09474695621759
 30
0.0
  0
VERTEX
  5
1AF6
  8
0
 10
225.8434244878421
 20
131.0568313151432
 30
0.0
  0
VERTEX
  5
1AF7
  8
0
 10
225.7820998336407
 20
131.01653779205239
 30
0.0
  0
VERTEX
  5
1AF8
  8
0
 10
225.7220757199197
 20
130.97418306590581
 30
0.0
  0
VERTEX
  5
1AF9
  8
0
 10
225.6631689961535
 20
130.9301081065758
 30
0.0
  0
VERTEX
  5
1AFA
  8
0
 10
225.6050838575963
 20
130.88447136404361
 30
0.0
  0
VERTEX
  5
1AFB
  8
0
 10
225.5762687944495
 20
130.8611010301841
 30
0.0
  0
VERTEX
  5
1AFC
  8
0
 10
225.54756737656231
 20
130.8373754942873
 30
0.0
  0
VERTEX
  5
1AFD
  8
0
 10
225.4904034535156
 20
130.78888486278231
 30
0.0
  0
VERTEX
  5
1AFE
  8
0
 10
225.43340200329371
 20
130.73903306855149
 30
0.0
  0
VERTEX
  5
1AFF
  8
0
 10
225.2333316766067
 20
130.5542691677033
 30
0.0
  0
VERTEX
  5
1B00
  8
0
 10
225.06108268333409
 20
130.38571087813199
 30
0.0
  0
VERTEX
  5
1B01
  8
0
 10
224.88757530498791
 20
130.20938985552669
 30
0.0
  0
VERTEX
  5
1B02
  8
0
 10
224.5351430312204
 20
129.83684430012369
 30
0.0
  0
VERTEX
  5
1B03
  8
0
 10
224.17553549517589
 20
129.44278191260969
 30
0.0
  0
VERTEX
  5
1B04
  8
0
 10
223.8139323364918
 20
129.0362824930192
 30
0.0
  0
VERTEX
  5
1B05
  8
0
 10
223.455596692798
 20
128.62505708949041
 30
0.0
  0
VERTEX
  5
1B06
  8
0
 10
223.10582587107729
 20
128.21601465468021
 30
0.0
  0
VERTEX
  5
1B07
  8
0
 10
222.9358033670074
 20
128.01433097441151
 30
0.0
  0
VERTEX
  5
1B08
  8
0
 10
222.76988902826699
 20
127.8155637656923
 30
0.0
  0
VERTEX
  5
1B09
  8
0
 10
222.4507607166519
 20
127.427075417871
 30
0.0
  0
VERTEX
  5
1B0A
  8
0
 10
222.2691672385651
 20
127.2017384513595
 30
0.0
  0
VERTEX
  5
1B0B
  8
0
 10
222.2180363751778
 20
127.1376339161406
 30
0.0
  0
VERTEX
  5
1B0C
  8
0
 10
222.16731187152041
 20
127.0737251173184
 30
0.0
  0
VERTEX
  5
1B0D
  8
0
 10
222.14211406138591
 20
127.041856244789
 30
0.0
  0
VERTEX
  5
1B0E
  8
0
 10
222.1170322597147
 20
127.0100507918286
 30
0.0
  0
VERTEX
  5
1B0F
  8
0
 10
222.0672356641908
 20
126.9466491400614
 30
0.0
  0
VERTEX
  5
1B10
  8
0
 10
222.0179597659893
 20
126.8835577812238
 30
0.0
  0
VERTEX
  5
1B11
  8
0
 10
221.96924176710331
 20
126.8208137077409
 30
0.0
  0
VERTEX
  5
1B12
  8
0
 10
221.92111835510229
 20
126.7584532387467
 30
0.0
  0
VERTEX
  5
1B13
  8
0
 10
221.87362568851759
 20
126.69651199917701
 30
0.0
  0
VERTEX
  5
1B14
  8
0
 10
221.8501270749961
 20
126.66570957922541
 30
0.0
  0
VERTEX
  5
1B15
  8
0
 10
221.82679954224969
 20
126.63502510891929
 30
0.0
  0
VERTEX
  5
1B16
  8
0
 10
221.78067541211681
 20
126.574027325994
 30
0.0
  0
VERTEX
  5
1B17
  8
0
 10
221.73528847804229
 20
126.5135530081368
 30
0.0
  0
VERTEX
  5
1B18
  8
0
 10
221.69067355775999
 20
126.4536360614552
 30
0.0
  0
VERTEX
  5
1B19
  8
0
 10
221.646865060864
 20
126.3943098886885
 30
0.0
  0
VERTEX
  5
1B1A
  8
0
 10
221.60389694334279
 20
126.3356073370454
 30
0.0
  0
VERTEX
  5
1B1B
  8
0
 10
221.58273850302331
 20
126.3065000190701
 30
0.0
  0
VERTEX
  5
1B1C
  8
0
 10
221.56180266280029
 20
126.2775606456554
 30
0.0
  0
VERTEX
  5
1B1D
  8
0
 10
221.52061513463431
 20
126.22020139271029
 30
0.0
  0
VERTEX
  5
1B1E
  8
0
 10
221.4803666895198
 20
126.16356044244159
 30
0.0
  0
VERTEX
  5
1B1F
  8
0
 10
221.4410890326225
 20
126.10766789213839
 30
0.0
  0
VERTEX
  5
1B20
  8
0
 10
221.4028132050573
 20
126.0525530194835
 30
0.0
  0
VERTEX
  5
1B21
  8
0
 10
221.36556954820171
 20
125.9982442305643
 30
0.0
  0
VERTEX
  5
1B22
  8
0
 10
221.34734345296681
 20
125.97139983729279
 30
0.0
  0
VERTEX
  5
1B23
  8
0
 10
221.32938444805251
 20
125.9447642110253
 30
0.0
  0
VERTEX
  5
1B24
  8
0
 10
221.29428242196721
 20
125.89213271129439
 30
0.0
  0
VERTEX
  5
1B25
  8
0
 10
221.26029292669469
 20
125.840376785652
 30
0.0
  0
VERTEX
  5
1B26
  8
0
 10
221.2437244681328
 20
125.81483549827681
 30
0.0
  0
VERTEX
  5
1B27
  8
0
 10
221.22744498223
 20
125.7895230317486
 30
0.0
  0
VERTEX
  5
1B28
  8
0
 10
221.1957670453541
 20
125.73959742709729
 30
0.0
  0
VERTEX
  5
1B29
  8
0
 10
221.16528694842191
 20
125.6906252588732
 30
0.0
  0
VERTEX
  5
1B2A
  8
0
 10
221.1505046023488
 20
125.6665044098573
 30
0.0
  0
VERTEX
  5
1B2B
  8
0
 10
221.13603184089189
 20
125.64263105477551
 30
0.0
  0
VERTEX
  5
1B2C
  8
0
 10
221.1080281342301
 20
125.595638515323
 30
0.0
  0
VERTEX
  5
1B2D
  8
0
 10
221.08130145092059
 20
125.54967044802891
 30
0.0
  0
VERTEX
  5
1B2E
  8
0
 10
221.05587657841389
 20
125.5047487039915
 30
0.0
  0
VERTEX
  5
1B2F
  8
0
 10
221.03177742895031
 20
125.4608941175145
 30
0.0
  0
VERTEX
  5
1B30
  8
0
 10
221.00902700628791
 20
125.4181264494653
 30
0.0
  0
VERTEX
  5
1B31
  8
0
 10
220.99816450137359
 20
125.3971560786713
 30
0.0
  0
VERTEX
  5
1B32
  8
0
 10
220.98764738046469
 20
125.37646433515459
 30
0.0
  0
VERTEX
  5
1B33
  8
0
 10
220.96765960563971
 20
125.33592510047551
 30
0.0
  0
VERTEX
  5
1B34
  8
0
 10
220.94908372749771
 20
125.29652471615979
 30
0.0
  0
VERTEX
  5
1B35
  8
0
 10
220.93193941182341
 20
125.2582791470256
 30
0.0
  0
VERTEX
  5
1B36
  8
0
 10
220.91624548404971
 20
125.2212035353654
 30
0.0
  0
VERTEX
  5
1B37
  8
0
 10
220.9020198205647
 20
125.1853120258257
 30
0.0
  0
VERTEX
  5
1B38
  8
0
 10
220.89546290211001
 20
125.1678144390262
 30
0.0
  0
VERTEX
  5
1B39
  8
0
 10
220.88927929795051
 20
125.1506176938709
 30
0.0
  0
VERTEX
  5
1B3A
  8
0
 10
220.87803975199239
 20
125.11713248069179
 30
0.0
  0
VERTEX
  5
1B3B
  8
0
 10
220.86831594763899
 20
125.084867135419
 30
0.0
  0
VERTEX
  5
1B3C
  8
0
 10
220.86402676513319
 20
125.0691949340072
 30
0.0
  0
SEQEND
  5
1B3D
  8
0
  0
POLYLINE
  5
77E
  8
0
 66
     1
 10
0.0
 20
0.0
 30
0.0
  0
VERTEX
  5
1B3E
  8
0
 10
220.86402676513319
 20
125.0691949340072
 30
0.0
  0
VERTEX
  5
1B3F
  8
0
 10
220.8574338569145
 20
125.04194448163091
 30
0.0
  0
VERTEX
  5
1B40
  8
0
 10
220.84783946158109
 20
124.9873601296765
 30
0.0
  0
VERTEX
  5
1B41
  8
0
 10
220.84304016975861
 20
124.9327042205083
 30
0.0
  0
VERTEX
  5
1B42
  8
0
 10
220.8424401600993
 20
124.90536433625169
 30
0.0
  0
SEQEND
  5
1B43
  8
0
  0
LINE
  5
77F
  8
0
 10
231.8424401600993
 20
134.67394790927281
 30
0.0
 11
231.8424401600993
 21
124.90536433625169
 31
0.0
  0
POLYLINE
  5
780
  8
0
 66
     1
 10
0.0
 20
0.0
 30
0.0
  0
VERTEX
  5
1B44
  8
0
 10
232.54313534010461
 20
122.41816388238171
 30
0.0
  0
VERTEX
  5
1B45
  8
0
 10
232.54091585705899
 20
122.43468355615801
 30
0.0
  0
VERTEX
  5
1B46
  8
0
 10
232.53646393504721
 20
122.4663569362238
 30
0.0
  0
VERTEX
  5
1B47
  8
0
 10
232.53199555208971
 20
122.496203282205
 30
0.0
  0
VERTEX
  5
1B48
  8
0
 10
232.52975549370731
 20
122.5104392572411
 30
0.0
  0
VERTEX
  5
1B49
  8
0
 10
232.5275116876623
 20
122.5242160517374
 30
0.0
  0
VERTEX
  5
1B4A
  8
0
 10
232.5230133246348
 20
122.5503891043797
 30
0.0
  0
VERTEX
  5
1B4B
  8
0
 10
232.51850144905561
 20
122.57471670295941
 30
0.0
  0
VERTEX
  5
1B4C
  8
0
 10
232.5139770499342
 20
122.5971935148301
 30
0.0
  0
VERTEX
  5
1B4D
  8
0
 10
232.50944111902601
 20
122.61781461304091
 30
0.0
  0
VERTEX
  5
1B4E
  8
0
 10
232.50489465061361
 20
122.6365754774159
 30
0.0
  0
VERTEX
  5
1B4F
  8
0
 10
232.5026177761944
 20
122.6452570208333
 30
0.0
  0
VERTEX
  5
1B50
  8
0
 10
232.50033864129
 20
122.6534719955454
 30
0.0
  0
VERTEX
  5
1B51
  8
0
 10
232.49577408973931
 20
122.668500463687
 30
0.0
  0
VERTEX
  5
1B52
  8
0
 10
232.4912019965179
 20
122.681657587578
 30
0.0
  0
VERTEX
  5
1B53
  8
0
 10
232.48662336383549
 20
122.6929404831569
 30
0.0
  0
VERTEX
  5
1B54
  8
0
 10
232.4820391953356
 20
122.7023466771961
 30
0.0
  0
VERTEX
  5
1B55
  8
0
 10
232.47745049587459
 20
122.7098741078435
 30
0.0
  0
VERTEX
  5
1B56
  8
0
 10
232.47515476132901
 20
122.7129327551653
 30
0.0
  0
VERTEX
  5
1B57
  8
0
 10
232.47285827130241
 20
122.7155211250751
 30
0.0
  0
VERTEX
  5
1B58
  8
0
 10
232.46826352824149
 20
122.7192864910561
 30
0.0
  0
VERTEX
  5
1B59
  8
0
 10
232.46366727386661
 20
122.7211693804128
 30
0.0
  0
VERTEX
  5
1B5A
  8
0
 10
232.46136889477501
 20
122.7214047512562
 30
0.0
  0
SEQEND
  5
1B5B
  8
0
  0
LINE
  5
781
  8
0
 10
232.46136889477501
 20
122.7214047512562
 30
0.0
 11
220.2235114254236
 21
122.7214047512562
 31
0.0
  0
POLYLINE
  5
782
  8
0
 66
     1
 10
0.0
 20
0.0
 30
0.0
  0
VERTEX
  5
1B5C
  8
0
 10
232.14376131230151
 20
122.7214047512562
 30
0.0
  0
VERTEX
  5
1B5D
  8
0
 10
232.14008487003389
 20
122.7218633699817
 30
0.0
  0
VERTEX
  5
1B5E
  8
0
 10
232.1327331812796
 20
122.72553209603259
 30
0.0
  0
VERTEX
  5
1B5F
  8
0
 10
232.12538507947889
 20
122.7328683548634
 30
0.0
  0
VERTEX
  5
1B60
  8
0
 10
232.12171312062989
 20
122.73791110997639
 30
0.0
  0
VERTEX
  5
1B61
  8
0
 10
232.1180429546379
 20
122.7438697603199
 30
0.0
  0
VERTEX
  5
1B62
  8
0
 10
232.11070919481861
 20
122.7585327341412
 30
0.0
  0
VERTEX
  5
1B63
  8
0
 10
232.1033861853623
 20
122.77685250712319
 30
0.0
  0
VERTEX
  5
1B64
  8
0
 10
232.09607630811371
 20
122.79882312066999
 30
0.0
  0
VERTEX
  5
1B65
  8
0
 10
232.0887819406461
 20
122.8244374287322
 30
0.0
  0
VERTEX
  5
1B66
  8
0
 10
232.0815054554883
 20
122.8536871001305
 30
0.0
  0
VERTEX
  5
1B67
  8
0
 10
232.07787465862151
 20
122.86967227018739
 30
0.0
  0
VERTEX
  5
1B68
  8
0
 10
232.07424921935279
 20
122.88656262126619
 30
0.0
  0
VERTEX
  5
1B69
  8
0
 10
232.06701559236561
 20
122.9230532992152
 30
0.0
  0
VERTEX
  5
1B6A
  8
0
 10
232.05980692729969
 20
122.96314726520571
 30
0.0
  0
VERTEX
  5
1B6B
  8
0
 10
232.05262556880839
 20
123.006831478479
 30
0.0
  0
VERTEX
  5
1B6C
  8
0
 10
232.0454738526638
 20
123.054091730531
 30
0.0
  0
VERTEX
  5
1B6D
  8
0
 10
232.03835410499661
 20
123.10491264973339
 30
0.0
  0
VERTEX
  5
1B6E
  8
0
 10
232.0348069434354
 20
123.1316532390629
 30
0.0
  0
VERTEX
  5
1B6F
  8
0
 10
232.03126864153961
 20
123.1592777063332
 30
0.0
  0
VERTEX
  5
1B70
  8
0
 10
232.0242197668745
 20
123.21716921782981
 30
0.0
  0
VERTEX
  5
1B71
  8
0
 10
232.0172097736822
 20
123.27856835472571
 30
0.0
  0
VERTEX
  5
1B72
  8
0
 10
232.0137200706634
 20
123.310577086348
 30
0.0
  0
SEQEND
  5
1B73
  8
0
  0
LINE
  5
783
  8
0
 10
232.0137200706634
 20
123.310577086348
 30
0.0
 11
231.8424401600993
 21
124.90536433625169
 31
0.0
  0
LINE
  5
784
  8
0
 10
233.39128711186959
 20
127.1345853679103
 30
0.0
 11
233.39128711186959
 21
114.5309203318245
 31
0.0
  0
POLYLINE
  5
786
  8
0
 66
     1
 10
0.0
 20
0.0
 30
0.0
  0
VERTEX
  5
1B74
  8
0
 10
220.67116024953529
 20
123.310577086348
 30
0.0
  0
VERTEX
  5
1B75
  8
0
 10
220.66767054651649
 20
123.27856835472571
 30
0.0
  0
VERTEX
  5
1B76
  8
0
 10
220.66066055332419
 20
123.21716921782981
 30
0.0
  0
VERTEX
  5
1B77
  8
0
 10
220.65361167865899
 20
123.1592777063332
 30
0.0
  0
VERTEX
  5
1B78
  8
0
 10
220.65007337676329
 20
123.1316532390629
 30
0.0
  0
VERTEX
  5
1B79
  8
0
 10
220.6465262152021
 20
123.10491264973339
 30
0.0
  0
VERTEX
  5
1B7A
  8
0
 10
220.63940646753491
 20
123.054091730531
 30
0.0
  0
VERTEX
  5
1B7B
  8
0
 10
220.63225475139029
 20
123.006831478479
 30
0.0
  0
VERTEX
  5
1B7C
  8
0
 10
220.625073392899
 20
122.96314726520571
 30
0.0
  0
VERTEX
  5
1B7D
  8
0
 10
220.61786472783299
 20
122.9230532992152
 30
0.0
  0
VERTEX
  5
1B7E
  8
0
 10
220.61063110084589
 20
122.88656262126619
 30
0.0
  0
VERTEX
  5
1B7F
  8
0
 10
220.6070056615772
 20
122.86967227018739
 30
0.0
  0
VERTEX
  5
1B80
  8
0
 10
220.6033748647103
 20
122.8536871001305
 30
0.0
  0
VERTEX
  5
1B81
  8
0
 10
220.5960983795525
 20
122.8244374287322
 30
0.0
  0
VERTEX
  5
1B82
  8
0
 10
220.58880401208501
 20
122.79882312066999
 30
0.0
  0
VERTEX
  5
1B83
  8
0
 10
220.58149413483639
 20
122.77685250712319
 30
0.0
  0
VERTEX
  5
1B84
  8
0
 10
220.5741711253801
 20
122.7585327341412
 30
0.0
  0
VERTEX
  5
1B85
  8
0
 10
220.56683736556079
 20
122.7438697603199
 30
0.0
  0
VERTEX
  5
1B86
  8
0
 10
220.5631671995688
 20
122.73791110997639
 30
0.0
  0
VERTEX
  5
1B87
  8
0
 10
220.55949524071971
 20
122.7328683548634
 30
0.0
  0
VERTEX
  5
1B88
  8
0
 10
220.552147138919
 20
122.72553209603259
 30
0.0
  0
VERTEX
  5
1B89
  8
0
 10
220.54479545016471
 20
122.7218633699817
 30
0.0
  0
VERTEX
  5
1B8A
  8
0
 10
220.54111900789709
 20
122.7214047512562
 30
0.0
  0
SEQEND
  5
1B8B
  8
0
  0
POLYLINE
  5
787
  8
0
 66
     1
 10
0.0
 20
0.0
 30
0.0
  0
VERTEX
  5
1B8C
  8
0
 10
220.2235114254236
 20
122.7214047512562
 30
0.0
  0
VERTEX
  5
1B8D
  8
0
 10
220.22121304633211
 20
122.7211693804128
 30
0.0
  0
VERTEX
  5
1B8E
  8
0
 10
220.21661679195711
 20
122.7192864910561
 30
0.0
  0
VERTEX
  5
1B8F
  8
0
 10
220.2120220488963
 20
122.7155211250751
 30
0.0
  0
VERTEX
  5
1B90
  8
0
 10
220.20972555886971
 20
122.7129327551653
 30
0.0
  0
VERTEX
  5
1B91
  8
0
 10
220.20742982432409
 20
122.7098741078435
 30
0.0
  0
VERTEX
  5
1B92
  8
0
 10
220.20284112486311
 20
122.7023466771961
 30
0.0
  0
VERTEX
  5
1B93
  8
0
 10
220.19825695636311
 20
122.6929404831569
 30
0.0
  0
VERTEX
  5
1B94
  8
0
 10
220.19367832368081
 20
122.681657587578
 30
0.0
  0
VERTEX
  5
1B95
  8
0
 10
220.1891062304594
 20
122.668500463687
 30
0.0
  0
VERTEX
  5
1B96
  8
0
 10
220.1845416789086
 20
122.6534719955454
 30
0.0
  0
VERTEX
  5
1B97
  8
0
 10
220.1822625440042
 20
122.6452570208333
 30
0.0
  0
VERTEX
  5
1B98
  8
0
 10
220.17998566958499
 20
122.6365754774159
 30
0.0
  0
VERTEX
  5
1B99
  8
0
 10
220.17543920117271
 20
122.61781461304091
 30
0.0
  0
VERTEX
  5
1B9A
  8
0
 10
220.1709032702644
 20
122.5971935148301
 30
0.0
  0
VERTEX
  5
1B9B
  8
0
 10
220.16637887114311
 20
122.57471670295941
 30
0.0
  0
VERTEX
  5
1B9C
  8
0
 10
220.1618669955638
 20
122.5503891043797
 30
0.0
  0
VERTEX
  5
1B9D
  8
0
 10
220.15736863253639
 20
122.5242160517374
 30
0.0
  0
VERTEX
  5
1B9E
  8
0
 10
220.15512482649129
 20
122.5104392572411
 30
0.0
  0
VERTEX
  5
1B9F
  8
0
 10
220.152884768109
 20
122.496203282205
 30
0.0
  0
VERTEX
  5
1BA0
  8
0
 10
220.14841638515131
 20
122.4663569362238
 30
0.0
  0
VERTEX
  5
1BA1
  8
0
 10
220.14396446313961
 20
122.43468355615801
 30
0.0
  0
VERTEX
  5
1BA2
  8
0
 10
220.14174498009419
 20
122.41816388238171
 30
0.0
  0
SEQEND
  5
1BA3
  8
0
  0
LINE
  5
788
  8
0
 10
220.8424401600993
 20
134.67394790927281
 30
0.0
 11
220.8424401600993
 21
124.90536433625169
 31
0.0
  0
LINE
  5
789
  8
0
 10
220.8424401600993
 20
124.90536433625169
 30
0.0
 11
220.67116024953529
 21
123.310577086348
 31
0.0
  0
LINE
  5
78A
  8
0
 10
219.2935932083291
 20
127.1345853679103
 30
0.0
 11
219.2935932083291
 21
114.5309203318245
 31
0.0
  0
LINE
  5
78C
  8
0
 10
236.8424401600993
 20
90.661404751256185
 30
0.0
 11
215.8424401600993
 21
90.661404751256185
 31
0.0
  0
POLYLINE
  5
78E
  8
0
 66
     1
 10
0.0
 20
0.0
 30
0.0
  0
VERTEX
  5
1BA4
  8
0
 10
219.37580776838061
 20
113.93465417368481
 30
0.0
  0
VERTEX
  5
1BA5
  8
0
 10
219.53892829934159
 20
113.4402197128682
 30
0.0
  0
VERTEX
  5
1BA6
  8
0
 10
219.7776905161235
 20
112.417100212915
 30
0.0
  0
VERTEX
  5
1BA7
  8
0
 10
219.897483949368
 20
111.3528707079201
 30
0.0
  0
VERTEX
  5
1BA8
  8
0
 10
219.91244016009941
 20
110.8072402136907
 30
0.0
  0
SEQEND
  5
1BA9
  8
0
  0
POLYLINE
  5
78F
  8
0
 66
     1
 10
0.0
 20
0.0
 30
0.0
  0
VERTEX
  5
1BAA
  8
0
 10
219.91244016009941
 20
110.8072402136907
 30
0.0
  0
VERTEX
  5
1BAB
  8
0
 10
219.9111209617229
 20
110.6434376143752
 30
0.0
  0
VERTEX
  5
1BAC
  8
0
 10
219.90058511575131
 20
110.31382233440431
 30
0.0
  0
VERTEX
  5
1BAD
  8
0
 10
219.8795643652775
 20
109.9816424771541
 30
0.0
  0
VERTEX
  5
1BAE
  8
0
 10
219.86514274326819
 20
109.814647923853
 30
0.0
  0
VERTEX
  5
1BAF
  8
0
 10
219.8481267361139
 20
109.647082951424
 30
0.0
  0
VERTEX
  5
1BB0
  8
0
 10
219.80635717739341
 20
109.3103419093685
 30
0.0
  0
VERTEX
  5
1BB1
  8
0
 10
219.75435725538799
 20
108.97162301564239
 30
0.0
  0
VERTEX
  5
1BB2
  8
0
 10
219.6922448925398
 20
108.6311349055665
 30
0.0
  0
VERTEX
  5
1BB3
  8
0
 10
219.6201541343834
 20
108.2890910481926
 30
0.0
  0
VERTEX
  5
1BB4
  8
0
 10
219.53823512401581
 20
107.9457103912677
 30
0.0
  0
VERTEX
  5
1BB5
  8
0
 10
219.49364131919879
 20
107.7735886471438
 30
0.0
  0
VERTEX
  5
1BB6
  8
0
 10
219.44665398360939
 20
107.6012171775192
 30
0.0
  0
VERTEX
  5
1BB7
  8
0
 10
219.3455925810361
 20
107.2558403866071
 30
0.0
  0
VERTEX
  5
1BB8
  8
0
 10
219.2352479552147
 20
106.9098123206482
 30
0.0
  0
VERTEX
  5
1BB9
  8
0
 10
219.11583099380999
 20
106.563365610726
 30
0.0
  0
VERTEX
  5
1BBA
  8
0
 10
218.98756887207171
 20
106.2167411228919
 30
0.0
  0
VERTEX
  5
1BBB
  8
0
 10
218.8507041704857
 20
105.8701846848198
 30
0.0
  0
VERTEX
  5
1BBC
  8
0
 10
218.77912575358911
 20
105.6970098479156
 30
0.0
  0
VERTEX
  5
1BBD
  8
0
 10
218.70549441452161
 20
105.52394587789431
 30
0.0
  0
VERTEX
  5
1BBE
  8
0
 10
218.5522117445216
 20
105.1782774331144
 30
0.0
  0
VERTEX
  5
1BBF
  8
0
 10
218.3911427837686
 20
104.8334351473697
 30
0.0
  0
VERTEX
  5
1BC0
  8
0
 10
218.3077820369613
 20
104.6614047512562
 30
0.0
  0
SEQEND
  5
1BC1
  8
0
  0
POLYLINE
  5
790
  8
0
 66
     1
 10
0.0
 20
0.0
 30
0.0
  0
VERTEX
  5
1BC2
  8
0
 10
219.2935932083291
 20
114.5309203318245
 30
0.0
  0
VERTEX
  5
1BC3
  8
0
 10
219.29199001327771
 20
114.5114628186541
 30
0.0
  0
VERTEX
  5
1BC4
  8
0
 10
219.2896690431393
 20
114.4726256250522
 30
0.0
  0
VERTEX
  5
1BC5
  8
0
 10
219.28851611061509
 20
114.4339030203399
 30
0.0
  0
VERTEX
  5
1BC6
  8
0
 10
219.28837275547329
 20
114.41458875799729
 30
0.0
  0
SEQEND
  5
1BC7
  8
0
  0
POLYLINE
  5
791
  8
0
 66
     1
 10
0.0
 20
0.0
 30
0.0
  0
VERTEX
  5
1BC8
  8
0
 10
219.28837275547329
 20
114.41458875799729
 30
0.0
  0
VERTEX
  5
1BC9
  8
0
 10
219.29071960573481
 20
114.33630988199241
 30
0.0
  0
VERTEX
  5
1BCA
  8
0
 10
219.30982078401411
 20
114.1774147202615
 30
0.0
  0
VERTEX
  5
1BCB
  8
0
 10
219.34873998835559
 20
114.0160356844579
 30
0.0
  0
VERTEX
  5
1BCC
  8
0
 10
219.3758077683805
 20
113.93465417368481
 30
0.0
  0
SEQEND
  5
1BCD
  8
0
  0
POLYLINE
  5
792
  8
0
 66
     1
 10
0.0
 20
0.0
 30
0.0
  0
VERTEX
  5
1BCE
  8
0
 10
220.14174498009419
 20
122.41816388238161
 30
0.0
  0
VERTEX
  5
1BCF
  8
0
 10
219.9981867137908
 20
121.29268593894579
 30
0.0
  0
VERTEX
  5
1BD0
  8
0
 10
219.71355203244789
 20
118.8134348375913
 30
0.0
  0
VERTEX
  5
1BD1
  8
0
 10
219.4325775267086
 20
116.0328992339476
 30
0.0
  0
VERTEX
  5
1BD2
  8
0
 10
219.2935932083291
 20
114.5309203318245
 30
0.0
  0
SEQEND
  5
1BD3
  8
0
  0
LINE
  5
793
  8
0
 10
220.14174498009419
 20
122.41816388238161
 30
0.0
 11
232.54313534010461
 21
122.41816388238161
 31
0.0
  0
POLYLINE
  5
794
  8
0
 66
     1
 10
0.0
 20
0.0
 30
0.0
  0
VERTEX
  5
1BD4
  8
0
 10
233.39128711186959
 20
114.5309203318245
 30
0.0
  0
VERTEX
  5
1BD5
  8
0
 10
233.25230279349009
 20
116.0328992339476
 30
0.0
  0
VERTEX
  5
1BD6
  8
0
 10
232.97132828775071
 20
118.8134348375913
 30
0.0
  0
VERTEX
  5
1BD7
  8
0
 10
232.6866936064078
 20
121.29268593894579
 30
0.0
  0
VERTEX
  5
1BD8
  8
0
 10
232.54313534010461
 20
122.41816388238161
 30
0.0
  0
SEQEND
  5
1BD9
  8
0
  0
POLYLINE
  5
795
  8
0
 66
     1
 10
0.0
 20
0.0
 30
0.0
  0
VERTEX
  5
1BDA
  8
0
 10
233.3090725518181
 20
113.93465417368481
 30
0.0
  0
VERTEX
  5
1BDB
  8
0
 10
233.3361403318431
 20
114.0160356844579
 30
0.0
  0
VERTEX
  5
1BDC
  8
0
 10
233.37505953618461
 20
114.1774147202615
 30
0.0
  0
VERTEX
  5
1BDD
  8
0
 10
233.39416071446371
 20
114.33630988199241
 30
0.0
  0
VERTEX
  5
1BDE
  8
0
 10
233.3965075647256
 20
114.41458875799739
 30
0.0
  0
SEQEND
  5
1BDF
  8
0
  0
POLYLINE
  5
796
  8
0
 66
     1
 10
0.0
 20
0.0
 30
0.0
  0
VERTEX
  5
1BE0
  8
0
 10
233.3965075647256
 20
114.41458875799739
 30
0.0
  0
VERTEX
  5
1BE1
  8
0
 10
233.3963642095836
 20
114.4339030203401
 30
0.0
  0
VERTEX
  5
1BE2
  8
0
 10
233.3952112770593
 20
114.4726256250522
 30
0.0
  0
VERTEX
  5
1BE3
  8
0
 10
233.392890306921
 20
114.51146281865419
 30
0.0
  0
VERTEX
  5
1BE4
  8
0
 10
233.39128711186959
 20
114.5309203318245
 30
0.0
  0
SEQEND
  5
1BE5
  8
0
  0
POLYLINE
  5
797
  8
0
 66
     1
 10
0.0
 20
0.0
 30
0.0
  0
VERTEX
  5
1BE6
  8
0
 10
234.37709828323739
 20
104.6614047512562
 30
0.0
  0
VERTEX
  5
1BE7
  8
0
 10
234.29373753643009
 20
104.8334351473697
 30
0.0
  0
VERTEX
  5
1BE8
  8
0
 10
234.13266857567709
 20
105.1782774331144
 30
0.0
  0
VERTEX
  5
1BE9
  8
0
 10
233.97938590567691
 20
105.52394587789431
 30
0.0
  0
VERTEX
  5
1BEA
  8
0
 10
233.90575456660969
 20
105.6970098479156
 30
0.0
  0
VERTEX
  5
1BEB
  8
0
 10
233.83417614971299
 20
105.8701846848198
 30
0.0
  0
VERTEX
  5
1BEC
  8
0
 10
233.6973114481271
 20
106.2167411228919
 30
0.0
  0
VERTEX
  5
1BED
  8
0
 10
233.56904932638881
 20
106.563365610726
 30
0.0
  0
VERTEX
  5
1BEE
  8
0
 10
233.44963236498401
 20
106.9098123206482
 30
0.0
  0
VERTEX
  5
1BEF
  8
0
 10
233.3392877391625
 20
107.2558403866071
 30
0.0
  0
VERTEX
  5
1BF0
  8
0
 10
233.23822633658929
 20
107.6012171775192
 30
0.0
  0
VERTEX
  5
1BF1
  8
0
 10
233.1912390009999
 20
107.7735886471438
 30
0.0
  0
VERTEX
  5
1BF2
  8
0
 10
233.1466451961829
 20
107.9457103912677
 30
0.0
  0
VERTEX
  5
1BF3
  8
0
 10
233.06472618581529
 20
108.2890910481926
 30
0.0
  0
VERTEX
  5
1BF4
  8
0
 10
232.99263542765891
 20
108.6311349055665
 30
0.0
  0
VERTEX
  5
1BF5
  8
0
 10
232.9305230648107
 20
108.97162301564239
 30
0.0
  0
VERTEX
  5
1BF6
  8
0
 10
232.87852314280531
 20
109.3103419093685
 30
0.0
  0
VERTEX
  5
1BF7
  8
0
 10
232.83675358408479
 20
109.647082951424
 30
0.0
  0
VERTEX
  5
1BF8
  8
0
 10
232.81973757693049
 20
109.814647923853
 30
0.0
  0
VERTEX
  5
1BF9
  8
0
 10
232.80531595492121
 20
109.9816424771541
 30
0.0
  0
VERTEX
  5
1BFA
  8
0
 10
232.7842952044474
 20
110.31382233440431
 30
0.0
  0
VERTEX
  5
1BFB
  8
0
 10
232.77375935847579
 20
110.6434376143752
 30
0.0
  0
VERTEX
  5
1BFC
  8
0
 10
232.77244016009939
 20
110.8072402136907
 30
0.0
  0
SEQEND
  5
1BFD
  8
0
  0
POLYLINE
  5
798
  8
0
 66
     1
 10
0.0
 20
0.0
 30
0.0
  0
VERTEX
  5
1BFE
  8
0
 10
232.77244016009939
 20
110.8072402136907
 30
0.0
  0
VERTEX
  5
1BFF
  8
0
 10
232.78739637083081
 20
111.3528707079201
 30
0.0
  0
VERTEX
  5
1C00
  8
0
 10
232.9071898040753
 20
112.417100212915
 30
0.0
  0
VERTEX
  5
1C01
  8
0
 10
233.1459520208571
 20
113.4402197128682
 30
0.0
  0
VERTEX
  5
1C02
  8
0
 10
233.3090725518181
 20
113.93465417368481
 30
0.0
  0
SEQEND
  5
1C03
  8
0
  0
POLYLINE
  5
799
  8
0
 66
     1
 10
0.0
 20
0.0
 30
0.0
  0
VERTEX
  5
1C04
  8
0
 10
236.2771216766393
 20
118.5431449120934
 30
0.0
  0
VERTEX
  5
1C05
  8
0
 10
236.3364828166242
 20
118.4950457680237
 30
0.0
  0
VERTEX
  5
1C06
  8
0
 10
236.4498571532927
 20
118.398200061979
 30
0.0
  0
VERTEX
  5
1C07
  8
0
 10
236.55606518416519
 20
118.300618934665
 30
0.0
  0
VERTEX
  5
1C08
  8
0
 10
236.6064747236432
 20
118.2516012295045
 30
0.0
  0
VERTEX
  5
1C09
  8
0
 10
236.65508695384989
 20
118.20245891961279
 30
0.0
  0
VERTEX
  5
1C0A
  8
0
 10
236.7469252717901
 20
118.1038834852024
 30
0.0
  0
VERTEX
  5
1C0B
  8
0
 10
236.83160710609039
 20
118.00506232512539
 30
0.0
  0
VERTEX
  5
1C0C
  8
0
 10
236.9091848893305
 20
117.90617032801789
 30
0.0
  0
VERTEX
  5
1C0D
  8
0
 10
236.97973739751069
 20
117.80738653716971
 30
0.0
  0
VERTEX
  5
1C0E
  8
0
 10
237.04339888834701
 20
117.7088463280359
 30
0.0
  0
VERTEX
  5
1C0F
  8
0
 10
237.07296669899321
 20
117.6592356062613
 30
0.0
  0
VERTEX
  5
1C10
  8
0
 10
237.10114845742501
 20
117.60916929719799
 30
0.0
  0
VERTEX
  5
1C11
  8
0
 10
237.1532245439
 20
117.5077307166455
 30
0.0
  0
VERTEX
  5
1C12
  8
0
 10
237.19938372190941
 20
117.4046550375389
 30
0.0
  0
VERTEX
  5
1C13
  8
0
 10
237.2394071821856
 20
117.3000706227337
 30
0.0
  0
VERTEX
  5
1C14
  8
0
 10
237.2731010874264
 20
117.1941087925276
 30
0.0
  0
VERTEX
  5
1C15
  8
0
 10
237.3002966043581
 20
117.0869028300458
 30
0.0
  0
VERTEX
  5
1C16
  8
0
 10
237.3114114792653
 20
117.0328752306734
 30
0.0
  0
VERTEX
  5
1C17
  8
0
 10
237.32084961309511
 20
116.9785869421833
 30
0.0
  0
VERTEX
  5
1C18
  8
0
 10
237.3346400036267
 20
116.8692960906268
 30
0.0
  0
VERTEX
  5
1C19
  8
0
 10
237.34157090511761
 20
116.7591683588042
 30
0.0
  0
VERTEX
  5
1C1A
  8
0
 10
237.3424401600993
 20
116.7038347963236
 30
0.0
  0
SEQEND
  5
1C1B
  8
0
  0
POLYLINE
  5
79A
  8
0
 66
     1
 10
0.0
 20
0.0
 30
0.0
  0
VERTEX
  5
1C1C
  8
0
 10
233.3974288828046
 20
122.23881275430639
 30
0.0
  0
VERTEX
  5
1C1D
  8
0
 10
233.70654460580209
 20
121.6605104309668
 30
0.0
  0
VERTEX
  5
1C1E
  8
0
 10
234.15257931434331
 20
120.9629935851644
 30
0.0
  0
VERTEX
  5
1C1F
  8
0
 10
234.29716157756729
 20
120.75965174884961
 30
0.0
  0
VERTEX
  5
1C20
  8
0
 10
234.44941102223169
 20
120.5546681849334
 30
0.0
  0
VERTEX
  5
1C21
  8
0
 10
234.5284149659206
 20
120.451588731252
 30
0.0
  0
VERTEX
  5
1C22
  8
0
 10
234.6093394662164
 20
120.3481326303132
 30
0.0
  0
VERTEX
  5
1C23
  8
0
 10
234.7769502015596
 20
120.1401364712785
 30
0.0
  0
VERTEX
  5
1C24
  8
0
 10
234.9522387438318
 20
119.93077190593129
 30
0.0
  0
VERTEX
  5
1C25
  8
0
 10
235.13519419034469
 20
119.7201305822084
 30
0.0
  0
VERTEX
  5
1C26
  8
0
 10
235.32579532373589
 20
119.5083082395207
 30
0.0
  0
VERTEX
  5
1C27
  8
0
 10
235.5240122350047
 20
119.2954025856814
 30
0.0
  0
VERTEX
  5
1C28
  8
0
 10
235.62596498861009
 20
119.1885744630697
 30
0.0
  0
VERTEX
  5
1C29
  8
0
 10
235.72980672456069
 20
119.0815128158731
 30
0.0
  0
VERTEX
  5
1C2A
  8
0
 10
235.9431324995013
 20
118.86673940665079
 30
0.0
  0
VERTEX
  5
1C2B
  8
0
 10
236.16393539876319
 20
118.6511839033685
 30
0.0
  0
VERTEX
  5
1C2C
  8
0
 10
236.2771216766393
 20
118.5431449120934
 30
0.0
  0
SEQEND
  5
1C2D
  8
0
  0
POLYLINE
  5
79B
  8
0
 66
     1
 10
0.0
 20
0.0
 30
0.0
  0
VERTEX
  5
1C2E
  8
0
 10
233.39128711186959
 20
127.1345853679103
 30
0.0
  0
VERTEX
  5
1C2F
  8
0
 10
233.3928898248239
 20
127.12192017130781
 30
0.0
  0
VERTEX
  5
1C30
  8
0
 10
233.3952107591667
 20
127.0966330256458
 30
0.0
  0
VERTEX
  5
1C31
  8
0
 10
233.39636411419369
 20
127.0714106481378
 30
0.0
  0
VERTEX
  5
1C32
  8
0
 10
233.3965075647256
 20
127.058826423092
 30
0.0
  0
SEQEND
  5
1C33
  8
0
  0
POLYLINE
  5
79C
  8
0
 66
     1
 10
0.0
 20
0.0
 30
0.0
  0
VERTEX
  5
1C34
  8
0
 10
231.8424401600993
 20
134.6739479092727
 30
0.0
  0
VERTEX
  5
1C35
  8
0
 10
232.10335474365911
 20
133.9052648880909
 30
0.0
  0
VERTEX
  5
1C36
  8
0
 10
232.6224317085194
 20
131.77986574709399
 30
0.0
  0
VERTEX
  5
1C37
  8
0
 10
233.1365577462293
 20
128.87591579307741
 30
0.0
  0
VERTEX
  5
1C38
  8
0
 10
233.39128711186959
 20
127.1345853679103
 30
0.0
  0
SEQEND
  5
1C39
  8
0
  0
POLYLINE
  5
79D
  8
0
 66
     1
 10
0.0
 20
0.0
 30
0.0
  0
VERTEX
  5
1C3A
  8
0
 10
230.74338264947201
 20
134.95920781078911
 30
0.0
  0
VERTEX
  5
1C3B
  8
0
 10
230.80132706719249
 20
134.9528781805293
 30
0.0
  0
VERTEX
  5
1C3C
  8
0
 10
230.91345044263679
 20
134.9398446835043
 30
0.0
  0
VERTEX
  5
1C3D
  8
0
 10
231.02025977638559
 20
134.92632578451671
 30
0.0
  0
VERTEX
  5
1C3E
  8
0
 10
231.0715694642501
 20
134.91938985428291
 30
0.0
  0
VERTEX
  5
1C3F
  8
0
 10
231.12143123951961
 20
134.91233959401461
 30
0.0
  0
VERTEX
  5
1C40
  8
0
 10
231.21666826227261
 20
134.897907082682
 30
0.0
  0
VERTEX
  5
1C41
  8
0
 10
231.3057054312782
 20
134.88305179337459
 30
0.0
  0
VERTEX
  5
1C42
  8
0
 10
231.38831161231221
 20
134.867799465639
 30
0.0
  0
VERTEX
  5
1C43
  8
0
 10
231.46429807721799
 20
134.85217628854181
 30
0.0
  0
VERTEX
  5
1C44
  8
0
 10
231.5335322087376
 20
134.83620447396831
 30
0.0
  0
VERTEX
  5
1C45
  8
0
 10
231.5655740874906
 20
134.8280971563002
 30
0.0
  0
VERTEX
  5
1C46
  8
0
 10
231.59587920872221
 20
134.8199144224713
 30
0.0
  0
VERTEX
  5
1C47
  8
0
 10
231.6512322150891
 20
134.80334023180311
 30
0.0
  0
VERTEX
  5
1C48
  8
0
 10
231.69952010408241
 20
134.78651830976469
 30
0.0
  0
VERTEX
  5
1C49
  8
0
 10
231.74070936858641
 20
134.7694868745499
 30
0.0
  0
VERTEX
  5
1C4A
  8
0
 10
231.7748047508282
 20
134.7522855018351
 30
0.0
  0
VERTEX
  5
1C4B
  8
0
 10
231.80184751529939
 20
134.73495576449781
 30
0.0
  0
VERTEX
  5
1C4C
  8
0
 10
231.81274700447881
 20
134.726256492792
 30
0.0
  0
VERTEX
  5
1C4D
  8
0
 10
231.8219155635507
 20
134.7175419093052
 30
0.0
  0
VERTEX
  5
1C4E
  8
0
 10
231.83512597525689
 20
134.70009039521531
 30
0.0
  0
VERTEX
  5
1C4F
  8
0
 10
231.84163662450001
 20
134.6826492775381
 30
0.0
  0
VERTEX
  5
1C50
  8
0
 10
231.8424401600993
 20
134.6739479092727
 30
0.0
  0
SEQEND
  5
1C51
  8
0
  0
POLYLINE
  5
79E
  8
0
 66
     1
 10
0.0
 20
0.0
 30
0.0
  0
VERTEX
  5
1C52
  8
0
 10
220.8424401600993
 20
134.6739479092727
 30
0.0
  0
VERTEX
  5
1C53
  8
0
 10
220.84324374666039
 20
134.68264955290951
 30
0.0
  0
VERTEX
  5
1C54
  8
0
 10
220.84975467504341
 20
134.70009098130009
 30
0.0
  0
VERTEX
  5
1C55
  8
0
 10
220.86296535153301
 20
134.7175425336938
 30
0.0
  0
VERTEX
  5
1C56
  8
0
 10
220.87213395948481
 20
134.7262570516074
 30
0.0
  0
VERTEX
  5
1C57
  8
0
 10
220.88303340861231
 20
134.7349562102267
 30
0.0
  0
VERTEX
  5
1C58
  8
0
 10
220.91007575094761
 20
134.75228560446629
 30
0.0
  0
VERTEX
  5
1C59
  8
0
 10
220.94417016829391
 20
134.76948651818839
 30
0.0
  0
VERTEX
  5
1C5A
  8
0
 10
220.9853578761055
 20
134.78651742413379
 30
0.0
  0
VERTEX
  5
1C5B
  8
0
 10
221.0336436483864
 20
134.8033387954145
 30
0.0
  0
VERTEX
  5
1C5C
  8
0
 10
221.0889940831172
 20
134.8199124597879
 30
0.0
  0
VERTEX
  5
1C5D
  8
0
 10
221.1192977983028
 20
134.82809495250109
 30
0.0
  0
VERTEX
  5
1C5E
  8
0
 10
221.1513382249108
 20
134.83620204984041
 30
0.0
  0
VERTEX
  5
1C5F
  8
0
 10
221.2205694345073
 20
134.85217350193531
 30
0.0
  0
VERTEX
  5
1C60
  8
0
 10
221.2965529923919
 20
134.8677964062592
 30
0.0
  0
VERTEX
  5
1C61
  8
0
 10
221.3791565712402
 20
134.88304858065251
 30
0.0
  0
VERTEX
  5
1C62
  8
0
 10
221.4681921228736
 20
134.8979039147859
 30
0.0
  0
VERTEX
  5
1C63
  8
0
 10
221.56342903918971
 20
134.9123366947745
 30
0.0
  0
VERTEX
  5
1C64
  8
0
 10
221.61329150407619
 20
134.91938717916949
 30
0.0
  0
VERTEX
  5
1C65
  8
0
 10
221.66460247471821
 20
134.9263233955165
 30
0.0
  0
VERTEX
  5
1C66
  8
0
 10
221.77141645413121
 20
134.9398430559811
 30
0.0
  0
VERTEX
  5
1C67
  8
0
 10
221.8835477772972
 20
134.95287756997701
 30
0.0
  0
VERTEX
  5
1C68
  8
0
 10
221.94149767072651
 20
134.95920781078911
 30
0.0
  0
SEQEND
  5
1C69
  8
0
  0
POLYLINE
  5
79F
  8
0
 66
     1
 10
0.0
 20
0.0
 30
0.0
  0
VERTEX
  5
1C6A
  8
0
 10
219.2935932083291
 20
127.1345853679103
 30
0.0
  0
VERTEX
  5
1C6B
  8
0
 10
219.54832257396939
 20
128.87591579307741
 30
0.0
  0
VERTEX
  5
1C6C
  8
0
 10
220.0624486116792
 20
131.77986574709399
 30
0.0
  0
VERTEX
  5
1C6D
  8
0
 10
220.58152557653941
 20
133.9052648880909
 30
0.0
  0
VERTEX
  5
1C6E
  8
0
 10
220.8424401600993
 20
134.6739479092727
 30
0.0
  0
SEQEND
  5
1C6F
  8
0
  0
POLYLINE
  5
7A0
  8
0
 66
     1
 10
0.0
 20
0.0
 30
0.0
  0
VERTEX
  5
1C70
  8
0
 10
219.28837275547329
 20
127.0588264230919
 30
0.0
  0
VERTEX
  5
1C71
  8
0
 10
219.288516206005
 20
127.0714106481378
 30
0.0
  0
VERTEX
  5
1C72
  8
0
 10
219.28966956103201
 20
127.0966330256457
 30
0.0
  0
VERTEX
  5
1C73
  8
0
 10
219.29199049537471
 20
127.12192017130781
 30
0.0
  0
VERTEX
  5
1C74
  8
0
 10
219.2935932083291
 20
127.1345853679103
 30
0.0
  0
SEQEND
  5
1C75
  8
0
  0
POLYLINE
  5
7A1
  8
0
 66
     1
 10
0.0
 20
0.0
 30
0.0
  0
VERTEX
  5
1C76
  8
0
 10
216.4077586435595
 20
118.5431449120934
 30
0.0
  0
VERTEX
  5
1C77
  8
0
 10
216.52094492143419
 20
118.6511839033672
 30
0.0
  0
VERTEX
  5
1C78
  8
0
 10
216.741747820694
 20
118.8667394066476
 30
0.0
  0
VERTEX
  5
1C79
  8
0
 10
216.95507359563501
 20
119.08151281587
 30
0.0
  0
VERTEX
  5
1C7A
  8
0
 10
217.05891533158561
 20
119.1885744630667
 30
0.0
  0
VERTEX
  5
1C7B
  8
0
 10
217.16086808519131
 20
119.2954025856785
 30
0.0
  0
VERTEX
  5
1C7C
  8
0
 10
217.3590849964603
 20
119.508308239518
 30
0.0
  0
VERTEX
  5
1C7D
  8
0
 10
217.54968612985181
 20
119.7201305822059
 30
0.0
  0
VERTEX
  5
1C7E
  8
0
 10
218.15646535427669
 20
120.4515887312502
 30
0.0
  0
VERTEX
  5
1C7F
  8
0
 10
218.97833571439631
 20
121.6605104309662
 30
0.0
  0
VERTEX
  5
1C80
  8
0
 10
219.287451437394
 20
122.2388127543063
 30
0.0
  0
SEQEND
  5
1C81
  8
0
  0
POLYLINE
  5
7A2
  8
0
 66
     1
 10
0.0
 20
0.0
 30
0.0
  0
VERTEX
  5
1C82
  8
0
 10
215.3424401600993
 20
116.7038347963236
 30
0.0
  0
VERTEX
  5
1C83
  8
0
 10
215.34330941508099
 20
116.7591683588041
 30
0.0
  0
VERTEX
  5
1C84
  8
0
 10
215.3502403165719
 20
116.8692960906268
 30
0.0
  0
VERTEX
  5
1C85
  8
0
 10
215.3640307071035
 20
116.9785869421834
 30
0.0
  0
VERTEX
  5
1C86
  8
0
 10
215.37346884093341
 20
117.0328752306734
 30
0.0
  0
VERTEX
  5
1C87
  8
0
 10
215.38458371584059
 20
117.0869028300458
 30
0.0
  0
VERTEX
  5
1C88
  8
0
 10
215.41177923277229
 20
117.1941087925276
 30
0.0
  0
VERTEX
  5
1C89
  8
0
 10
215.44547313801311
 20
117.3000706227337
 30
0.0
  0
VERTEX
  5
1C8A
  8
0
 10
215.48549659828919
 20
117.4046550375389
 30
0.0
  0
VERTEX
  5
1C8B
  8
0
 10
215.53165577629861
 20
117.5077307166455
 30
0.0
  0
VERTEX
  5
1C8C
  8
0
 10
215.5837318627737
 20
117.60916929719799
 30
0.0
  0
VERTEX
  5
1C8D
  8
0
 10
215.6119136212053
 20
117.6592356062613
 30
0.0
  0
VERTEX
  5
1C8E
  8
0
 10
215.64148143185179
 20
117.7088463280359
 30
0.0
  0
VERTEX
  5
1C8F
  8
0
 10
215.70514292268791
 20
117.80738653716971
 30
0.0
  0
VERTEX
  5
1C90
  8
0
 10
215.77569543086801
 20
117.90617032801789
 30
0.0
  0
VERTEX
  5
1C91
  8
0
 10
215.85327321410821
 20
118.00506232512539
 30
0.0
  0
VERTEX
  5
1C92
  8
0
 10
215.93795504840861
 20
118.1038834852024
 30
0.0
  0
VERTEX
  5
1C93
  8
0
 10
216.02979336634891
 20
118.20245891961279
 30
0.0
  0
VERTEX
  5
1C94
  8
0
 10
216.0784055965554
 20
118.2516012295045
 30
0.0
  0
VERTEX
  5
1C95
  8
0
 10
216.1288151360335
 20
118.300618934665
 30
0.0
  0
VERTEX
  5
1C96
  8
0
 10
216.23502316690599
 20
118.3982000619789
 30
0.0
  0
VERTEX
  5
1C97
  8
0
 10
216.34839750357449
 20
118.4950457680237
 30
0.0
  0
VERTEX
  5
1C98
  8
0
 10
216.4077586435595
 20
118.5431449120934
 30
0.0
  0
SEQEND
  5
1C99
  8
0
  0
LINE
  5
7A3
  8
0
 10
218.6424401600994
 20
80.661404751256185
 30
0.0
 11
234.04244016009929
 21
80.661404751256185
 31
0.0
  0
LINE
  5
7A4
  8
0
 10
218.3424401600993
 20
80.961404751256183
 30
0.0
 11
234.3424401600993
 21
80.961404751256183
 31
0.0
  0
LINE
  5
7B7
  8
2
 10
38.269120931067313
 20
96.661404751256214
 30
0.0
 11
34.081120931067261
 21
99.079347678622185
 31
0.0
  0
LINE
  5
7B8
  8
2
 10
34.081120931067261
 20
99.079347678622185
 30
0.0
 11
29.893120931067269
 21
96.661404751256214
 31
0.0
  0
LINE
  5
7B9
  8
2
 10
38.269120931067313
 20
81.473404751256183
 30
0.0
 11
38.269120931067313
 21
96.661404751256214
 31
0.0
  0
LINE
  5
7BA
  8
2
 10
29.893120931067269
 20
96.661404751256214
 30
0.0
 11
29.893120931067269
 21
81.473404751256183
 31
0.0
  0
LINE
  5
7BB
  8
2
 10
39.081120931067268
 20
80.661404751256185
 30
0.0
 11
38.269120931067313
 21
81.473404751256183
 31
0.0
  0
LINE
  5
7BC
  8
2
 10
29.893120931067269
 20
81.473404751256183
 30
0.0
 11
29.081120931067261
 21
80.661404751256185
 31
0.0
  0
LINE
  5
7E6
  8
2
 10
29.893120931067269
 20
96.661404751256214
 30
0.0
 11
38.269120931067313
 21
96.661404751256214
 31
0.0
  0
LINE
  5
7E7
  8
2
 10
29.893120931067269
 20
81.473404751256183
 30
0.0
 11
38.269120931067313
 21
81.473404751256183
 31
0.0
  0
LINE
  5
7E8
  8
2
 10
29.081120931067289
 20
80.661404751256185
 30
0.0
 11
29.081120931067289
 21
94.661404751256185
 31
0.0
  0
LINE
  5
7E9
  8
2
 10
29.081120931067289
 20
94.661404751256185
 30
0.0
 11
39.081120931067289
 21
94.661404751256185
 31
0.0
  0
LINE
  5
7EA
  8
2
 10
39.081120931067289
 20
80.661404751256185
 30
0.0
 11
39.081120931067289
 21
94.661404751256185
 31
0.0
  0
LINE
  5
7EB
  8
1
 10
34.081120931067289
 20
136.95920781078911
 30
0.0
 11
34.081120931067289
 21
78.6614047512562
 31
0.0
  0
LINE
  5
7EC
  8
0
 10
38.344532982480331
 20
134.96625309479779
 30
0.0
 11
29.81770887965428
 21
134.96625309479779
 31
0.0
  0
LINE
  5
7ED
  8
0
 10
27.0270535264412
 20
127.058826423092
 30
0.0
 11
27.0270535264412
 21
122.26132037472
 31
0.0
  0
LINE
  5
7F0
  8
0
 10
41.135188335693371
 20
122.2613203747199
 30
0.0
 11
41.135188335693371
 21
127.0588264230919
 31
0.0
  0
ARC
  5
7F3
  8
0
 10
34.081120931067289
 20
112.1614047512561
 30
0.0
 40
10.00000000000002
 50
56.25101140411136
 51
123.7489885958886
  0
ARC
  5
7F4
  8
0
 10
29.081120931067289
 20
119.6447195248041
 30
0.0
 40
1.0
 50
123.7489885958875
 51
180.0
  0
ARC
  5
7F5
  8
0
 10
39.081120931067318
 20
119.6447195248041
 30
0.0
 40
0.9999999999999785
 50
0.0
 51
56.251011404112248
  0
LINE
  5
7F6
  8
0
 10
41.781120931067292
 20
80.661404751256185
 30
0.0
 11
42.081120931067289
 21
80.961404751256183
 31
0.0
  0
LINE
  5
7F7
  8
0
 10
26.081120931067289
 20
80.961404751256183
 30
0.0
 11
26.381120931067301
 21
80.661404751256185
 31
0.0
  0
LINE
  5
7FA
  8
0
 10
42.081120931067289
 20
80.961404751256183
 30
0.0
 11
42.081120931067289
 21
90.661404751256185
 31
0.0
  0
LINE
  5
7FB
  8
0
 10
26.081120931067289
 20
90.661404751256185
 30
0.0
 11
26.081120931067289
 21
80.961404751256183
 31
0.0
  0
LINE
  5
7FC
  8
0
 10
37.327642146152733
 20
108.9799023503986
 30
0.0
 11
30.834599715981849
 21
108.9799023503986
 31
0.0
  0
POLYLINE
  5
7FD
  8
0
 66
     1
 10
0.0
 20
0.0
 30
0.0
  0
VERTEX
  5
1C9A
  8
0
 10
38.482063420439999
 20
134.95920781078911
 30
0.0
  0
VERTEX
  5
1C9B
  8
0
 10
38.459571742689079
 20
134.9613945863403
 30
0.0
  0
VERTEX
  5
1C9C
  8
0
 10
38.414032549313518
 20
134.96452975459201
 30
0.0
  0
VERTEX
  5
1C9D
  8
0
 10
38.367839704055712
 20
134.9660646458486
 30
0.0
  0
VERTEX
  5
1C9E
  8
0
 10
38.344532982201791
 20
134.96625309479779
 30
0.0
  0
SEQEND
  5
1C9F
  8
0
  0
POLYLINE
  5
7FE
  8
0
 66
     1
 10
0.0
 20
0.0
 30
0.0
  0
VERTEX
  5
1CA0
  8
0
 10
29.817708879932781
 20
134.96625309479779
 30
0.0
  0
VERTEX
  5
1CA1
  8
0
 10
29.794402158078899
 20
134.9660646458486
 30
0.0
  0
VERTEX
  5
1CA2
  8
0
 10
29.748209312821078
 20
134.96452975459201
 30
0.0
  0
VERTEX
  5
1CA3
  8
0
 10
29.702670119445521
 20
134.9613945863403
 30
0.0
  0
VERTEX
  5
1CA4
  8
0
 10
29.680178441694569
 20
134.95920781078911
 30
0.0
  0
SEQEND
  5
1CA5
  8
0
  0
POLYLINE
  5
801
  8
0
 66
     1
 10
0.0
 20
0.0
 30
0.0
  0
VERTEX
  5
1CA6
  8
0
 10
37.327642146152733
 20
108.9799023503986
 30
0.0
  0
VERTEX
  5
1CA7
  8
0
 10
37.328036673594468
 20
109.0148130200198
 30
0.0
  0
VERTEX
  5
1CA8
  8
0
 10
37.3311108833283
 20
109.08343974447919
 30
0.0
  0
VERTEX
  5
1CA9
  8
0
 10
37.337056953043117
 20
109.1505478885357
 30
0.0
  0
VERTEX
  5
1CAA
  8
0
 10
37.341044872957511
 20
109.18356193838871
 30
0.0
  0
VERTEX
  5
1CAB
  8
0
 10
37.34567830686877
 20
109.2162321662011
 30
0.0
  0
VERTEX
  5
1CAC
  8
0
 10
37.356794666168881
 20
109.2805899325904
 30
0.0
  0
VERTEX
  5
1CAD
  8
0
 10
37.370241906764342
 20
109.3437171207089
 30
0.0
  0
VERTEX
  5
1CAE
  8
0
 10
37.385870898365212
 20
109.40570476191159
 30
0.0
  0
VERTEX
  5
1CAF
  8
0
 10
37.403545699765012
 20
109.4666363948085
 30
0.0
  0
VERTEX
  5
1CB0
  8
0
 10
37.423141494622307
 20
109.5265865075763
 30
0.0
  0
VERTEX
  5
1CB1
  8
0
 10
37.433623429306088
 20
109.5562144867601
 30
0.0
  0
VERTEX
  5
1CB2
  8
0
 10
37.444543376839221
 20
109.585622046415
 30
0.0
  0
VERTEX
  5
1CB3
  8
0
 10
37.467647562140272
 20
109.64380890961669
 30
0.0
  0
VERTEX
  5
1CB4
  8
0
 10
37.492361169154456
 20
109.7012122781384
 30
0.0
  0
VERTEX
  5
1CB5
  8
0
 10
37.518601069434403
 20
109.7578949754153
 30
0.0
  0
VERTEX
  5
1CB6
  8
0
 10
37.546292624615759
 20
109.8139162836889
 30
0.0
  0
VERTEX
  5
1CB7
  8
0
 10
37.575368413244597
 20
109.8693311444339
 30
0.0
  0
VERTEX
  5
1CB8
  8
0
 10
37.590406002429688
 20
109.8968270211989
 30
0.0
  0
VERTEX
  5
1CB9
  8
0
 10
37.6057670351464
 20
109.9241897040805
 30
0.0
  0
VERTEX
  5
1CBA
  8
0
 10
37.637432039362331
 20
109.97853713372049
 30
0.0
  0
VERTEX
  5
1CBB
  8
0
 10
37.670296289953527
 20
110.0323900786256
 30
0.0
  0
VERTEX
  5
1CBC
  8
0
 10
37.687156694630453
 20
110.0591339422736
 30
0.0
  0
VERTEX
  5
1CBD
  8
0
 10
37.704293959557113
 20
110.0857612505224
 30
0.0
  0
VERTEX
  5
1CBE
  8
0
 10
37.739374616486089
 20
110.1386810446467
 30
0.0
  0
VERTEX
  5
1CBF
  8
0
 10
37.77549162067514
 20
110.1911778642104
 30
0.0
  0
VERTEX
  5
1CC0
  8
0
 10
37.793925085916548
 20
110.21727594924771
 30
0.0
  0
VERTEX
  5
1CC1
  8
0
 10
37.812601604386927
 20
110.2432779623194
 30
0.0
  0
VERTEX
  5
1CC2
  8
0
 10
37.85066400444083
 20
110.2950053630246
 30
0.0
  0
VERTEX
  5
1CC3
  8
0
 10
37.889640650376613
 20
110.34638184651
 30
0.0
  0
VERTEX
  5
1CC4
  8
0
 10
37.92949540949779
 20
110.3974269851133
 30
0.0
  0
VERTEX
  5
1CC5
  8
0
 10
37.970193915270542
 20
110.4481582530786
 30
0.0
  0
VERTEX
  5
1CC6
  8
0
 10
38.011703655282759
 20
110.49859152955391
 30
0.0
  0
VERTEX
  5
1CC7
  8
0
 10
38.03275310544683
 20
110.5237010486703
 30
0.0
  0
VERTEX
  5
1CC8
  8
0
 10
38.053994022624508
 20
110.54874146827849
 30
0.0
  0
VERTEX
  5
1CC9
  8
0
 10
38.097036087062818
 20
110.5986214828182
 30
0.0
  0
VERTEX
  5
1CCA
  8
0
 10
38.140802389664138
 20
110.6482437496598
 30
0.0
  0
VERTEX
  5
1CCB
  8
0
 10
38.299319720780531
 20
110.8200393935531
 30
0.0
  0
VERTEX
  5
1CCC
  8
0
 10
38.586588556943212
 20
111.1070093092731
 30
0.0
  0
VERTEX
  5
1CCD
  8
0
 10
38.887345513481762
 20
111.3833518783571
 30
0.0
  0
VERTEX
  5
1CCE
  8
0
 10
39.195890003508161
 20
111.6481339534691
 30
0.0
  0
VERTEX
  5
1CCF
  8
0
 10
39.351445994752567
 20
111.77578847430679
 30
0.0
  0
VERTEX
  5
1CD0
  8
0
 10
39.507038921955932
 20
111.9000412580601
 30
0.0
  0
VERTEX
  5
1CD1
  8
0
 10
39.816008466053489
 20
112.1375618975823
 30
0.0
  0
VERTEX
  5
1CD2
  8
0
 10
40.120569178441521
 20
112.3607270423993
 30
0.0
  0
VERTEX
  5
1CD3
  8
0
 10
40.429352884739288
 20
112.5765788547879
 30
0.0
  0
VERTEX
  5
1CD4
  8
0
 10
40.741436622279501
 20
112.7843232373267
 30
0.0
  0
VERTEX
  5
1CD5
  8
0
 10
41.054169679330762
 20
112.9818186146436
 30
0.0
  0
VERTEX
  5
1CD6
  8
0
 10
41.209990461474789
 20
113.0760674873525
 30
0.0
  0
VERTEX
  5
1CD7
  8
0
 10
41.365043150636197
 20
113.1669733681656
 30
0.0
  0
VERTEX
  5
1CD8
  8
0
 10
41.671677280642548
 20
113.3377426621398
 30
0.0
  0
VERTEX
  5
1CD9
  8
0
 10
41.971834687758658
 20
113.49214757408561
 30
0.0
  0
VERTEX
  5
1CDA
  8
0
 10
42.118861929761771
 20
113.5626343694683
 30
0.0
  0
SEQEND
  5
1CDB
  8
0
  0
POLYLINE
  5
803
  8
0
 66
     1
 10
0.0
 20
0.0
 30
0.0
  0
VERTEX
  5
1CDC
  8
0
 10
26.043379932372801
 20
113.5626343694683
 30
0.0
  0
VERTEX
  5
1CDD
  8
0
 10
26.19040717437591
 20
113.49214757408561
 30
0.0
  0
VERTEX
  5
1CDE
  8
0
 10
26.490564581492009
 20
113.3377426621398
 30
0.0
  0
VERTEX
  5
1CDF
  8
0
 10
26.797198711498339
 20
113.1669733681656
 30
0.0
  0
VERTEX
  5
1CE0
  8
0
 10
26.952251400659751
 20
113.0760674873525
 30
0.0
  0
VERTEX
  5
1CE1
  8
0
 10
27.108072182803792
 20
112.9818186146436
 30
0.0
  0
VERTEX
  5
1CE2
  8
0
 10
27.420805239855031
 20
112.7843232373267
 30
0.0
  0
VERTEX
  5
1CE3
  8
0
 10
27.73288897739528
 20
112.5765788547879
 30
0.0
  0
VERTEX
  5
1CE4
  8
0
 10
28.04167268369304
 20
112.3607270423993
 30
0.0
  0
VERTEX
  5
1CE5
  8
0
 10
28.346233396081089
 20
112.1375618975823
 30
0.0
  0
VERTEX
  5
1CE6
  8
0
 10
28.65520294017864
 20
111.9000412580601
 30
0.0
  0
VERTEX
  5
1CE7
  8
0
 10
28.810795867382009
 20
111.77578847430679
 30
0.0
  0
VERTEX
  5
1CE8
  8
0
 10
28.96635185862641
 20
111.6481339534691
 30
0.0
  0
VERTEX
  5
1CE9
  8
0
 10
29.274896348652788
 20
111.3833518783571
 30
0.0
  0
VERTEX
  5
1CEA
  8
0
 10
29.57565330519137
 20
111.1070093092731
 30
0.0
  0
VERTEX
  5
1CEB
  8
0
 10
29.86292214135403
 20
110.8200393935531
 30
0.0
  0
VERTEX
  5
1CEC
  8
0
 10
30.021439472470441
 20
110.6482437496598
 30
0.0
  0
VERTEX
  5
1CED
  8
0
 10
30.06520577507175
 20
110.5986214828182
 30
0.0
  0
VERTEX
  5
1CEE
  8
0
 10
30.10824783951006
 20
110.54874146827849
 30
0.0
  0
VERTEX
  5
1CEF
  8
0
 10
30.129488756687749
 20
110.5237010486703
 30
0.0
  0
VERTEX
  5
1CF0
  8
0
 10
30.15053820685182
 20
110.49859152955391
 30
0.0
  0
VERTEX
  5
1CF1
  8
0
 10
30.192047946864051
 20
110.4481582530786
 30
0.0
  0
VERTEX
  5
1CF2
  8
0
 10
30.232746452636771
 20
110.3974269851133
 30
0.0
  0
VERTEX
  5
1CF3
  8
0
 10
30.272601211757951
 20
110.34638184651
 30
0.0
  0
VERTEX
  5
1CF4
  8
0
 10
30.31157785769372
 20
110.2950053630246
 30
0.0
  0
VERTEX
  5
1CF5
  8
0
 10
30.349640257747641
 20
110.2432779623194
 30
0.0
  0
VERTEX
  5
1CF6
  8
0
 10
30.36831677621802
 20
110.21727594924771
 30
0.0
  0
VERTEX
  5
1CF7
  8
0
 10
30.386750241459449
 20
110.1911778642104
 30
0.0
  0
VERTEX
  5
1CF8
  8
0
 10
30.422867245648469
 20
110.1386810446467
 30
0.0
  0
VERTEX
  5
1CF9
  8
0
 10
30.45794790257748
 20
110.0857612505224
 30
0.0
  0
VERTEX
  5
1CFA
  8
0
 10
30.475085167504119
 20
110.0591339422736
 30
0.0
  0
VERTEX
  5
1CFB
  8
0
 10
30.49194557218101
 20
110.0323900786256
 30
0.0
  0
VERTEX
  5
1CFC
  8
0
 10
30.52480982277223
 20
109.97853713372049
 30
0.0
  0
VERTEX
  5
1CFD
  8
0
 10
30.556474826988161
 20
109.9241897040805
 30
0.0
  0
VERTEX
  5
1CFE
  8
0
 10
30.57183585970489
 20
109.8968270211989
 30
0.0
  0
VERTEX
  5
1CFF
  8
0
 10
30.586873448889978
 20
109.8693311444339
 30
0.0
  0
VERTEX
  5
1D00
  8
0
 10
30.615949237518809
 20
109.8139162836889
 30
0.0
  0
VERTEX
  5
1D01
  8
0
 10
30.643640792700161
 20
109.7578949754153
 30
0.0
  0
VERTEX
  5
1D02
  8
0
 10
30.669880692980119
 20
109.7012122781384
 30
0.0
  0
VERTEX
  5
1D03
  8
0
 10
30.6945942999943
 20
109.64380890961669
 30
0.0
  0
VERTEX
  5
1D04
  8
0
 10
30.71769848529533
 20
109.585622046415
 30
0.0
  0
VERTEX
  5
1D05
  8
0
 10
30.72861843282848
 20
109.5562144867601
 30
0.0
  0
VERTEX
  5
1D06
  8
0
 10
30.73910036751224
 20
109.5265865075763
 30
0.0
  0
VERTEX
  5
1D07
  8
0
 10
30.758696162369571
 20
109.4666363948085
 30
0.0
  0
VERTEX
  5
1D08
  8
0
 10
30.776370963769349
 20
109.40570476191159
 30
0.0
  0
VERTEX
  5
1D09
  8
0
 10
30.791999955370219
 20
109.3437171207089
 30
0.0
  0
VERTEX
  5
1D0A
  8
0
 10
30.805447195965691
 20
109.2805899325904
 30
0.0
  0
VERTEX
  5
1D0B
  8
0
 10
30.816563555265791
 20
109.2162321662011
 30
0.0
  0
VERTEX
  5
1D0C
  8
0
 10
30.82119698917705
 20
109.18356193838871
 30
0.0
  0
VERTEX
  5
1D0D
  8
0
 10
30.825184909091458
 20
109.1505478885357
 30
0.0
  0
VERTEX
  5
1D0E
  8
0
 10
30.831130978806272
 20
109.08343974447919
 30
0.0
  0
VERTEX
  5
1D0F
  8
0
 10
30.8342051885401
 20
109.0148130200198
 30
0.0
  0
VERTEX
  5
1D10
  8
0
 10
30.834599715981849
 20
108.9799023503986
 30
0.0
  0
SEQEND
  5
1D11
  8
0
  0
LINE
  5
806
  8
0
 10
44.581120931067282
 20
90.661404751256185
 30
0.0
 11
23.581120931067289
 21
90.661404751256185
 31
0.0
  0
POLYLINE
  5
80D
  8
0
 66
     1
 10
0.0
 20
0.0
 30
0.0
  0
VERTEX
  5
1D12
  8
0
 10
24.146439414527379
 20
118.5431449120934
 30
0.0
  0
VERTEX
  5
1D13
  8
0
 10
24.087078274542389
 20
118.4950457680237
 30
0.0
  0
VERTEX
  5
1D14
  8
0
 10
23.97370393787395
 20
118.398200061979
 30
0.0
  0
VERTEX
  5
1D15
  8
0
 10
23.867495907001452
 20
118.300618934665
 30
0.0
  0
VERTEX
  5
1D16
  8
0
 10
23.817086367523299
 20
118.2516012295045
 30
0.0
  0
VERTEX
  5
1D17
  8
0
 10
23.76847413731679
 20
118.20245891961279
 30
0.0
  0
VERTEX
  5
1D18
  8
0
 10
23.676635819376529
 20
118.1038834852024
 30
0.0
  0
VERTEX
  5
1D19
  8
0
 10
23.59195398507617
 20
118.00506232512539
 30
0.0
  0
VERTEX
  5
1D1A
  8
0
 10
23.51437620183594
 20
117.90617032801789
 30
0.0
  0
VERTEX
  5
1D1B
  8
0
 10
23.443823693655869
 20
117.80738653716971
 30
0.0
  0
VERTEX
  5
1D1C
  8
0
 10
23.38016220281969
 20
117.7088463280359
 30
0.0
  0
VERTEX
  5
1D1D
  8
0
 10
23.350594392173448
 20
117.6592356062613
 30
0.0
  0
VERTEX
  5
1D1E
  8
0
 10
23.322412633741571
 20
117.60916929719799
 30
0.0
  0
VERTEX
  5
1D1F
  8
0
 10
23.27033654726657
 20
117.5077307166455
 30
0.0
  0
VERTEX
  5
1D20
  8
0
 10
23.22417736925718
 20
117.4046550375389
 30
0.0
  0
VERTEX
  5
1D21
  8
0
 10
23.184153908981038
 20
117.3000706227337
 30
0.0
  0
VERTEX
  5
1D22
  8
0
 10
23.150460003740221
 20
117.1941087925276
 30
0.0
  0
VERTEX
  5
1D23
  8
0
 10
23.123264486808552
 20
117.0869028300458
 30
0.0
  0
VERTEX
  5
1D24
  8
0
 10
23.112149611901291
 20
117.0328752306734
 30
0.0
  0
VERTEX
  5
1D25
  8
0
 10
23.102711478071448
 20
116.9785869421833
 30
0.0
  0
VERTEX
  5
1D26
  8
0
 10
23.088921087539919
 20
116.8692960906268
 30
0.0
  0
VERTEX
  5
1D27
  8
0
 10
23.081990186049008
 20
116.7591683588042
 30
0.0
  0
VERTEX
  5
1D28
  8
0
 10
23.081120931067289
 20
116.7038347963236
 30
0.0
  0
SEQEND
  5
1D29
  8
0
  0
POLYLINE
  5
80E
  8
0
 66
     1
 10
0.0
 20
0.0
 30
0.0
  0
VERTEX
  5
1D2A
  8
0
 10
23.081120931067289
 20
116.7038347963236
 30
0.0
  0
VERTEX
  5
1D2B
  8
0
 10
23.083563058217781
 20
116.6108901730276
 30
0.0
  0
VERTEX
  5
1D2C
  8
0
 10
23.103153047636621
 20
116.424031323655
 30
0.0
  0
VERTEX
  5
1D2D
  8
0
 10
23.142373821829452
 20
116.2364489790358
 30
0.0
  0
VERTEX
  5
1D2E
  8
0
 10
23.169318341954689
 20
116.1425821110268
 30
0.0
  0
VERTEX
  5
1D2F
  8
0
 10
23.20111917565205
 20
116.04876815252339
 30
0.0
  0
VERTEX
  5
1D30
  8
0
 10
23.27911767047723
 20
115.8616476512118
 30
0.0
  0
VERTEX
  5
1D31
  8
0
 10
23.375911538032199
 20
115.67578986661999
 30
0.0
  0
VERTEX
  5
1D32
  8
0
 10
23.4908641887748
 20
115.49189552745869
 30
0.0
  0
VERTEX
  5
1D33
  8
0
 10
23.62316684021857
 20
115.3106522194784
 30
0.0
  0
VERTEX
  5
1D34
  8
0
 10
23.77183275981389
 20
115.1327418256791
 30
0.0
  0
VERTEX
  5
1D35
  8
0
 10
23.85194237056794
 20
115.0452492353884
 30
0.0
  0
VERTEX
  5
1D36
  8
0
 10
23.935688176127432
 20
114.9588436985135
 30
0.0
  0
VERTEX
  5
1D37
  8
0
 10
24.113378657635959
 20
114.7896193011737
 30
0.0
  0
VERTEX
  5
1D38
  8
0
 10
24.307604079106849
 20
114.6222242328368
 30
0.0
  0
VERTEX
  5
1D39
  8
0
 10
24.521788855483891
 20
114.4543110858819
 30
0.0
  0
VERTEX
  5
1D3A
  8
0
 10
24.755846082551429
 20
114.2868345025135
 30
0.0
  0
VERTEX
  5
1D3B
  8
0
 10
25.009497221909811
 20
114.1207224640513
 30
0.0
  0
VERTEX
  5
1D3C
  8
0
 10
25.143536706879331
 20
114.03845717310379
 30
0.0
  0
VERTEX
  5
1D3D
  8
0
 10
25.28229182012015
 20
113.9568636400969
 30
0.0
  0
VERTEX
  5
1D3E
  8
0
 10
25.573592365484359
 20
113.79611733631261
 30
0.0
  0
VERTEX
  5
1D3F
  8
0
 10
25.88256911241157
 20
113.6393123231698
 30
0.0
  0
VERTEX
  5
1D40
  8
0
 10
26.043379932372829
 20
113.5626343694686
 30
0.0
  0
SEQEND
  5
1D41
  8
0
  0
POLYLINE
  5
80F
  8
0
 66
     1
 10
0.0
 20
0.0
 30
0.0
  0
VERTEX
  5
1D42
  8
0
 10
27.114488539348521
 20
126.7459870170174
 30
0.0
  0
VERTEX
  5
1D43
  8
0
 10
27.279404664334951
 20
126.41928770183149
 30
0.0
  0
VERTEX
  5
1D44
  8
0
 10
27.518306034171498
 20
125.7466919053858
 30
0.0
  0
VERTEX
  5
1D45
  8
0
 10
27.63652328279704
 20
125.0522021856097
 30
0.0
  0
VERTEX
  5
1D46
  8
0
 10
27.651120931067279
 20
124.69830667695879
 30
0.0
  0
SEQEND
  5
1D47
  8
0
  0
POLYLINE
  5
810
  8
0
 66
     1
 10
0.0
 20
0.0
 30
0.0
  0
VERTEX
  5
1D48
  8
0
 10
27.651120931067279
 20
124.69830667695879
 30
0.0
  0
VERTEX
  5
1D49
  8
0
 10
27.648230243882171
 20
124.5388516069857
 30
0.0
  0
VERTEX
  5
1D4A
  8
0
 10
27.625288107142701
 20
124.21808073631109
 30
0.0
  0
VERTEX
  5
1D4B
  8
0
 10
27.57991887622569
 20
123.895271820223
 30
0.0
  0
VERTEX
  5
1D4C
  8
0
 10
27.549015454627611
 20
123.73327606803311
 30
0.0
  0
VERTEX
  5
1D4D
  8
0
 10
27.51274607877971
 20
123.57098109756819
 30
0.0
  0
VERTEX
  5
1D4E
  8
0
 10
27.42448233385457
 20
123.245785662533
 30
0.0
  0
VERTEX
  5
1D4F
  8
0
 10
27.315928194318388
 20
122.920282262336
 30
0.0
  0
VERTEX
  5
1D50
  8
0
 10
27.187971728683319
 20
122.59508794567979
 30
0.0
  0
VERTEX
  5
1D51
  8
0
 10
27.041208791177411
 20
122.2700490470193
 30
0.0
  0
VERTEX
  5
1D52
  8
0
 10
26.87320023804574
 20
121.93953274900799
 30
0.0
  0
VERTEX
  5
1D53
  8
0
 10
26.78089525881191
 20
121.7718530339709
 30
0.0
  0
VERTEX
  5
1D54
  8
0
 10
26.682999098044021
 20
121.60262632796299
 30
0.0
  0
VERTEX
  5
1D55
  8
0
 10
26.47029101340587
 20
121.25974049073579
 30
0.0
  0
VERTEX
  5
1D56
  8
0
 10
26.234840428603601
 20
120.91130200001381
 30
0.0
  0
VERTEX
  5
1D57
  8
0
 10
25.976490357295781
 20
120.5577544150739
 30
0.0
  0
VERTEX
  5
1D58
  8
0
 10
25.695162394226202
 20
120.19955863333399
 30
0.0
  0
VERTEX
  5
1D59
  8
0
 10
25.390852769263859
 20
119.83718840524079
 30
0.0
  0
VERTEX
  5
1D5A
  8
0
 10
25.230096916540649
 20
119.65458731369461
 30
0.0
  0
VERTEX
  5
1D5B
  8
0
 10
25.063626504789379
 20
119.4711250640751
 30
0.0
  0
VERTEX
  5
1D5C
  8
0
 10
24.71362932060325
 20
119.101871853555
 30
0.0
  0
VERTEX
  5
1D5D
  8
0
 10
24.34108149080518
 20
118.7299458218739
 30
0.0
  0
VERTEX
  5
1D5E
  8
0
 10
24.146439414527318
 20
118.5431449120934
 30
0.0
  0
SEQEND
  5
1D5F
  8
0
  0
POLYLINE
  5
811
  8
0
 66
     1
 10
0.0
 20
0.0
 30
0.0
  0
VERTEX
  5
1D60
  8
0
 10
27.032273979297031
 20
127.1345853679103
 30
0.0
  0
VERTEX
  5
1D61
  8
0
 10
27.030671266342662
 20
127.12192017130781
 30
0.0
  0
VERTEX
  5
1D62
  8
0
 10
27.028350331999981
 20
127.0966330256458
 30
0.0
  0
VERTEX
  5
1D63
  8
0
 10
27.027196976972899
 20
127.0714106481378
 30
0.0
  0
VERTEX
  5
1D64
  8
0
 10
27.0270535264412
 20
127.058826423092
 30
0.0
  0
SEQEND
  5
1D65
  8
0
  0
POLYLINE
  5
812
  8
0
 66
     1
 10
0.0
 20
0.0
 30
0.0
  0
VERTEX
  5
1D66
  8
0
 10
27.0270535264412
 20
127.058826423092
 30
0.0
  0
VERTEX
  5
1D67
  8
0
 10
27.029401527779079
 20
127.0078202901397
 30
0.0
  0
VERTEX
  5
1D68
  8
0
 10
27.048509089050238
 20
126.90425736171331
 30
0.0
  0
VERTEX
  5
1D69
  8
0
 10
27.087428998585239
 20
126.79904860912519
 30
0.0
  0
VERTEX
  5
1D6A
  8
0
 10
27.114488539348539
 20
126.7459870170174
 30
0.0
  0
SEQEND
  5
1D6B
  8
0
  0
POLYLINE
  5
813
  8
0
 66
     1
 10
0.0
 20
0.0
 30
0.0
  0
VERTEX
  5
1D6C
  8
0
 10
28.581120931067289
 20
134.6739479092727
 30
0.0
  0
VERTEX
  5
1D6D
  8
0
 10
28.320206347507419
 20
133.9052648880909
 30
0.0
  0
VERTEX
  5
1D6E
  8
0
 10
27.801129382647279
 20
131.77986574709399
 30
0.0
  0
VERTEX
  5
1D6F
  8
0
 10
27.287003344937322
 20
128.87591579307741
 30
0.0
  0
VERTEX
  5
1D70
  8
0
 10
27.032273979297031
 20
127.1345853679103
 30
0.0
  0
SEQEND
  5
1D71
  8
0
  0
POLYLINE
  5
814
  8
0
 66
     1
 10
0.0
 20
0.0
 30
0.0
  0
VERTEX
  5
1D72
  8
0
 10
29.680178441694569
 20
134.95920781078911
 30
0.0
  0
VERTEX
  5
1D73
  8
0
 10
29.622234023974109
 20
134.9528781805293
 30
0.0
  0
VERTEX
  5
1D74
  8
0
 10
29.51011064852986
 20
134.9398446835043
 30
0.0
  0
VERTEX
  5
1D75
  8
0
 10
29.403301314781029
 20
134.92632578451671
 30
0.0
  0
VERTEX
  5
1D76
  8
0
 10
29.351991626916401
 20
134.91938985428291
 30
0.0
  0
VERTEX
  5
1D77
  8
0
 10
29.30212985164701
 20
134.91233959401461
 30
0.0
  0
VERTEX
  5
1D78
  8
0
 10
29.206892828894009
 20
134.897907082682
 30
0.0
  0
VERTEX
  5
1D79
  8
0
 10
29.11785565988842
 20
134.88305179337459
 30
0.0
  0
VERTEX
  5
1D7A
  8
0
 10
29.035249478854411
 20
134.867799465639
 30
0.0
  0
VERTEX
  5
1D7B
  8
0
 10
28.959263013948551
 20
134.85217628854181
 30
0.0
  0
VERTEX
  5
1D7C
  8
0
 10
28.890028882428989
 20
134.83620447396831
 30
0.0
  0
VERTEX
  5
1D7D
  8
0
 10
28.857987003676008
 20
134.8280971563002
 30
0.0
  0
VERTEX
  5
1D7E
  8
0
 10
28.827681882444441
 20
134.8199144224713
 30
0.0
  0
VERTEX
  5
1D7F
  8
0
 10
28.77232887607752
 20
134.80334023180311
 30
0.0
  0
VERTEX
  5
1D80
  8
0
 10
28.724040987084269
 20
134.78651830976469
 30
0.0
  0
VERTEX
  5
1D81
  8
0
 10
28.682851722580239
 20
134.7694868745499
 30
0.0
  0
VERTEX
  5
1D82
  8
0
 10
28.648756340338419
 20
134.7522855018351
 30
0.0
  0
VERTEX
  5
1D83
  8
0
 10
28.621713575867229
 20
134.73495576449781
 30
0.0
  0
VERTEX
  5
1D84
  8
0
 10
28.610814086687871
 20
134.726256492792
 30
0.0
  0
VERTEX
  5
1D85
  8
0
 10
28.601645527615968
 20
134.7175419093052
 30
0.0
  0
VERTEX
  5
1D86
  8
0
 10
28.588435115909679
 20
134.70009039521531
 30
0.0
  0
VERTEX
  5
1D87
  8
0
 10
28.581924466666671
 20
134.6826492775381
 30
0.0
  0
VERTEX
  5
1D88
  8
0
 10
28.581120931067289
 20
134.6739479092727
 30
0.0
  0
SEQEND
  5
1D89
  8
0
  0
LINE
  5
815
  8
0
 10
38.482063420439999
 20
134.95920781078911
 30
0.0
 11
29.680178441694569
 21
134.95920781078911
 31
0.0
  0
POLYLINE
  5
816
  8
0
 66
     1
 10
0.0
 20
0.0
 30
0.0
  0
VERTEX
  5
1D8A
  8
0
 10
39.581120931067289
 20
134.6739479092727
 30
0.0
  0
VERTEX
  5
1D8B
  8
0
 10
39.580317344506241
 20
134.68264955290951
 30
0.0
  0
VERTEX
  5
1D8C
  8
0
 10
39.573806416123233
 20
134.70009098130009
 30
0.0
  0
VERTEX
  5
1D8D
  8
0
 10
39.560595739633712
 20
134.7175425336938
 30
0.0
  0
VERTEX
  5
1D8E
  8
0
 10
39.551427131681791
 20
134.7262570516074
 30
0.0
  0
VERTEX
  5
1D8F
  8
0
 10
39.540527682554263
 20
134.7349562102267
 30
0.0
  0
VERTEX
  5
1D90
  8
0
 10
39.513485340218963
 20
134.75228560446629
 30
0.0
  0
VERTEX
  5
1D91
  8
0
 10
39.479390922872732
 20
134.76948651818839
 30
0.0
  0
VERTEX
  5
1D92
  8
0
 10
39.438203215061087
 20
134.78651742413379
 30
0.0
  0
VERTEX
  5
1D93
  8
0
 10
39.389917442780082
 20
134.8033387954145
 30
0.0
  0
VERTEX
  5
1D94
  8
0
 10
39.334567008049412
 20
134.8199124597879
 30
0.0
  0
VERTEX
  5
1D95
  8
0
 10
39.30426329286383
 20
134.82809495250109
 30
0.0
  0
VERTEX
  5
1D96
  8
0
 10
39.272222866255802
 20
134.83620204984041
 30
0.0
  0
VERTEX
  5
1D97
  8
0
 10
39.202991656659279
 20
134.85217350193531
 30
0.0
  0
VERTEX
  5
1D98
  8
0
 10
39.12700809877478
 20
134.8677964062592
 30
0.0
  0
VERTEX
  5
1D99
  8
0
 10
39.044404519926417
 20
134.88304858065251
 30
0.0
  0
VERTEX
  5
1D9A
  8
0
 10
38.955368968293072
 20
134.8979039147859
 30
0.0
  0
VERTEX
  5
1D9B
  8
0
 10
38.860132051976947
 20
134.9123366947745
 30
0.0
  0
VERTEX
  5
1D9C
  8
0
 10
38.810269587090417
 20
134.91938717916949
 30
0.0
  0
VERTEX
  5
1D9D
  8
0
 10
38.758958616448368
 20
134.9263233955165
 30
0.0
  0
VERTEX
  5
1D9E
  8
0
 10
38.652144637035349
 20
134.9398430559811
 30
0.0
  0
VERTEX
  5
1D9F
  8
0
 10
38.540013313869402
 20
134.95287756997701
 30
0.0
  0
VERTEX
  5
1DA0
  8
0
 10
38.482063420439992
 20
134.95920781078911
 30
0.0
  0
SEQEND
  5
1DA1
  8
0
  0
POLYLINE
  5
817
  8
0
 66
     1
 10
0.0
 20
0.0
 30
0.0
  0
VERTEX
  5
1DA2
  8
0
 10
41.129967882837519
 20
127.1345853679103
 30
0.0
  0
VERTEX
  5
1DA3
  8
0
 10
40.875238517197239
 20
128.87591579307741
 30
0.0
  0
VERTEX
  5
1DA4
  8
0
 10
40.361112479487289
 20
131.77986574709399
 30
0.0
  0
VERTEX
  5
1DA5
  8
0
 10
39.842035514627142
 20
133.9052648880909
 30
0.0
  0
VERTEX
  5
1DA6
  8
0
 10
39.581120931067289
 20
134.6739479092727
 30
0.0
  0
SEQEND
  5
1DA7
  8
0
  0
POLYLINE
  5
818
  8
0
 66
     1
 10
0.0
 20
0.0
 30
0.0
  0
VERTEX
  5
1DA8
  8
0
 10
41.04775332278605
 20
126.7459870170174
 30
0.0
  0
VERTEX
  5
1DA9
  8
0
 10
41.074812863549347
 20
126.79904860912519
 30
0.0
  0
VERTEX
  5
1DAA
  8
0
 10
41.113732773084323
 20
126.90425736171321
 30
0.0
  0
VERTEX
  5
1DAB
  8
0
 10
41.132840334355521
 20
127.0078202901397
 30
0.0
  0
VERTEX
  5
1DAC
  8
0
 10
41.135188335693371
 20
127.0588264230919
 30
0.0
  0
SEQEND
  5
1DAD
  8
0
  0
POLYLINE
  5
819
  8
0
 66
     1
 10
0.0
 20
0.0
 30
0.0
  0
VERTEX
  5
1DAE
  8
0
 10
41.135188335693371
 20
127.0588264230919
 30
0.0
  0
VERTEX
  5
1DAF
  8
0
 10
41.135044885161662
 20
127.0714106481378
 30
0.0
  0
VERTEX
  5
1DB0
  8
0
 10
41.133891530134598
 20
127.0966330256457
 30
0.0
  0
VERTEX
  5
1DB1
  8
0
 10
41.131570595791921
 20
127.12192017130781
 30
0.0
  0
VERTEX
  5
1DB2
  8
0
 10
41.129967882837519
 20
127.1345853679103
 30
0.0
  0
SEQEND
  5
1DB3
  8
0
  0
POLYLINE
  5
81A
  8
0
 66
     1
 10
0.0
 20
0.0
 30
0.0
  0
VERTEX
  5
1DB4
  8
0
 10
44.0158024476072
 20
118.5431449120934
 30
0.0
  0
VERTEX
  5
1DB5
  8
0
 10
43.821160371332262
 20
118.729945821871
 30
0.0
  0
VERTEX
  5
1DB6
  8
0
 10
43.448612541534487
 20
119.1018718535517
 30
0.0
  0
VERTEX
  5
1DB7
  8
0
 10
43.09861535734796
 20
119.471125064072
 30
0.0
  0
VERTEX
  5
1DB8
  8
0
 10
42.932144945596526
 20
119.65458731369159
 30
0.0
  0
VERTEX
  5
1DB9
  8
0
 10
42.77138909287315
 20
119.8371884052379
 30
0.0
  0
VERTEX
  5
1DBA
  8
0
 10
42.467079467910473
 20
120.19955863333131
 30
0.0
  0
VERTEX
  5
1DBB
  8
0
 10
42.18575150484056
 20
120.5577544150714
 30
0.0
  0
VERTEX
  5
1DBC
  8
0
 10
41.927401433532452
 20
120.9113020000116
 30
0.0
  0
VERTEX
  5
1DBD
  8
0
 10
41.691950848729903
 20
121.2597404907338
 30
0.0
  0
VERTEX
  5
1DBE
  8
0
 10
41.479242764091552
 20
121.6026263279613
 30
0.0
  0
VERTEX
  5
1DBF
  8
0
 10
41.381346603323529
 20
121.77185303396929
 30
0.0
  0
VERTEX
  5
1DC0
  8
0
 10
41.289041624089599
 20
121.9395327490065
 30
0.0
  0
VERTEX
  5
1DC1
  8
0
 10
41.121033070957751
 20
122.27004904701801
 30
0.0
  0
VERTEX
  5
1DC2
  8
0
 10
40.974270133451682
 20
122.5950879456786
 30
0.0
  0
VERTEX
  5
1DC3
  8
0
 10
40.84631366781646
 20
122.92028226233499
 30
0.0
  0
VERTEX
  5
1DC4
  8
0
 10
40.737759528280179
 20
123.2457856625322
 30
0.0
  0
VERTEX
  5
1DC5
  8
0
 10
40.649495783354958
 20
123.5709810975676
 30
0.0
  0
VERTEX
  5
1DC6
  8
0
 10
40.613226407507
 20
123.73327606803259
 30
0.0
  0
VERTEX
  5
1DC7
  8
0
 10
40.582322985908903
 20
123.8952718202226
 30
0.0
  0
VERTEX
  5
1DC8
  8
0
 10
40.536953754991842
 20
124.2180807363108
 30
0.0
  0
VERTEX
  5
1DC9
  8
0
 10
40.514011618252347
 20
124.5388516069857
 30
0.0
  0
VERTEX
  5
1DCA
  8
0
 10
40.511120931067254
 20
124.69830667695879
 30
0.0
  0
SEQEND
  5
1DCB
  8
0
  0
POLYLINE
  5
81B
  8
0
 66
     1
 10
0.0
 20
0.0
 30
0.0
  0
VERTEX
  5
1DCC
  8
0
 10
40.511120931067254
 20
124.69830667695879
 30
0.0
  0
VERTEX
  5
1DCD
  8
0
 10
40.525718579337479
 20
125.0522021856096
 30
0.0
  0
VERTEX
  5
1DCE
  8
0
 10
40.643935827962999
 20
125.7466919053858
 30
0.0
  0
VERTEX
  5
1DCF
  8
0
 10
40.882837197799567
 20
126.41928770183149
 30
0.0
  0
VERTEX
  5
1DD0
  8
0
 10
41.047753322786008
 20
126.7459870170174
 30
0.0
  0
SEQEND
  5
1DD1
  8
0
  0
POLYLINE
  5
81C
  8
0
 66
     1
 10
0.0
 20
0.0
 30
0.0
  0
VERTEX
  5
1DD2
  8
0
 10
42.118861929761721
 20
113.5626343694686
 30
0.0
  0
VERTEX
  5
1DD3
  8
0
 10
42.279672749722991
 20
113.6393123231698
 30
0.0
  0
VERTEX
  5
1DD4
  8
0
 10
42.58864949665022
 20
113.79611733631251
 30
0.0
  0
VERTEX
  5
1DD5
  8
0
 10
42.879950042014421
 20
113.9568636400969
 30
0.0
  0
VERTEX
  5
1DD6
  8
0
 10
43.018705155255212
 20
114.03845717310379
 30
0.0
  0
VERTEX
  5
1DD7
  8
0
 10
43.152744640224753
 20
114.1207224640513
 30
0.0
  0
VERTEX
  5
1DD8
  8
0
 10
43.406395779583121
 20
114.2868345025135
 30
0.0
  0
VERTEX
  5
1DD9
  8
0
 10
43.64045300665066
 20
114.454311085882
 30
0.0
  0
VERTEX
  5
1DDA
  8
0
 10
43.854637783027727
 20
114.6222242328368
 30
0.0
  0
VERTEX
  5
1DDB
  8
0
 10
44.048863204498581
 20
114.7896193011737
 30
0.0
  0
VERTEX
  5
1DDC
  8
0
 10
44.226553686007144
 20
114.9588436985135
 30
0.0
  0
VERTEX
  5
1DDD
  8
0
 10
44.310299491566617
 20
115.0452492353883
 30
0.0
  0
VERTEX
  5
1DDE
  8
0
 10
44.39040910232066
 20
115.1327418256791
 30
0.0
  0
VERTEX
  5
1DDF
  8
0
 10
44.539075021915991
 20
115.3106522194784
 30
0.0
  0
VERTEX
  5
1DE0
  8
0
 10
44.671377673359778
 20
115.49189552745869
 30
0.0
  0
VERTEX
  5
1DE1
  8
0
 10
44.786330324102352
 20
115.67578986661999
 30
0.0
  0
VERTEX
  5
1DE2
  8
0
 10
44.883124191657302
 20
115.8616476512118
 30
0.0
  0
VERTEX
  5
1DE3
  8
0
 10
44.961122686482497
 20
116.04876815252339
 30
0.0
  0
VERTEX
  5
1DE4
  8
0
 10
44.992923520179851
 20
116.1425821110268
 30
0.0
  0
VERTEX
  5
1DE5
  8
0
 10
45.019868040305113
 20
116.2364489790359
 30
0.0
  0
VERTEX
  5
1DE6
  8
0
 10
45.059088814497919
 20
116.424031323655
 30
0.0
  0
VERTEX
  5
1DE7
  8
0
 10
45.078678803916787
 20
116.6108901730276
 30
0.0
  0
VERTEX
  5
1DE8
  8
0
 10
45.081120931067268
 20
116.7038347963236
 30
0.0
  0
SEQEND
  5
1DE9
  8
0
  0
POLYLINE
  5
81D
  8
0
 66
     1
 10
0.0
 20
0.0
 30
0.0
  0
VERTEX
  5
1DEA
  8
0
 10
45.081120931067268
 20
116.7038347963236
 30
0.0
  0
VERTEX
  5
1DEB
  8
0
 10
45.080251676085538
 20
116.7591683588041
 30
0.0
  0
VERTEX
  5
1DEC
  8
0
 10
45.073320774594649
 20
116.8692960906268
 30
0.0
  0
VERTEX
  5
1DED
  8
0
 10
45.059530384063123
 20
116.9785869421834
 30
0.0
  0
VERTEX
  5
1DEE
  8
0
 10
45.050092250233277
 20
117.0328752306734
 30
0.0
  0
VERTEX
  5
1DEF
  8
0
 10
45.038977375325992
 20
117.0869028300458
 30
0.0
  0
VERTEX
  5
1DF0
  8
0
 10
45.011781858394329
 20
117.1941087925276
 30
0.0
  0
VERTEX
  5
1DF1
  8
0
 10
44.978087953153533
 20
117.3000706227337
 30
0.0
  0
VERTEX
  5
1DF2
  8
0
 10
44.938064492877373
 20
117.4046550375389
 30
0.0
  0
VERTEX
  5
1DF3
  8
0
 10
44.891905314868012
 20
117.5077307166455
 30
0.0
  0
VERTEX
  5
1DF4
  8
0
 10
44.839829228392972
 20
117.60916929719799
 30
0.0
  0
VERTEX
  5
1DF5
  8
0
 10
44.81164746996113
 20
117.6592356062613
 30
0.0
  0
VERTEX
  5
1DF6
  8
0
 10
44.78207965931486
 20
117.7088463280359
 30
0.0
  0
VERTEX
  5
1DF7
  8
0
 10
44.718418168478671
 20
117.80738653716971
 30
0.0
  0
VERTEX
  5
1DF8
  8
0
 10
44.647865660298621
 20
117.90617032801789
 30
0.0
  0
VERTEX
  5
1DF9
  8
0
 10
44.570287877058391
 20
118.00506232512539
 30
0.0
  0
VERTEX
  5
1DFA
  8
0
 10
44.485606042758008
 20
118.1038834852024
 30
0.0
  0
VERTEX
  5
1DFB
  8
0
 10
44.393767724817771
 20
118.20245891961279
 30
0.0
  0
VERTEX
  5
1DFC
  8
0
 10
44.345155494611262
 20
118.2516012295045
 30
0.0
  0
VERTEX
  5
1DFD
  8
0
 10
44.294745955133088
 20
118.300618934665
 30
0.0
  0
VERTEX
  5
1DFE
  8
0
 10
44.188537924260601
 20
118.3982000619789
 30
0.0
  0
VERTEX
  5
1DFF
  8
0
 10
44.075163587592172
 20
118.4950457680237
 30
0.0
  0
VERTEX
  5
1E00
  8
0
 10
44.0158024476072
 20
118.5431449120934
 30
0.0
  0
SEQEND
  5
1E01
  8
0
  0
LINE
  5
81F
  8
0
 10
26.381120931067301
 20
80.661404751256185
 30
0.0
 11
41.781120931067292
 21
80.661404751256185
 31
0.0
  0
LINE
  5
822
  8
0
 10
26.081120931067289
 20
80.961404751256183
 30
0.0
 11
42.081120931067289
 21
80.961404751256183
 31
0.0
  0
LINE
  5
833
  8
1
 10
90.790896546623514
 20
176.57671725371119
 30
0.0
 11
185.30091633801979
 21
176.57671725371119
 31
0.0
  0
LINE
  5
834
  8
1
 10
103.2908965466235
 20
163.58101879045009
 30
0.0
 11
103.2908965466235
 21
189.5724157169721
 31
0.0
  0
LINE
  5
835
  8
0
 10
92.790896546623514
 20
173.33019603862559
 30
0.0
 11
92.790896546623514
 21
179.82323846879649
 31
0.0
  0
POLYLINE
  5
836
  8
0
 66
     1
 10
0.0
 20
0.0
 30
0.0
  0
VERTEX
  5
1E02
  8
0
 10
181.0996395201262
 20
172.17577476433851
 30
0.0
  0
VERTEX
  5
1E03
  8
0
 10
181.1418117143113
 20
172.20770296644761
 30
0.0
  0
VERTEX
  5
1E04
  8
0
 10
181.2250534893731
 20
172.27263207432409
 30
0.0
  0
VERTEX
  5
1E05
  8
0
 10
181.306533421475
 20
172.3387330510881
 30
0.0
  0
VERTEX
  5
1E06
  8
0
 10
181.34650642519759
 20
172.37211851079189
 30
0.0
  0
VERTEX
  5
1E07
  8
0
 10
181.38591370511571
 20
172.40566798844031
 30
0.0
  0
VERTEX
  5
1E08
  8
0
 10
181.46287619666589
 20
172.47307191783301
 30
0.0
  0
VERTEX
  5
1E09
  8
0
 10
181.537126854371
 20
172.540557805985
 30
0.0
  0
VERTEX
  5
1E0A
  8
0
 10
181.60852288222841
 20
172.60784062569559
 30
0.0
  0
VERTEX
  5
1E0B
  8
0
 10
181.67815363202399
 20
172.6758356233984
 30
0.0
  0
VERTEX
  5
1E0C
  8
0
 10
181.74633258096279
 20
172.7448072209811
 30
0.0
  0
VERTEX
  5
1E0D
  8
0
 10
181.7798784066114
 20
172.77965215578519
 30
0.0
  0
VERTEX
  5
1E0E
  8
0
 10
181.81306220010541
 20
172.81473283468179
 30
0.0
  0
VERTEX
  5
1E0F
  8
0
 10
181.87834473438039
 20
172.8855905590342
 30
0.0
  0
VERTEX
  5
1E10
  8
0
 10
181.94218187227759
 20
172.95735876752559
 30
0.0
  0
VERTEX
  5
1E11
  8
0
 10
182.004574540981
 20
173.03001578336509
 30
0.0
  0
VERTEX
  5
1E12
  8
0
 10
182.06552280469839
 20
173.10353961947791
 30
0.0
  0
VERTEX
  5
1E13
  8
0
 10
182.12502584551311
 20
173.17790778472281
 30
0.0
  0
VERTEX
  5
1E14
  8
0
 10
182.15423492049209
 20
173.2154012907879
 30
0.0
  0
VERTEX
  5
1E15
  8
0
 10
182.18308200809369
 20
173.25309715188251
 30
0.0
  0
VERTEX
  5
1E16
  8
0
 10
182.23968889181339
 20
173.32908388211831
 30
0.0
  0
VERTEX
  5
1E17
  8
0
 10
182.29484347609809
 20
173.40584340017091
 30
0.0
  0
VERTEX
  5
1E18
  8
0
 10
182.3218750783129
 20
173.44450507762809
 30
0.0
  0
VERTEX
  5
1E19
  8
0
 10
182.34854227719231
 20
173.48335042948241
 30
0.0
  0
VERTEX
  5
1E1A
  8
0
 10
182.4007818846037
 20
173.56157963207019
 30
0.0
  0
VERTEX
  5
1E1B
  8
0
 10
182.45155922317841
 20
173.64050597573771
 30
0.0
  0
VERTEX
  5
1E1C
  8
0
 10
182.47639857527699
 20
173.68022268612481
 30
0.0
  0
VERTEX
  5
1E1D
  8
0
 10
182.50087120416609
 20
173.7201041860281
 30
0.0
  0
VERTEX
  5
1E1E
  8
0
 10
182.54871479971351
 20
173.8003487919205
 30
0.0
  0
VERTEX
  5
1E1F
  8
0
 10
182.5950871460588
 20
173.8812142401186
 30
0.0
  0
VERTEX
  5
1E20
  8
0
 10
182.63998563928371
 20
173.96267502886161
 30
0.0
  0
VERTEX
  5
1E21
  8
0
 10
182.68340802095051
 20
174.04470585897661
 30
0.0
  0
VERTEX
  5
1E22
  8
0
 10
182.7253524514754
 20
174.12728180014841
 30
0.0
  0
VERTEX
  5
1E23
  8
0
 10
182.74576998964159
 20
174.1687665414801
 30
0.0
  0
VERTEX
  5
1E24
  8
0
 10
182.76581756949651
 20
174.21037847056269
 30
0.0
  0
VERTEX
  5
1E25
  8
0
 10
182.8048025357761
 20
174.29397222815041
 30
0.0
  0
VERTEX
  5
1E26
  8
0
 10
182.84230706036681
 20
174.37804037160259
 30
0.0
  0
VERTEX
  5
1E27
  8
0
 10
182.87832981403849
 20
174.46255751165151
 30
0.0
  0
VERTEX
  5
1E28
  8
0
 10
182.9128611131961
 20
174.5474764424458
 30
0.0
  0
VERTEX
  5
1E29
  8
0
 10
182.9459042936021
 20
174.63277916736951
 30
0.0
  0
VERTEX
  5
1E2A
  8
0
 10
182.9618697503355
 20
174.67557139119381
 30
0.0
  0
VERTEX
  5
1E2B
  8
0
 10
182.97746545913691
 20
174.7184561595698
 30
0.0
  0
VERTEX
  5
1E2C
  8
0
 10
183.00755060868261
 20
174.8045001456677
 30
0.0
  0
VERTEX
  5
1E2D
  8
0
 10
183.03616557473291
 20
174.89090640924559
 30
0.0
  0
VERTEX
  5
1E2E
  8
0
 10
183.06331591634131
 20
174.97767304631151
 30
0.0
  0
VERTEX
  5
1E2F
  8
0
 10
183.08900678781751
 20
175.06480122529589
 30
0.0
  0
VERTEX
  5
1E30
  8
0
 10
183.11324295030531
 20
175.1522960774823
 30
0.0
  0
VERTEX
  5
1E31
  8
0
 10
183.12481687728041
 20
175.19618391010201
 30
0.0
  0
VERTEX
  5
1E32
  8
0
 10
183.1360286763929
 20
175.24016753226351
 30
0.0
  0
VERTEX
  5
1E33
  8
0
 10
183.15736745448771
 20
175.3284306627375
 30
0.0
  0
VERTEX
  5
1E34
  8
0
 10
183.1772615905665
 20
175.4171057177785
 30
0.0
  0
VERTEX
  5
1E35
  8
0
 10
183.19571160687829
 20
175.50621715298831
 30
0.0
  0
VERTEX
  5
1E36
  8
0
 10
183.21271509705591
 20
175.59578913341099
 30
0.0
  0
VERTEX
  5
1E37
  8
0
 10
183.2282682399231
 20
175.68585446810951
 30
0.0
  0
VERTEX
  5
1E38
  8
0
 10
183.2354992470726
 20
175.73108524848061
 30
0.0
  0
VERTEX
  5
1E39
  8
0
 10
183.24236531912041
 20
175.77645629755949
 30
0.0
  0
VERTEX
  5
1E3A
  8
0
 10
183.25499770607769
 20
175.867647058004
 30
0.0
  0
VERTEX
  5
1E3B
  8
0
 10
183.2661528732655
 20
175.95948692061091
 30
0.0
  0
VERTEX
  5
1E3C
  8
0
 10
183.27581344728969
 20
176.05204122910291
 30
0.0
  0
VERTEX
  5
1E3D
  8
0
 10
183.2839564363218
 20
176.14537719531029
 30
0.0
  0
VERTEX
  5
1E3E
  8
0
 10
183.29055275319359
 20
176.23956041533259
 30
0.0
  0
VERTEX
  5
1E3F
  8
0
 10
183.29326011719519
 20
176.2869890903292
 30
0.0
  0
VERTEX
  5
1E40
  8
0
 10
183.29556709787289
 20
176.33465211117181
 30
0.0
  0
VERTEX
  5
1E41
  8
0
 10
183.2989581482675
 20
176.43070826587751
 30
0.0
  0
VERTEX
  5
1E42
  8
0
 10
183.30067884449511
 20
176.52778182668229
 30
0.0
  0
VERTEX
  5
1E43
  8
0
 10
183.30089654662351
 20
176.57671725371119
 30
0.0
  0
VERTEX
  5
1E44
  8
0
 10
183.30067884449511
 20
176.62565268073999
 30
0.0
  0
VERTEX
  5
1E45
  8
0
 10
183.2989581482675
 20
176.72272624154471
 30
0.0
  0
VERTEX
  5
1E46
  8
0
 10
183.29556709787289
 20
176.81878239625041
 30
0.0
  0
VERTEX
  5
1E47
  8
0
 10
183.29326011719519
 20
176.8664454170931
 30
0.0
  0
VERTEX
  5
1E48
  8
0
 10
183.29055275319359
 20
176.9138740920898
 30
0.0
  0
VERTEX
  5
1E49
  8
0
 10
183.2839564363218
 20
177.00805731211199
 30
0.0
  0
VERTEX
  5
1E4A
  8
0
 10
183.27581344728969
 20
177.10139327831939
 30
0.0
  0
VERTEX
  5
1E4B
  8
0
 10
183.2661528732655
 20
177.19394758681139
 30
0.0
  0
VERTEX
  5
1E4C
  8
0
 10
183.25499770607769
 20
177.28578744941831
 30
0.0
  0
VERTEX
  5
1E4D
  8
0
 10
183.24236531912041
 20
177.37697820986281
 30
0.0
  0
VERTEX
  5
1E4E
  8
0
 10
183.2354992470726
 20
177.42234925894181
 30
0.0
  0
VERTEX
  5
1E4F
  8
0
 10
183.2282682399231
 20
177.46758003931279
 30
0.0
  0
VERTEX
  5
1E50
  8
0
 10
183.21271509705591
 20
177.5576453740112
 30
0.0
  0
VERTEX
  5
1E51
  8
0
 10
183.19571160687829
 20
177.64721735443399
 30
0.0
  0
VERTEX
  5
1E52
  8
0
 10
183.1772615905665
 20
177.73632878964361
 30
0.0
  0
VERTEX
  5
1E53
  8
0
 10
183.15736745448771
 20
177.8250038446848
 30
0.0
  0
VERTEX
  5
1E54
  8
0
 10
183.1360286763929
 20
177.9132669751589
 30
0.0
  0
VERTEX
  5
1E55
  8
0
 10
183.12481687728041
 20
177.9572505973203
 30
0.0
  0
VERTEX
  5
1E56
  8
0
 10
183.11324295030531
 20
178.00113842994
 30
0.0
  0
VERTEX
  5
1E57
  8
0
 10
183.08900678781751
 20
178.0886332821263
 30
0.0
  0
VERTEX
  5
1E58
  8
0
 10
183.06331591634131
 20
178.17576146111091
 30
0.0
  0
VERTEX
  5
1E59
  8
0
 10
183.03616557473291
 20
178.26252809817669
 30
0.0
  0
VERTEX
  5
1E5A
  8
0
 10
183.00755060868261
 20
178.34893436175469
 30
0.0
  0
VERTEX
  5
1E5B
  8
0
 10
182.97746545913691
 20
178.43497834785251
 30
0.0
  0
VERTEX
  5
1E5C
  8
0
 10
182.9618697503355
 20
178.47786311622849
 30
0.0
  0
VERTEX
  5
1E5D
  8
0
 10
182.9459042936021
 20
178.5206553400528
 30
0.0
  0
VERTEX
  5
1E5E
  8
0
 10
182.9128611131961
 20
178.60595806497651
 30
0.0
  0
VERTEX
  5
1E5F
  8
0
 10
182.87832981403849
 20
178.69087699577079
 30
0.0
  0
VERTEX
  5
1E60
  8
0
 10
182.84230706036681
 20
178.77539413581971
 30
0.0
  0
VERTEX
  5
1E61
  8
0
 10
182.8048025357761
 20
178.8594622792719
 30
0.0
  0
VERTEX
  5
1E62
  8
0
 10
182.76581756949651
 20
178.94305603685959
 30
0.0
  0
VERTEX
  5
1E63
  8
0
 10
182.74576998964159
 20
178.98466796594221
 30
0.0
  0
VERTEX
  5
1E64
  8
0
 10
182.7253524514754
 20
179.02615270727381
 30
0.0
  0
VERTEX
  5
1E65
  8
0
 10
182.68340802095051
 20
179.10872864844569
 30
0.0
  0
VERTEX
  5
1E66
  8
0
 10
182.63998563928371
 20
179.19075947856061
 30
0.0
  0
VERTEX
  5
1E67
  8
0
 10
182.5950871460588
 20
179.27222026730371
 30
0.0
  0
VERTEX
  5
1E68
  8
0
 10
182.54871479971351
 20
179.35308571550161
 30
0.0
  0
VERTEX
  5
1E69
  8
0
 10
182.50087120416609
 20
179.43333032139421
 30
0.0
  0
VERTEX
  5
1E6A
  8
0
 10
182.47639857527699
 20
179.47321182129741
 30
0.0
  0
VERTEX
  5
1E6B
  8
0
 10
182.45155922317841
 20
179.51292853168459
 30
0.0
  0
VERTEX
  5
1E6C
  8
0
 10
182.4007818846037
 20
179.59185487535211
 30
0.0
  0
VERTEX
  5
1E6D
  8
0
 10
182.34854227719231
 20
179.6700840779398
 30
0.0
  0
VERTEX
  5
1E6E
  8
0
 10
182.3218750783129
 20
179.70892942979421
 30
0.0
  0
VERTEX
  5
1E6F
  8
0
 10
182.29484347609809
 20
179.74759110725151
 30
0.0
  0
VERTEX
  5
1E70
  8
0
 10
182.23968889181339
 20
179.82435062530399
 30
0.0
  0
VERTEX
  5
1E71
  8
0
 10
182.18308200809369
 20
179.90033735553979
 30
0.0
  0
VERTEX
  5
1E72
  8
0
 10
182.15423492049209
 20
179.93803321663441
 30
0.0
  0
VERTEX
  5
1E73
  8
0
 10
182.12502584551311
 20
179.9755267226995
 30
0.0
  0
VERTEX
  5
1E74
  8
0
 10
182.06552280469839
 20
180.0498948879443
 30
0.0
  0
VERTEX
  5
1E75
  8
0
 10
182.004574540981
 20
180.12341872405719
 30
0.0
  0
VERTEX
  5
1E76
  8
0
 10
181.9421818722775
 20
180.1960757398964
 30
0.0
  0
VERTEX
  5
1E77
  8
0
 10
181.87834473438039
 20
180.2678439483881
 30
0.0
  0
VERTEX
  5
1E78
  8
0
 10
181.81306220010541
 20
180.33870167274051
 30
0.0
  0
VERTEX
  5
1E79
  8
0
 10
181.7798784066114
 20
180.37378235163709
 30
0.0
  0
VERTEX
  5
1E7A
  8
0
 10
181.74633258096279
 20
180.4086272864412
 30
0.0
  0
VERTEX
  5
1E7B
  8
0
 10
181.67815363202399
 20
180.47759888402391
 30
0.0
  0
VERTEX
  5
1E7C
  8
0
 10
181.60852288222841
 20
180.54559388172669
 30
0.0
  0
VERTEX
  5
1E7D
  8
0
 10
181.537126854371
 20
180.6128767014373
 30
0.0
  0
VERTEX
  5
1E7E
  8
0
 10
181.46287619666589
 20
180.68036258958921
 30
0.0
  0
VERTEX
  5
1E7F
  8
0
 10
181.38591370511571
 20
180.74776651898199
 30
0.0
  0
VERTEX
  5
1E80
  8
0
 10
181.34650642519759
 20
180.78131599663041
 30
0.0
  0
VERTEX
  5
1E81
  8
0
 10
181.306533421475
 20
180.81470145633401
 30
0.0
  0
VERTEX
  5
1E82
  8
0
 10
181.2250534893731
 20
180.88080243309821
 30
0.0
  0
VERTEX
  5
1E83
  8
0
 10
181.1418117143113
 20
180.94573154097469
 30
0.0
  0
VERTEX
  5
1E84
  8
0
 10
181.0996395201262
 20
180.9776597430839
 30
0.0
  0
SEQEND
  5
1E85
  8
0
  0
POLYLINE
  5
837
  8
0
 66
     1
 10
0.0
 20
0.0
 30
0.0
  0
VERTEX
  5
1E86
  8
0
 10
92.790896546623514
 20
173.33019603862559
 30
0.0
  0
VERTEX
  5
1E87
  8
0
 10
92.791018423594224
 20
173.329801511184
 30
0.0
  0
VERTEX
  5
1E88
  8
0
 10
92.791968660763644
 20
173.32672730145021
 30
0.0
  0
VERTEX
  5
1E89
  8
0
 10
92.793809385054885
 20
173.32078123173531
 30
0.0
  0
VERTEX
  5
1E8A
  8
0
 10
92.795045991190548
 20
173.3167933118209
 30
0.0
  0
VERTEX
  5
1E8B
  8
0
 10
92.796484847718148
 20
173.31215987790969
 30
0.0
  0
VERTEX
  5
1E8C
  8
0
 10
92.799946038161664
 20
173.30104351860959
 30
0.0
  0
VERTEX
  5
1E8D
  8
0
 10
92.804150231348984
 20
173.28759627801409
 30
0.0
  0
VERTEX
  5
1E8E
  8
0
 10
92.809060308212011
 20
173.2719672864132
 30
0.0
  0
VERTEX
  5
1E8F
  8
0
 10
92.814643943508145
 20
173.25429248501339
 30
0.0
  0
VERTEX
  5
1E90
  8
0
 10
92.820872760735639
 20
173.23469669015611
 30
0.0
  0
VERTEX
  5
1E91
  8
0
 10
92.824221167510984
 20
173.2242147554723
 30
0.0
  0
VERTEX
  5
1E92
  8
0
 10
92.827721791503734
 20
173.21329480793921
 30
0.0
  0
VERTEX
  5
1E93
  8
0
 10
92.835169750216465
 20
173.1901906226382
 30
0.0
  0
VERTEX
  5
1E94
  8
0
 10
92.843198901441042
 20
173.16547701562399
 30
0.0
  0
VERTEX
  5
1E95
  8
0
 10
92.851794657067074
 20
173.139237115344
 30
0.0
  0
VERTEX
  5
1E96
  8
0
 10
92.860945151419131
 20
173.11154556016271
 30
0.0
  0
VERTEX
  5
1E97
  8
0
 10
92.870640819494994
 20
173.08246977153379
 30
0.0
  0
VERTEX
  5
1E98
  8
0
 10
92.875690635567707
 20
173.0674321823488
 30
0.0
  0
VERTEX
  5
1E99
  8
0
 10
92.880874001494334
 20
173.05207114963201
 30
0.0
  0
VERTEX
  5
1E9A
  8
0
 10
92.891638585509398
 20
173.0204061454161
 30
0.0
  0
VERTEX
  5
1E9B
  8
0
 10
92.902924617292115
 20
172.9875418948248
 30
0.0
  0
VERTEX
  5
1E9C
  8
0
 10
92.908759804263781
 20
172.970681490148
 30
0.0
  0
VERTEX
  5
1E9D
  8
0
 10
92.914722216985851
 20
172.95354422522129
 30
0.0
  0
VERTEX
  5
1E9E
  8
0
 10
92.927026488968082
 20
172.9184635682924
 30
0.0
  0
VERTEX
  5
1E9F
  8
0
 10
92.939833608499512
 20
172.8823465641033
 30
0.0
  0
VERTEX
  5
1EA0
  8
0
 10
92.946424792461713
 20
172.8639130988619
 30
0.0
  0
VERTEX
  5
1EA1
  8
0
 10
92.953140655385894
 20
172.8452365803914
 30
0.0
  0
VERTEX
  5
1EA2
  8
0
 10
92.966945462068196
 20
172.8071741803376
 30
0.0
  0
VERTEX
  5
1EA3
  8
0
 10
92.981246477574075
 20
172.76819753440179
 30
0.0
  0
VERTEX
  5
1EA4
  8
0
 10
92.996042647913214
 20
172.72834277528071
 30
0.0
  0
VERTEX
  5
1EA5
  8
0
 10
93.011333323457009
 20
172.6876442695079
 30
0.0
  0
VERTEX
  5
1EA6
  8
0
 10
93.027118300617843
 20
172.6461345294957
 30
0.0
  0
VERTEX
  5
1EA7
  8
0
 10
93.035196221832777
 20
172.6250850793316
 30
0.0
  0
VERTEX
  5
1EA8
  8
0
 10
93.043397855500984
 20
172.60384416215399
 30
0.0
  0
VERTEX
  5
1EA9
  8
0
 10
93.060172672802622
 20
172.56080209771559
 30
0.0
  0
VERTEX
  5
1EAA
  8
0
 10
93.077443780814633
 20
172.51703579511431
 30
0.0
  0
VERTEX
  5
1EAB
  8
0
 10
93.141821836274076
 20
172.35851846399791
 30
0.0
  0
VERTEX
  5
1EAC
  8
0
 10
93.265919642206455
 20
172.07124962783519
 30
0.0
  0
VERTEX
  5
1EAD
  8
0
 10
93.406443289197156
 20
171.77049267129669
 30
0.0
  0
VERTEX
  5
1EAE
  8
0
 10
93.562357778635629
 20
171.46194818127029
 30
0.0
  0
VERTEX
  5
1EAF
  8
0
 10
93.645655807880075
 20
171.30639219002589
 30
0.0
  0
VERTEX
  5
1EB0
  8
0
 10
93.732228198512004
 20
171.15079926282249
 30
0.0
  0
VERTEX
  5
1EB1
  8
0
 10
93.914147111325917
 20
170.84182971872491
 30
0.0
  0
VERTEX
  5
1EB2
  8
0
 10
94.107145143236082
 20
170.5372690063368
 30
0.0
  0
VERTEX
  5
1EB3
  8
0
 10
94.317581397839206
 20
170.2284853000391
 30
0.0
  0
VERTEX
  5
1EB4
  8
0
 10
94.546457964201849
 20
169.91640156249881
 30
0.0
  0
VERTEX
  5
1EB5
  8
0
 10
94.793453267098158
 20
169.6036685054477
 30
0.0
  0
VERTEX
  5
1EB6
  8
0
 10
94.923592731049709
 20
169.4478477233036
 30
0.0
  0
VERTEX
  5
1EB7
  8
0
 10
95.058052553239307
 20
169.29279503414219
 30
0.0
  0
VERTEX
  5
1EB8
  8
0
 10
95.339523907189843
 20
168.98616090413589
 30
0.0
  0
VERTEX
  5
1EB9
  8
0
 10
95.636913482318022
 20
168.68600349701981
 30
0.0
  0
VERTEX
  5
1EBA
  8
0
 10
95.791254768355685
 20
168.53897625501659
 30
0.0
  0
SEQEND
  5
1EBB
  8
0
  0
POLYLINE
  5
838
  8
0
 66
     1
 10
0.0
 20
0.0
 30
0.0
  0
VERTEX
  5
1EBC
  8
0
 10
95.791254768355685
 20
184.61445825240571
 30
0.0
  0
VERTEX
  5
1EBD
  8
0
 10
95.636913482318022
 20
184.46743101040241
 30
0.0
  0
VERTEX
  5
1EBE
  8
0
 10
95.339523907189843
 20
184.16727360328639
 30
0.0
  0
VERTEX
  5
1EBF
  8
0
 10
95.058052553239307
 20
183.86063947328009
 30
0.0
  0
VERTEX
  5
1EC0
  8
0
 10
94.923592731049709
 20
183.70558678411871
 30
0.0
  0
VERTEX
  5
1EC1
  8
0
 10
94.793453267098158
 20
183.5497660019746
 30
0.0
  0
VERTEX
  5
1EC2
  8
0
 10
94.546457964201849
 20
183.23703294492341
 30
0.0
  0
VERTEX
  5
1EC3
  8
0
 10
94.317581397839206
 20
182.92494920738321
 30
0.0
  0
VERTEX
  5
1EC4
  8
0
 10
94.107145143236082
 20
182.61616550108531
 30
0.0
  0
VERTEX
  5
1EC5
  8
0
 10
93.914147111325917
 20
182.31160478869731
 30
0.0
  0
VERTEX
  5
1EC6
  8
0
 10
93.732228198512004
 20
182.0026352445997
 30
0.0
  0
VERTEX
  5
1EC7
  8
0
 10
93.645655807880075
 20
181.84704231739639
 30
0.0
  0
VERTEX
  5
1EC8
  8
0
 10
93.562357778635629
 20
181.6914863261521
 30
0.0
  0
VERTEX
  5
1EC9
  8
0
 10
93.406443289197156
 20
181.38294183612561
 30
0.0
  0
VERTEX
  5
1ECA
  8
0
 10
93.265919642206455
 20
181.08218487958709
 30
0.0
  0
VERTEX
  5
1ECB
  8
0
 10
93.141821836274076
 20
180.79491604342439
 30
0.0
  0
VERTEX
  5
1ECC
  8
0
 10
93.077443780814633
 20
180.63639871230799
 30
0.0
  0
VERTEX
  5
1ECD
  8
0
 10
93.060172672802622
 20
180.59263240970671
 30
0.0
  0
VERTEX
  5
1ECE
  8
0
 10
93.043397855500984
 20
180.5495903452684
 30
0.0
  0
VERTEX
  5
1ECF
  8
0
 10
93.035196221832777
 20
180.52834942809071
 30
0.0
  0
VERTEX
  5
1ED0
  8
0
 10
93.027118300617843
 20
180.50729997792661
 30
0.0
  0
VERTEX
  5
1ED1
  8
0
 10
93.011333323457009
 20
180.4657902379144
 30
0.0
  0
VERTEX
  5
1ED2
  8
0
 10
92.996042647913214
 20
180.4250917321416
 30
0.0
  0
VERTEX
  5
1ED3
  8
0
 10
92.981246477574075
 20
180.38523697302051
 30
0.0
  0
VERTEX
  5
1ED4
  8
0
 10
92.966945462068196
 20
180.34626032708471
 30
0.0
  0
VERTEX
  5
1ED5
  8
0
 10
92.953140655385894
 20
180.30819792703079
 30
0.0
  0
VERTEX
  5
1ED6
  8
0
 10
92.946424792461713
 20
180.2895214085604
 30
0.0
  0
VERTEX
  5
1ED7
  8
0
 10
92.939833608499512
 20
180.271087943319
 30
0.0
  0
VERTEX
  5
1ED8
  8
0
 10
92.927026488968082
 20
180.23497093912999
 30
0.0
  0
VERTEX
  5
1ED9
  8
0
 10
92.914722216985851
 20
180.19989028220101
 30
0.0
  0
VERTEX
  5
1EDA
  8
0
 10
92.908759804263781
 20
180.18275301727439
 30
0.0
  0
VERTEX
  5
1EDB
  8
0
 10
92.902924617292115
 20
180.16589261259739
 30
0.0
  0
VERTEX
  5
1EDC
  8
0
 10
92.891638585509398
 20
180.1330283620062
 30
0.0
  0
VERTEX
  5
1EDD
  8
0
 10
92.880874001494334
 20
180.10136335779029
 30
0.0
  0
VERTEX
  5
1EDE
  8
0
 10
92.875690635567707
 20
180.08600232507359
 30
0.0
  0
VERTEX
  5
1EDF
  8
0
 10
92.870640819494994
 20
180.07096473588851
 30
0.0
  0
VERTEX
  5
1EE0
  8
0
 10
92.860945151419131
 20
180.04188894725971
 30
0.0
  0
VERTEX
  5
1EE1
  8
0
 10
92.851794657067074
 20
180.0141973920783
 30
0.0
  0
VERTEX
  5
1EE2
  8
0
 10
92.843198901441042
 20
179.98795749179831
 30
0.0
  0
VERTEX
  5
1EE3
  8
0
 10
92.835169750216465
 20
179.96324388478411
 30
0.0
  0
VERTEX
  5
1EE4
  8
0
 10
92.827721791503734
 20
179.9401396994831
 30
0.0
  0
VERTEX
  5
1EE5
  8
0
 10
92.824221167510984
 20
179.92921975195
 30
0.0
  0
VERTEX
  5
1EE6
  8
0
 10
92.820872760735639
 20
179.91873781726619
 30
0.0
  0
VERTEX
  5
1EE7
  8
0
 10
92.814643943508145
 20
179.89914202240891
 30
0.0
  0
VERTEX
  5
1EE8
  8
0
 10
92.809060308212011
 20
179.8814672210091
 30
0.0
  0
VERTEX
  5
1EE9
  8
0
 10
92.804150231348984
 20
179.86583822940821
 30
0.0
  0
VERTEX
  5
1EEA
  8
0
 10
92.799946038161664
 20
179.8523909888128
 30
0.0
  0
VERTEX
  5
1EEB
  8
0
 10
92.796484847718148
 20
179.84127462951261
 30
0.0
  0
VERTEX
  5
1EEC
  8
0
 10
92.795045991190548
 20
179.8366411956014
 30
0.0
  0
VERTEX
  5
1EED
  8
0
 10
92.793809385054885
 20
179.83265327568699
 30
0.0
  0
VERTEX
  5
1EEE
  8
0
 10
92.791968660763644
 20
179.8267072059721
 30
0.0
  0
VERTEX
  5
1EEF
  8
0
 10
92.791018423594224
 20
179.8236329962383
 30
0.0
  0
VERTEX
  5
1EF0
  8
0
 10
92.790896546623514
 20
179.82323846879649
 30
0.0
  0
SEQEND
  5
1EF1
  8
0
  0
POLYLINE
  5
83B
  8
0
 66
     1
 10
0.0
 20
0.0
 30
0.0
  0
VERTEX
  5
1EF2
  8
0
 10
108.0234068075885
 20
186.51139877025111
 30
0.0
  0
VERTEX
  5
1EF3
  8
0
 10
107.68313104848779
 20
186.66611866165749
 30
0.0
  0
VERTEX
  5
1EF4
  8
0
 10
106.99708624853
 20
186.93713141954061
 30
0.0
  0
VERTEX
  5
1EF5
  8
0
 10
106.3106110686339
 20
187.15696387163081
 30
0.0
  0
VERTEX
  5
1EF6
  8
0
 10
105.96990492668959
 20
187.24800556708439
 30
0.0
  0
VERTEX
  5
1EF7
  8
0
 10
105.6289555353396
 20
187.327537750076
 30
0.0
  0
VERTEX
  5
1EF8
  8
0
 10
104.92812393544421
 20
187.45569381518371
 30
0.0
  0
VERTEX
  5
1EF9
  8
0
 10
104.2071133556685
 20
187.5393251138421
 30
0.0
  0
VERTEX
  5
1EFA
  8
0
 10
103.472826316076
 20
187.5753735422937
 30
0.0
  0
VERTEX
  5
1EFB
  8
0
 10
102.732191393804
 20
187.5620062553331
 30
0.0
  0
VERTEX
  5
1EFC
  8
0
 10
101.99216153623679
 20
187.49858580595929
 30
0.0
  0
VERTEX
  5
1EFD
  8
0
 10
101.62437357390399
 20
187.44820614539211
 30
0.0
  0
VERTEX
  5
1EFE
  8
0
 10
101.2591490965758
 20
187.38556859648691
 30
0.0
  0
VERTEX
  5
1EFF
  8
0
 10
100.5397390041306
 20
187.22453435514251
 30
0.0
  0
VERTEX
  5
1F00
  8
0
 10
99.840432572185122
 20
187.01823003115931
 30
0.0
  0
VERTEX
  5
1F01
  8
0
 10
99.167403914450105
 20
186.7705506180431
 30
0.0
  0
VERTEX
  5
1F02
  8
0
 10
98.525659676839311
 20
186.4861628909531
 30
0.0
  0
VERTEX
  5
1F03
  8
0
 10
97.894516510167691
 20
186.1564382779066
 30
0.0
  0
VERTEX
  5
1F04
  8
0
 10
97.580843025891724
 20
185.9725135328971
 30
0.0
  0
VERTEX
  5
1F05
  8
0
 10
97.269907899822954
 20
185.7760202676445
 30
0.0
  0
VERTEX
  5
1F06
  8
0
 10
96.660377128224425
 20
185.34618142513381
 30
0.0
  0
VERTEX
  5
1F07
  8
0
 10
96.073737174875433
 20
184.86937469360061
 30
0.0
  0
VERTEX
  5
1F08
  8
0
 10
95.7912547683556
 20
184.6144582524056
 30
0.0
  0
SEQEND
  5
1F09
  8
0
  0
POLYLINE
  5
83C
  8
0
 66
     1
 10
0.0
 20
0.0
 30
0.0
  0
VERTEX
  5
1F0A
  8
0
 10
133.48032515273201
 20
183.54334964542991
 30
0.0
  0
VERTEX
  5
1F0B
  8
0
 10
132.73832925364209
 20
183.4385205723282
 30
0.0
  0
VERTEX
  5
1F0C
  8
0
 10
131.25208810688099
 20
183.263110106548
 30
0.0
  0
VERTEX
  5
1F0D
  8
0
 10
129.76583814464189
 20
183.13341037403879
 30
0.0
  0
VERTEX
  5
1F0E
  8
0
 10
129.02390099181531
 20
183.08565151399009
 30
0.0
  0
VERTEX
  5
1F0F
  8
0
 10
128.28338905496091
 20
183.04921808841141
 30
0.0
  0
VERTEX
  5
1F10
  8
0
 10
126.8085406804325
 20
183.00999862468919
 30
0.0
  0
VERTEX
  5
1F11
  8
0
 10
125.3450868589357
 20
183.01488977699731
 30
0.0
  0
VERTEX
  5
1F12
  8
0
 10
123.89674974328059
 20
183.06270665339039
 30
0.0
  0
VERTEX
  5
1F13
  8
0
 10
122.4672501830441
 20
183.15194636135951
 30
0.0
  0
VERTEX
  5
1F14
  8
0
 10
121.06028655222779
 20
183.2807888950413
 30
0.0
  0
VERTEX
  5
1F15
  8
0
 10
120.3663974795341
 20
183.3594069616473
 30
0.0
  0
VERTEX
  5
1F16
  8
0
 10
119.6795075971086
 20
183.44710181078781
 30
0.0
  0
VERTEX
  5
1F17
  8
0
 10
118.3233756998134
 20
183.64928373066621
 30
0.0
  0
VERTEX
  5
1F18
  8
0
 10
116.9602564992564
 20
183.89178470879091
 30
0.0
  0
VERTEX
  5
1F19
  8
0
 10
115.5872805292281
 20
184.176450555581
 30
0.0
  0
VERTEX
  5
1F1A
  8
0
 10
114.2082136572766
 20
184.50393852720811
 30
0.0
  0
VERTEX
  5
1F1B
  8
0
 10
112.8267387413575
 20
184.87462678149711
 30
0.0
  0
VERTEX
  5
1F1C
  8
0
 10
112.1362268369159
 20
185.0762134037623
 30
0.0
  0
VERTEX
  5
1F1D
  8
0
 10
111.4464473494631
 20
185.2886195461725
 30
0.0
  0
VERTEX
  5
1F1E
  8
0
 10
110.07079355055259
 20
185.7457663456845
 30
0.0
  0
VERTEX
  5
1F1F
  8
0
 10
108.7031722018839
 20
186.24564198493971
 30
0.0
  0
VERTEX
  5
1F20
  8
0
 10
108.0234068075885
 20
186.51139877025111
 30
0.0
  0
SEQEND
  5
1F21
  8
0
  0
POLYLINE
  5
83D
  8
0
 66
     1
 10
0.0
 20
0.0
 30
0.0
  0
VERTEX
  5
1F22
  8
0
 10
134.94882910782511
 20
183.6255642054814
 30
0.0
  0
VERTEX
  5
1F23
  8
0
 10
134.70617977628191
 20
183.63065059369251
 30
0.0
  0
VERTEX
  5
1F24
  8
0
 10
134.2205771433438
 20
183.61871466423409
 30
0.0
  0
VERTEX
  5
1F25
  8
0
 10
133.72803067153129
 20
183.57632956954581
 30
0.0
  0
VERTEX
  5
1F26
  8
0
 10
133.48032515273201
 20
183.54334964542991
 30
0.0
  0
SEQEND
  5
1F27
  8
0
  0
LINE
  5
83E
  8
0
 10
177.80089654662351
 20
182.07671725371119
 30
0.0
 11
134.94882910782511
 21
183.6255642054814
 31
0.0
  0
POLYLINE
  5
83F
  8
0
 66
     1
 10
0.0
 20
0.0
 30
0.0
  0
VERTEX
  5
1F28
  8
0
 10
181.0996395201262
 20
180.9776597430839
 30
0.0
  0
VERTEX
  5
1F29
  8
0
 10
181.02088529656541
 20
181.0356041608043
 30
0.0
  0
VERTEX
  5
1F2A
  8
0
 10
180.8596323961105
 20
181.1477275362486
 30
0.0
  0
VERTEX
  5
1F2B
  8
0
 10
180.69364673243061
 20
181.25453686999731
 30
0.0
  0
VERTEX
  5
1F2C
  8
0
 10
180.6089805953338
 20
181.30584655786211
 30
0.0
  0
VERTEX
  5
1F2D
  8
0
 10
180.52325660047771
 20
181.3557083331313
 30
0.0
  0
VERTEX
  5
1F2E
  8
0
 10
180.3488173475873
 20
181.4509453558845
 30
0.0
  0
VERTEX
  5
1F2F
  8
0
 10
180.1707062115353
 20
181.53998252489001
 30
0.0
  0
VERTEX
  5
1F30
  8
0
 10
179.98931636186521
 20
181.6225887059239
 30
0.0
  0
VERTEX
  5
1F31
  8
0
 10
179.80503513385929
 20
181.69857517082991
 30
0.0
  0
VERTEX
  5
1F32
  8
0
 10
179.61819215894531
 20
181.76780930234941
 30
0.0
  0
VERTEX
  5
1F33
  8
0
 10
179.5239380367027
 20
181.79985118110241
 30
0.0
  0
VERTEX
  5
1F34
  8
0
 10
179.4292018504301
 20
181.83015630233399
 30
0.0
  0
VERTEX
  5
1F35
  8
0
 10
179.238508078602
 20
181.8855093087009
 30
0.0
  0
VERTEX
  5
1F36
  8
0
 10
179.04656683758131
 20
181.9337971976941
 30
0.0
  0
VERTEX
  5
1F37
  8
0
 10
178.85383982747979
 20
181.9749864621981
 30
0.0
  0
VERTEX
  5
1F38
  8
0
 10
178.6607889546579
 20
182.00908184444
 30
0.0
  0
VERTEX
  5
1F39
  8
0
 10
178.46788330060539
 20
182.03612460891111
 30
0.0
  0
VERTEX
  5
1F3A
  8
0
 10
178.37163556608471
 20
182.0470240980905
 30
0.0
  0
VERTEX
  5
1F3B
  8
0
 10
178.27560625051839
 20
182.05619265716251
 30
0.0
  0
VERTEX
  5
1F3C
  8
0
 10
178.0844499559949
 20
182.06940306886881
 30
0.0
  0
VERTEX
  5
1F3D
  8
0
 10
177.89490849226601
 20
182.07591371811171
 30
0.0
  0
VERTEX
  5
1F3E
  8
0
 10
177.80089654662339
 20
182.07671725371119
 30
0.0
  0
SEQEND
  5
1F3F
  8
0
  0
POLYLINE
  5
841
  8
0
 66
     1
 10
0.0
 20
0.0
 30
0.0
  0
VERTEX
  5
1F40
  8
0
 10
177.80089654662351
 20
171.07671725371119
 30
0.0
  0
VERTEX
  5
1F41
  8
0
 10
177.8949114732055
 20
171.07752084027209
 30
0.0
  0
VERTEX
  5
1F42
  8
0
 10
178.08445635029051
 20
171.08403176865519
 30
0.0
  0
VERTEX
  5
1F43
  8
0
 10
178.2756131171011
 20
171.0972424451447
 30
0.0
  0
VERTEX
  5
1F44
  8
0
 10
178.37164173628221
 20
171.10641105309659
 30
0.0
  0
VERTEX
  5
1F45
  8
0
 10
178.46788824208801
 20
171.1173105022242
 30
0.0
  0
VERTEX
  5
1F46
  8
0
 10
178.66079010176981
 20
171.14435284455951
 30
0.0
  0
VERTEX
  5
1F47
  8
0
 10
178.85383581152581
 20
171.17844726190569
 30
0.0
  0
VERTEX
  5
1F48
  8
0
 10
179.0465567741814
 20
171.21963496971739
 30
0.0
  0
VERTEX
  5
1F49
  8
0
 10
179.23849162077551
 20
171.26792074199841
 30
0.0
  0
VERTEX
  5
1F4A
  8
0
 10
179.42917917449901
 20
171.32327117672901
 30
0.0
  0
VERTEX
  5
1F4B
  8
0
 10
179.5239124688965
 20
171.3535748919146
 30
0.0
  0
VERTEX
  5
1F4C
  8
0
 10
179.6181639178383
 20
171.38561531852261
 30
0.0
  0
VERTEX
  5
1F4D
  8
0
 10
179.80500239969709
 20
171.45484652811919
 30
0.0
  0
VERTEX
  5
1F4E
  8
0
 10
179.98928012606399
 20
171.53083008600359
 30
0.0
  0
VERTEX
  5
1F4F
  8
0
 10
180.17066784709991
 20
171.61343366485201
 30
0.0
  0
VERTEX
  5
1F50
  8
0
 10
180.3487792110333
 20
171.7024692164853
 30
0.0
  0
VERTEX
  5
1F51
  8
0
 10
180.5232214181664
 20
171.79770613280141
 30
0.0
  0
VERTEX
  5
1F52
  8
0
 10
180.60894800434889
 20
171.847568597688
 30
0.0
  0
VERTEX
  5
1F53
  8
0
 10
180.69361751298521
 20
171.89887956832999
 30
0.0
  0
VERTEX
  5
1F54
  8
0
 10
180.85961233588509
 20
172.00569354774311
 30
0.0
  0
VERTEX
  5
1F55
  8
0
 10
181.02087771405121
 20
172.117824870909
 30
0.0
  0
VERTEX
  5
1F56
  8
0
 10
181.0996395201262
 20
172.17577476433851
 30
0.0
  0
SEQEND
  5
1F57
  8
0
  0
LINE
  5
842
  8
0
 10
134.94882910782511
 20
169.52787030194091
 30
0.0
 11
177.80089654662351
 21
171.07671725371119
 31
0.0
  0
POLYLINE
  5
843
  8
0
 66
     1
 10
0.0
 20
0.0
 30
0.0
  0
VERTEX
  5
1F58
  8
0
 10
133.48032515273201
 20
169.61008486199239
 30
0.0
  0
VERTEX
  5
1F59
  8
0
 10
133.72803067153129
 20
169.57710493787641
 30
0.0
  0
VERTEX
  5
1F5A
  8
0
 10
134.2205771433438
 20
169.53471984318821
 30
0.0
  0
VERTEX
  5
1F5B
  8
0
 10
134.70617977628191
 20
169.52278391372971
 30
0.0
  0
VERTEX
  5
1F5C
  8
0
 10
134.94882910782511
 20
169.52787030194091
 30
0.0
  0
SEQEND
  5
1F5D
  8
0
  0
POLYLINE
  5
844
  8
0
 66
     1
 10
0.0
 20
0.0
 30
0.0
  0
VERTEX
  5
1F5E
  8
0
 10
108.0234068075885
 20
166.64203573717131
 30
0.0
  0
VERTEX
  5
1F5F
  8
0
 10
108.70317220187449
 20
166.9077925224791
 30
0.0
  0
VERTEX
  5
1F60
  8
0
 10
110.0707935505437
 20
167.4076681617347
 30
0.0
  0
VERTEX
  5
1F61
  8
0
 10
111.4464473494547
 20
167.86481496124719
 30
0.0
  0
VERTEX
  5
1F62
  8
0
 10
112.1362268369078
 20
168.07722110365759
 30
0.0
  0
VERTEX
  5
1F63
  8
0
 10
112.8267387413496
 20
168.278807725923
 30
0.0
  0
VERTEX
  5
1F64
  8
0
 10
114.2082136572692
 20
168.64949598021241
 30
0.0
  0
VERTEX
  5
1F65
  8
0
 10
115.5872805292212
 20
168.97698395183991
 30
0.0
  0
VERTEX
  5
1F66
  8
0
 10
116.96025649925021
 20
169.2616497986302
 30
0.0
  0
VERTEX
  5
1F67
  8
0
 10
118.3233756998078
 20
169.5041507767553
 30
0.0
  0
VERTEX
  5
1F68
  8
0
 10
119.67950759710349
 20
169.70633269663381
 30
0.0
  0
VERTEX
  5
1F69
  8
0
 10
120.3663974795292
 20
169.79402754577461
 30
0.0
  0
VERTEX
  5
1F6A
  8
0
 10
121.0602865522232
 20
169.87264561238061
 30
0.0
  0
VERTEX
  5
1F6B
  8
0
 10
122.46725018303979
 20
170.00148814606251
 30
0.0
  0
VERTEX
  5
1F6C
  8
0
 10
123.896749743277
 20
170.0907278540318
 30
0.0
  0
VERTEX
  5
1F6D
  8
0
 10
125.3450868589325
 20
170.13854473042511
 30
0.0
  0
VERTEX
  5
1F6E
  8
0
 10
126.8085406804299
 20
170.1434358827332
 30
0.0
  0
VERTEX
  5
1F6F
  8
0
 10
128.28338905495889
 20
170.10421641901101
 30
0.0
  0
VERTEX
  5
1F70
  8
0
 10
129.0239009918136
 20
170.06778299343219
 30
0.0
  0
VERTEX
  5
1F71
  8
0
 10
129.7658381446405
 20
170.0200241333836
 30
0.0
  0
VERTEX
  5
1F72
  8
0
 10
131.25208810688019
 20
169.89032440087439
 30
0.0
  0
VERTEX
  5
1F73
  8
0
 10
132.73832925364181
 20
169.7149139350941
 30
0.0
  0
VERTEX
  5
1F74
  8
0
 10
133.48032515273201
 20
169.61008486199239
 30
0.0
  0
SEQEND
  5
1F75
  8
0
  0
POLYLINE
  5
845
  8
0
 66
     1
 10
0.0
 20
0.0
 30
0.0
  0
VERTEX
  5
1F76
  8
0
 10
95.7912547683556
 20
168.53897625501671
 30
0.0
  0
VERTEX
  5
1F77
  8
0
 10
96.073737174875433
 20
168.2840598138217
 30
0.0
  0
VERTEX
  5
1F78
  8
0
 10
96.660377128224425
 20
167.80725308228861
 30
0.0
  0
VERTEX
  5
1F79
  8
0
 10
97.269907899822954
 20
167.37741423977781
 30
0.0
  0
VERTEX
  5
1F7A
  8
0
 10
97.580843025891681
 20
167.18092097452529
 30
0.0
  0
VERTEX
  5
1F7B
  8
0
 10
97.894516510167691
 20
166.99699622951559
 30
0.0
  0
VERTEX
  5
1F7C
  8
0
 10
98.525659676839311
 20
166.66727161646921
 30
0.0
  0
VERTEX
  5
1F7D
  8
0
 10
99.167403914450105
 20
166.3828838893792
 30
0.0
  0
VERTEX
  5
1F7E
  8
0
 10
99.840432572185122
 20
166.13520447626291
 30
0.0
  0
VERTEX
  5
1F7F
  8
0
 10
100.5397390041306
 20
165.92890015227979
 30
0.0
  0
VERTEX
  5
1F80
  8
0
 10
101.2591490965759
 20
165.76786591093551
 30
0.0
  0
VERTEX
  5
1F81
  8
0
 10
101.62437357390399
 20
165.70522836203011
 30
0.0
  0
VERTEX
  5
1F82
  8
0
 10
101.99216153623669
 20
165.65484870146301
 30
0.0
  0
VERTEX
  5
1F83
  8
0
 10
102.7321913938041
 20
165.5914282520892
 30
0.0
  0
VERTEX
  5
1F84
  8
0
 10
103.472826316076
 20
165.5780609651286
 30
0.0
  0
VERTEX
  5
1F85
  8
0
 10
104.2071133556686
 20
165.61410939358029
 30
0.0
  0
VERTEX
  5
1F86
  8
0
 10
104.92812393544421
 20
165.69774069223851
 30
0.0
  0
VERTEX
  5
1F87
  8
0
 10
105.6289555353396
 20
165.8258967573463
 30
0.0
  0
VERTEX
  5
1F88
  8
0
 10
105.96990492668959
 20
165.90542894033791
 30
0.0
  0
VERTEX
  5
1F89
  8
0
 10
106.3106110686339
 20
165.99647063579161
 30
0.0
  0
VERTEX
  5
1F8A
  8
0
 10
106.99708624853
 20
166.21630308788161
 30
0.0
  0
VERTEX
  5
1F8B
  8
0
 10
107.68313104848779
 20
166.48731584576481
 30
0.0
  0
VERTEX
  5
1F8C
  8
0
 10
108.0234068075885
 20
166.64203573717131
 30
0.0
  0
SEQEND
  5
1F8D
  8
0
  0
CIRCLE
  5
847
  8
0
 10
103.30089654662351
 20
176.57671725371119
 30
0.0
 40
6.0
  0
LINE
  5
852
  8
1
 10
90.905877670198237
 20
36.032593287479003
 30
0.0
 11
185.41587859477809
 21
36.032593287479003
 31
0.0
  0
LINE
  5
853
  8
1
 10
103.40587767019819
 20
23.03259713363342
 30
0.0
 11
103.40587767019819
 21
49.032589441324561
 31
0.0
  0
LINE
  5
854
  8
0
 10
183.41258279773211
 20
36.22294228522432
 30
0.0
 11
183.41258279773211
 21
35.842244289733692
 31
0.0
  0
LINE
  5
857
  8
0
 10
92.905877670198237
 20
39.27911450256444
 30
0.0
 11
92.905877670198237
 21
32.786072072393551
 31
0.0
  0
ARC
  5
85A
  8
0
 10
126.3558776701982
 20
-19.497406712520771
 30
0.0
 40
49.09999999999971
 50
104.6885212281333
 51
111.77904945073099
  0
POLYLINE
  5
85B
  8
0
 66
     1
 10
0.0
 20
0.0
 30
0.0
  0
VERTEX
  5
1F8E
  8
0
 10
177.91587767019811
 20
30.53259328747901
 30
0.0
  0
VERTEX
  5
1F8F
  8
0
 10
177.99711649244441
 20
30.53319329713824
 30
0.0
  0
VERTEX
  5
1F90
  8
0
 10
178.15952324032679
 20
30.537992588960812
 30
0.0
  0
VERTEX
  5
1F91
  8
0
 10
178.32171736025089
 20
30.547586984294131
 30
0.0
  0
VERTEX
  5
1F92
  8
0
 10
178.40269044104161
 20
30.554179892512941
 30
0.0
  0
SEQEND
  5
1F93
  8
0
  0
POLYLINE
  5
85C
  8
0
 66
     1
 10
0.0
 20
0.0
 30
0.0
  0
VERTEX
  5
1F94
  8
0
 10
178.40269044104161
 20
30.554179892512941
 30
0.0
  0
VERTEX
  5
1F95
  8
0
 10
178.44876049648909
 20
30.55846907501871
 30
0.0
  0
VERTEX
  5
1F96
  8
0
 10
178.54064016897661
 20
30.56819287937201
 30
0.0
  0
VERTEX
  5
1F97
  8
0
 10
178.632143411057
 20
30.579432425330161
 30
0.0
  0
VERTEX
  5
1F98
  8
0
 10
178.67774298043861
 20
30.585616029489731
 30
0.0
  0
VERTEX
  5
1F99
  8
0
 10
178.7232354156728
 20
30.592172947944359
 30
0.0
  0
VERTEX
  5
1F9A
  8
0
 10
178.81388175571831
 20
30.606398611429402
 30
0.0
  0
VERTEX
  5
1F9B
  8
0
 10
178.90404853240071
 20
30.62209253920312
 30
0.0
  0
VERTEX
  5
1F9C
  8
0
 10
178.9937025126078
 20
30.639236854877421
 30
0.0
  0
VERTEX
  5
1F9D
  8
0
 10
179.08281125502771
 20
30.657812733019409
 30
0.0
  0
VERTEX
  5
1F9E
  8
0
 10
179.1713434352321
 20
30.67780050784431
 30
0.0
  0
VERTEX
  5
1F9F
  8
0
 10
179.2153843779729
 20
30.688317628753271
 30
0.0
  0
VERTEX
  5
1FA0
  8
0
 10
179.25927043880731
 20
30.699180133667571
 30
0.0
  0
VERTEX
  5
1FA1
  8
0
 10
179.34656329463979
 20
30.721930556329919
 30
0.0
  0
VERTEX
  5
1FA2
  8
0
 10
179.43319289677351
 20
30.746029705793578
 30
0.0
  0
VERTEX
  5
1FA3
  8
0
 10
179.51913045213271
 20
30.77145457830024
 30
0.0
  0
VERTEX
  5
1FA4
  8
0
 10
179.60434761172391
 20
30.79818126160982
 30
0.0
  0
VERTEX
  5
1FA5
  8
0
 10
179.6888165900958
 20
30.82618496827158
 30
0.0
  0
VERTEX
  5
1FA6
  8
0
 10
179.7307620092584
 20
30.840657729728491
 30
0.0
  0
VERTEX
  5
1FA7
  8
0
 10
179.7725102732779
 20
30.855440075801631
 30
0.0
  0
VERTEX
  5
1FA8
  8
0
 10
179.85540231555819
 20
30.885920172733812
 30
0.0
  0
VERTEX
  5
1FA9
  8
0
 10
179.93746722556631
 20
30.917598109609688
 30
0.0
  0
VERTEX
  5
1FAA
  8
0
 10
179.97818179241091
 20
30.933877595512609
 30
0.0
  0
VERTEX
  5
1FAB
  8
0
 10
180.01868044221411
 20
30.950446054074408
 30
0.0
  0
VERTEX
  5
1FAC
  8
0
 10
180.09901840110331
 20
30.984435549346909
 30
0.0
  0
VERTEX
  5
1FAD
  8
0
 10
180.17845859204709
 20
31.019537575432182
 30
0.0
  0
VERTEX
  5
1FAE
  8
0
 10
180.21783529065809
 20
31.03749658034646
 30
0.0
  0
VERTEX
  5
1FAF
  8
0
 10
180.25697974239199
 20
31.055722675581439
 30
0.0
  0
VERTEX
  5
1FB0
  8
0
 10
180.33457267888011
 20
31.092966332437008
 30
0.0
  0
VERTEX
  5
1FB1
  8
0
 10
180.41122476532971
 20
31.131242160002149
 30
0.0
  0
VERTEX
  5
1FB2
  8
0
 10
180.48691667548141
 20
31.170519816899532
 30
0.0
  0
VERTEX
  5
1FB3
  8
0
 10
180.5616296282999
 20
31.210768262013961
 30
0.0
  0
VERTEX
  5
1FB4
  8
0
 10
180.635345470967
 20
31.25195579017992
 30
0.0
  0
VERTEX
  5
1FB5
  8
0
 10
180.67182399326541
 20
31.272891630402981
 30
0.0
  0
VERTEX
  5
1FB6
  8
0
 10
180.70804675227961
 20
31.294050070722498
 30
0.0
  0
VERTEX
  5
1FB7
  8
0
 10
180.77971678709031
 20
31.3370181882437
 30
0.0
  0
VERTEX
  5
1FB8
  8
0
 10
180.85033971244039
 20
31.380826685139699
 30
0.0
  0
VERTEX
  5
1FB9
  8
0
 10
180.91990053604309
 20
31.42544160542198
 30
0.0
  0
VERTEX
  5
1FBA
  8
0
 10
180.9883851777665
 20
31.47082853949647
 30
0.0
  0
VERTEX
  5
1FBB
  8
0
 10
181.05578050474989
 20
31.516952669629362
 30
0.0
  0
VERTEX
  5
1FBC
  8
0
 10
181.08906583754811
 20
31.54028020237574
 30
0.0
  0
VERTEX
  5
1FBD
  8
0
 10
181.1220743607619
 20
31.563778815897301
 30
0.0
  0
VERTEX
  5
1FBE
  8
0
 10
181.1872555903806
 20
31.611271482481978
 30
0.0
  0
VERTEX
  5
1FBF
  8
0
 10
181.25131404577149
 20
31.659394894483061
 30
0.0
  0
VERTEX
  5
1FC0
  8
0
 10
181.31424041142481
 20
31.70811289336898
 30
0.0
  0
VERTEX
  5
1FC1
  8
0
 10
181.37602600779351
 20
31.757388791570481
 30
0.0
  0
VERTEX
  5
1FC2
  8
0
 10
181.43666282061091
 20
31.807185387094322
 30
0.0
  0
VERTEX
  5
1FC3
  8
0
 10
181.4665481230094
 20
31.832267188765609
 30
0.0
  0
VERTEX
  5
1FC4
  8
0
 10
181.49614355053561
 20
31.85746499890012
 30
0.0
  0
VERTEX
  5
1FC5
  8
0
 10
181.55446165561409
 20
31.908189502557519
 30
0.0
  0
VERTEX
  5
1FC6
  8
0
 10
181.6116113871611
 20
31.959320365944791
 30
0.0
  0
VERTEX
  5
1FC7
  8
0
 10
181.80237109093741
 20
32.140913844031601
 30
0.0
  0
VERTEX
  5
1FC8
  8
0
 10
182.0976091788491
 20
32.460042155646711
 30
0.0
  0
VERTEX
  5
1FC9
  8
0
 10
182.2338431355478
 20
32.625956494387012
 30
0.0
  0
VERTEX
  5
1FCA
  8
0
 10
182.36271114404209
 20
32.795978998456988
 30
0.0
  0
VERTEX
  5
1FCB
  8
0
 10
182.59734483288341
 20
33.14574982017767
 30
0.0
  0
VERTEX
  5
1FCC
  8
0
 10
182.80020445962941
 20
33.50408546387149
 30
0.0
  0
VERTEX
  5
1FCD
  8
0
 10
182.9710259541888
 20
33.865688622555538
 30
0.0
  0
VERTEX
  5
1FCE
  8
0
 10
183.11045918249991
 20
34.225296158600109
 30
0.0
  0
VERTEX
  5
1FCF
  8
0
 10
183.2199674369123
 20
34.577728432367572
 30
0.0
  0
VERTEX
  5
1FD0
  8
0
 10
183.2645338581334
 20
34.75123581071378
 30
0.0
  0
VERTEX
  5
1FD1
  8
0
 10
183.30288782164999
 20
34.923484803986391
 30
0.0
  0
VERTEX
  5
1FD2
  8
0
 10
183.34023474080769
 20
35.123555130673303
 30
0.0
  0
VERTEX
  5
1FD3
  8
0
 10
183.34947992382641
 20
35.180556580895271
 30
0.0
  0
VERTEX
  5
1FD4
  8
0
 10
183.35813614053859
 20
35.237720503941972
 30
0.0
  0
VERTEX
  5
1FD5
  8
0
 10
183.36225090735871
 20
35.266421921829171
 30
0.0
  0
VERTEX
  5
1FD6
  8
0
 10
183.36622680425921
 20
35.295236984975929
 30
0.0
  0
VERTEX
  5
1FD7
  8
0
 10
183.3737701834153
 20
35.353322123533147
 30
0.0
  0
VERTEX
  5
1FD8
  8
0
 10
183.38077912963561
 20
35.412228847299382
 30
0.0
  0
VERTEX
  5
1FD9
  8
0
 10
183.387259462629
 20
35.472252961020381
 30
0.0
  0
VERTEX
  5
1FDA
  8
0
 10
183.39319301248409
 20
35.533577615221759
 30
0.0
  0
VERTEX
  5
1FDB
  8
0
 10
183.39857083342901
 20
35.596616593305782
 30
0.0
  0
VERTEX
  5
1FDC
  8
0
 10
183.4010493882578
 20
35.628995438873602
 30
0.0
  0
VERTEX
  5
1FDD
  8
0
 10
183.40338356341991
 20
35.662081382330612
 30
0.0
  0
VERTEX
  5
1FDE
  8
0
 10
183.40591645432991
 20
35.70172450876116
 30
0.0
  0
VERTEX
  5
1FDF
  8
0
 10
183.40660077896021
 20
35.713281930169309
 30
0.0
  0
VERTEX
  5
1FE0
  8
0
 10
183.40726685516441
 20
35.724949306168398
 30
0.0
  0
VERTEX
  5
1FE1
  8
0
 10
183.40759286002009
 20
35.730824710787687
 30
0.0
  0
VERTEX
  5
1FE2
  8
0
 10
183.4079141042798
 20
35.736728780109878
 30
0.0
  0
VERTEX
  5
1FE3
  8
0
 10
183.4085420946335
 20
35.748625823597408
 30
0.0
  0
VERTEX
  5
1FE4
  8
0
 10
183.4091503653321
 20
35.760646423374439
 30
0.0
  0
VERTEX
  5
1FE5
  8
0
 10
183.40973840721799
 20
35.772796824391712
 30
0.0
  0
VERTEX
  5
1FE6
  8
0
 10
183.41030565797621
 20
35.785083515709331
 30
0.0
  0
VERTEX
  5
1FE7
  8
0
 10
183.4108514969605
 20
35.797513209213761
 30
0.0
  0
VERTEX
  5
1FE8
  8
0
 10
183.4111161758197
 20
35.80378383327178
 30
0.0
  0
VERTEX
  5
1FE9
  8
0
 10
183.4113752398394
 20
35.810092810922157
 30
0.0
  0
VERTEX
  5
1FEA
  8
0
 10
183.41187613318249
 20
35.822829384784242
 30
0.0
  0
VERTEX
  5
1FEB
  8
0
 10
183.41235334912051
 20
35.835730109066759
 30
0.0
  0
VERTEX
  5
1FEC
  8
0
 10
183.41258279773211
 20
35.842244289733692
 30
0.0
  0
SEQEND
  5
1FED
  8
0
  0
POLYLINE
  5
85D
  8
0
 66
     1
 10
0.0
 20
0.0
 30
0.0
  0
VERTEX
  5
1FEE
  8
0
 10
183.41258279773211
 20
35.842244289733692
 30
0.0
  0
VERTEX
  5
1FEF
  8
0
 10
183.4129386936109
 20
35.852815355358288
 30
0.0
  0
VERTEX
  5
1FF0
  8
0
 10
183.41358949450401
 20
35.873959442137277
 30
0.0
  0
VERTEX
  5
1FF1
  8
0
 10
183.4141589663472
 20
35.895105875627081
 30
0.0
  0
VERTEX
  5
1FF2
  8
0
 10
183.41441320119549
 20
35.905679874632092
 30
0.0
  0
VERTEX
  5
1FF3
  8
0
 10
183.41464710071611
 20
35.91625434300316
 30
0.0
  0
VERTEX
  5
1FF4
  8
0
 10
183.4150538903896
 20
35.937404531410849
 30
0.0
  0
VERTEX
  5
1FF5
  8
0
 10
183.4153793293498
 20
35.958556127970041
 30
0.0
  0
VERTEX
  5
1FF6
  8
0
 10
183.41562341278271
 20
35.979708819779752
 30
0.0
  0
VERTEX
  5
1FF7
  8
0
 10
183.4157861370773
 20
36.00086229392285
 30
0.0
  0
VERTEX
  5
1FF8
  8
0
 10
183.41586749982639
 20
36.022016237470623
 30
0.0
  0
VERTEX
  5
1FF9
  8
0
 10
183.4158776701982
 20
36.032593287479003
 30
0.0
  0
VERTEX
  5
1FFA
  8
0
 10
183.41586749982639
 20
36.043170337487382
 30
0.0
  0
VERTEX
  5
1FFB
  8
0
 10
183.4157861370773
 20
36.064324281035162
 30
0.0
  0
VERTEX
  5
1FFC
  8
0
 10
183.41562341278271
 20
36.085477755178268
 30
0.0
  0
VERTEX
  5
1FFD
  8
0
 10
183.4153793293498
 20
36.106630446987992
 30
0.0
  0
VERTEX
  5
1FFE
  8
0
 10
183.4150538903896
 20
36.127782043547157
 30
0.0
  0
VERTEX
  5
1FFF
  8
0
 10
183.41464710071611
 20
36.148932231954859
 30
0.0
  0
VERTEX
  5
2000
  8
0
 10
183.41441320119549
 20
36.159506700325913
 30
0.0
  0
VERTEX
  5
2001
  8
0
 10
183.4141589663472
 20
36.170080699330939
 30
0.0
  0
VERTEX
  5
2002
  8
0
 10
183.41358949450401
 20
36.191227132820742
 30
0.0
  0
VERTEX
  5
2003
  8
0
 10
183.4129386936109
 20
36.212371219599717
 30
0.0
  0
VERTEX
  5
2004
  8
0
 10
183.41258279773211
 20
36.22294228522432
 30
0.0
  0
SEQEND
  5
2005
  8
0
  0
POLYLINE
  5
85E
  8
0
 66
     1
 10
0.0
 20
0.0
 30
0.0
  0
VERTEX
  5
2006
  8
0
 10
183.41258279773211
 20
36.22294228522432
 30
0.0
  0
VERTEX
  5
2007
  8
0
 10
183.41235334912051
 20
36.229456465891253
 30
0.0
  0
VERTEX
  5
2008
  8
0
 10
183.41187613318249
 20
36.242357190173763
 30
0.0
  0
VERTEX
  5
2009
  8
0
 10
183.4113752398394
 20
36.255093764035827
 30
0.0
  0
VERTEX
  5
200A
  8
0
 10
183.4111161758197
 20
36.261402741686211
 30
0.0
  0
VERTEX
  5
200B
  8
0
 10
183.4108514969605
 20
36.267673365744237
 30
0.0
  0
VERTEX
  5
200C
  8
0
 10
183.41030565797621
 20
36.280103059248688
 30
0.0
  0
VERTEX
  5
200D
  8
0
 10
183.40973840721799
 20
36.292389750566308
 30
0.0
  0
VERTEX
  5
200E
  8
0
 10
183.4091503653321
 20
36.304540151583609
 30
0.0
  0
VERTEX
  5
200F
  8
0
 10
183.4085420946335
 20
36.316560751360598
 30
0.0
  0
VERTEX
  5
2010
  8
0
 10
183.4079141042798
 20
36.32845779484817
 30
0.0
  0
VERTEX
  5
2011
  8
0
 10
183.40759286002009
 20
36.334361864170333
 30
0.0
  0
VERTEX
  5
2012
  8
0
 10
183.40726685516441
 20
36.340237268789608
 30
0.0
  0
VERTEX
  5
2013
  8
0
 10
183.40660077896021
 20
36.351904644788753
 30
0.0
  0
VERTEX
  5
2014
  8
0
 10
183.40591645432991
 20
36.363462066196838
 30
0.0
  0
VERTEX
  5
2015
  8
0
 10
183.40338356341991
 20
36.403105192627393
 30
0.0
  0
VERTEX
  5
2016
  8
0
 10
183.4010493882578
 20
36.43619113608441
 30
0.0
  0
VERTEX
  5
2017
  8
0
 10
183.39857083342901
 20
36.468569981652273
 30
0.0
  0
VERTEX
  5
2018
  8
0
 10
183.39319301248409
 20
36.531608959736197
 30
0.0
  0
VERTEX
  5
2019
  8
0
 10
183.387259462629
 20
36.592933613937632
 30
0.0
  0
VERTEX
  5
201A
  8
0
 10
183.38077912963561
 20
36.652957727658652
 30
0.0
  0
VERTEX
  5
201B
  8
0
 10
183.3737701834153
 20
36.711864451424887
 30
0.0
  0
VERTEX
  5
201C
  8
0
 10
183.36622680425921
 20
36.769949589982062
 30
0.0
  0
VERTEX
  5
201D
  8
0
 10
183.36225090735871
 20
36.79876465312887
 30
0.0
  0
VERTEX
  5
201E
  8
0
 10
183.35813614053859
 20
36.827466071016033
 30
0.0
  0
VERTEX
  5
201F
  8
0
 10
183.34947992382641
 20
36.884629994062713
 30
0.0
  0
VERTEX
  5
2020
  8
0
 10
183.34023474080769
 20
36.94163144428471
 30
0.0
  0
VERTEX
  5
2021
  8
0
 10
183.30288782164999
 20
37.141701770971622
 30
0.0
  0
VERTEX
  5
2022
  8
0
 10
183.2645338581334
 20
37.313950764244211
 30
0.0
  0
VERTEX
  5
2023
  8
0
 10
183.2199674369123
 20
37.48745814259042
 30
0.0
  0
VERTEX
  5
2024
  8
0
 10
183.11045918249991
 20
37.839890416357889
 30
0.0
  0
VERTEX
  5
2025
  8
0
 10
182.9710259541888
 20
38.19949795240246
 30
0.0
  0
VERTEX
  5
2026
  8
0
 10
182.80020445962941
 20
38.561101111086543
 30
0.0
  0
VERTEX
  5
2027
  8
0
 10
182.59734483288341
 20
38.919436754780342
 30
0.0
  0
VERTEX
  5
2028
  8
0
 10
182.36271114404209
 20
39.269207576501017
 30
0.0
  0
VERTEX
  5
2029
  8
0
 10
182.2338431355478
 20
39.439230080571008
 30
0.0
  0
VERTEX
  5
202A
  8
0
 10
182.0976091788491
 20
39.605144419311301
 30
0.0
  0
VERTEX
  5
202B
  8
0
 10
181.80237109093741
 20
39.924272730926411
 30
0.0
  0
VERTEX
  5
202C
  8
0
 10
181.6116113871611
 20
40.105866209013229
 30
0.0
  0
VERTEX
  5
202D
  8
0
 10
181.55446165561409
 20
40.1569970724005
 30
0.0
  0
VERTEX
  5
202E
  8
0
 10
181.49614355053561
 20
40.207721576057892
 30
0.0
  0
VERTEX
  5
202F
  8
0
 10
181.4665481230094
 20
40.2329193861924
 30
0.0
  0
VERTEX
  5
2030
  8
0
 10
181.43666282061091
 20
40.258001187863691
 30
0.0
  0
VERTEX
  5
2031
  8
0
 10
181.37602600779351
 20
40.307797783387528
 30
0.0
  0
VERTEX
  5
2032
  8
0
 10
181.31424041142481
 20
40.357073681589043
 30
0.0
  0
VERTEX
  5
2033
  8
0
 10
181.25131404577149
 20
40.405791680474962
 30
0.0
  0
VERTEX
  5
2034
  8
0
 10
181.1872555903806
 20
40.453915092476031
 30
0.0
  0
VERTEX
  5
2035
  8
0
 10
181.1220743607619
 20
40.501407759060712
 30
0.0
  0
VERTEX
  5
2036
  8
0
 10
181.08906583754811
 20
40.524906372582286
 30
0.0
  0
VERTEX
  5
2037
  8
0
 10
181.05578050474989
 20
40.548233905328637
 30
0.0
  0
VERTEX
  5
2038
  8
0
 10
180.9883851777665
 20
40.594358035461539
 30
0.0
  0
VERTEX
  5
2039
  8
0
 10
180.91990053604309
 20
40.639744969536039
 30
0.0
  0
VERTEX
  5
203A
  8
0
 10
180.8503397124405
 20
40.68435988981831
 30
0.0
  0
VERTEX
  5
203B
  8
0
 10
180.77971678709031
 20
40.728168386714309
 30
0.0
  0
VERTEX
  5
203C
  8
0
 10
180.7080467522795
 20
40.771136504235507
 30
0.0
  0
VERTEX
  5
203D
  8
0
 10
180.67182399326541
 20
40.792294944555017
 30
0.0
  0
VERTEX
  5
203E
  8
0
 10
180.63534547096691
 20
40.813230784778092
 30
0.0
  0
VERTEX
  5
203F
  8
0
 10
180.5616296282999
 20
40.854418312944063
 30
0.0
  0
VERTEX
  5
2040
  8
0
 10
180.48691667548141
 20
40.89466675805847
 30
0.0
  0
VERTEX
  5
2041
  8
0
 10
180.41122476532971
 20
40.933944414955853
 30
0.0
  0
VERTEX
  5
2042
  8
0
 10
180.33457267888011
 20
40.972220242520997
 30
0.0
  0
VERTEX
  5
2043
  8
0
 10
180.25697974239199
 20
41.009463899376563
 30
0.0
  0
VERTEX
  5
2044
  8
0
 10
180.21783529065809
 20
41.027689994611563
 30
0.0
  0
VERTEX
  5
2045
  8
0
 10
180.17845859204709
 20
41.045648999525838
 30
0.0
  0
VERTEX
  5
2046
  8
0
 10
180.09901840110331
 20
41.080751025611107
 30
0.0
  0
VERTEX
  5
2047
  8
0
 10
180.01868044221411
 20
41.114740520883601
 30
0.0
  0
VERTEX
  5
2048
  8
0
 10
179.97818179241091
 20
41.1313089794454
 30
0.0
  0
VERTEX
  5
2049
  8
0
 10
179.93746722556631
 20
41.147588465348321
 30
0.0
  0
VERTEX
  5
204A
  8
0
 10
179.85540231555819
 20
41.179266402224201
 30
0.0
  0
VERTEX
  5
204B
  8
0
 10
179.7725102732779
 20
41.209746499156381
 30
0.0
  0
VERTEX
  5
204C
  8
0
 10
179.73076200925831
 20
41.224528845229521
 30
0.0
  0
VERTEX
  5
204D
  8
0
 10
179.6888165900958
 20
41.239001606686408
 30
0.0
  0
VERTEX
  5
204E
  8
0
 10
179.60434761172391
 20
41.267005313348179
 30
0.0
  0
VERTEX
  5
204F
  8
0
 10
179.51913045213271
 20
41.293731996657769
 30
0.0
  0
VERTEX
  5
2050
  8
0
 10
179.43319289677351
 20
41.319156869164431
 30
0.0
  0
VERTEX
  5
2051
  8
0
 10
179.34656329463979
 20
41.343256018628082
 30
0.0
  0
VERTEX
  5
2052
  8
0
 10
179.25927043880719
 20
41.366006441290452
 30
0.0
  0
VERTEX
  5
2053
  8
0
 10
179.2153843779729
 20
41.376868946204731
 30
0.0
  0
VERTEX
  5
2054
  8
0
 10
179.1713434352321
 20
41.387386067113702
 30
0.0
  0
VERTEX
  5
2055
  8
0
 10
179.08281125502771
 20
41.407373841938593
 30
0.0
  0
VERTEX
  5
2056
  8
0
 10
178.9937025126078
 20
41.425949720080567
 30
0.0
  0
VERTEX
  5
2057
  8
0
 10
178.90404853240071
 20
41.443094035754882
 30
0.0
  0
VERTEX
  5
2058
  8
0
 10
178.81388175571831
 20
41.458787963528593
 30
0.0
  0
VERTEX
  5
2059
  8
0
 10
178.7232354156728
 20
41.473013627013643
 30
0.0
  0
VERTEX
  5
205A
  8
0
 10
178.67774298043861
 20
41.479570545468277
 30
0.0
  0
VERTEX
  5
205B
  8
0
 10
178.632143411057
 20
41.485754149627851
 30
0.0
  0
VERTEX
  5
205C
  8
0
 10
178.54064016897681
 20
41.496993695585992
 30
0.0
  0
VERTEX
  5
205D
  8
0
 10
178.44876049648909
 20
41.506717499939313
 30
0.0
  0
VERTEX
  5
205E
  8
0
 10
178.40269044104161
 20
41.511006682445071
 30
0.0
  0
SEQEND
  5
205F
  8
0
  0
POLYLINE
  5
85F
  8
0
 66
     1
 10
0.0
 20
0.0
 30
0.0
  0
VERTEX
  5
2060
  8
0
 10
178.40269044104161
 20
41.511006682445071
 30
0.0
  0
VERTEX
  5
2061
  8
0
 10
178.32171736025089
 20
41.517599590663892
 30
0.0
  0
VERTEX
  5
2062
  8
0
 10
178.15952324032691
 20
41.527193985997201
 30
0.0
  0
VERTEX
  5
2063
  8
0
 10
177.99711649244441
 20
41.531993277819751
 30
0.0
  0
VERTEX
  5
2064
  8
0
 10
177.91587767019811
 20
41.532593287479003
 30
0.0
  0
SEQEND
  5
2065
  8
0
  0
ARC
  5
860
  8
0
 10
103.4158776701982
 20
36.032593287479003
 30
0.0
 40
10.99999999999998
 50
64.575642792381473
 51
162.83416983514459
  0
ARC
  5
861
  8
0
 10
103.4158776701982
 20
36.032593287479003
 30
0.0
 40
11.0
 50
197.16583016485541
 51
295.42435720761841
  0
ARC
  5
862
  8
0
 10
126.3558776701983
 20
91.562593287479032
 30
0.0
 40
49.10000000000008
 50
248.22095054926891
 51
255.31147877186669
  0
ARC
  5
863
  8
0
 10
103.40587767019819
 20
36.032593287479003
 30
0.0
 40
10.5
 50
192.52695568936551
 51
167.47304431063429
  0
POLYLINE
  5
865
  8
0
 66
     1
 10
0.0
 20
0.0
 30
0.0
  0
VERTEX
  5
2066
  8
0
 10
133.5953062763067
 20
42.999225679197728
 30
0.0
  0
VERTEX
  5
2067
  8
0
 10
133.04202780734829
 20
42.919963873111449
 30
0.0
  0
VERTEX
  5
2068
  8
0
 10
131.9301719547766
 20
42.780042685558627
 30
0.0
  0
VERTEX
  5
2069
  8
0
 10
130.81257468090959
 20
42.66527381335321
 30
0.0
  0
VERTEX
  5
206A
  8
0
 10
130.25212802100029
 20
42.617427712073287
 30
0.0
  0
VERTEX
  5
206B
  8
0
 10
129.69085169058761
 20
42.57598339984407
 30
0.0
  0
VERTEX
  5
206C
  8
0
 10
128.56661200117401
 20
42.512387847360301
 30
0.0
  0
VERTEX
  5
206D
  8
0
 10
127.4414520603957
 20
42.474595485130692
 30
0.0
  0
VERTEX
  5
206E
  8
0
 10
126.3169613372411
 20
42.462608709894518
 30
0.0
  0
VERTEX
  5
206F
  8
0
 10
125.1946918345165
 20
42.476325885536383
 30
0.0
  0
VERTEX
  5
2070
  8
0
 10
124.075969485101
 20
42.515554450587622
 30
0.0
  0
VERTEX
  5
2071
  8
0
 10
123.51839712114599
 20
42.544650612028491
 30
0.0
  0
VERTEX
  5
2072
  8
0
 10
122.96227119246851
 20
42.580010310727822
 30
0.0
  0
VERTEX
  5
2073
  8
0
 10
121.8551115708884
 20
42.669310471540918
 30
0.0
  0
VERTEX
  5
2074
  8
0
 10
120.75597934266369
 20
42.782975220900411
 30
0.0
  0
VERTEX
  5
2075
  8
0
 10
119.6663415294725
 20
42.920429414744802
 30
0.0
  0
VERTEX
  5
2076
  8
0
 10
118.58764282948751
 20
43.081003715151951
 30
0.0
  0
VERTEX
  5
2077
  8
0
 10
117.5212838010558
 20
43.26393956744954
 30
0.0
  0
VERTEX
  5
2078
  8
0
 10
116.99316088507101
 20
43.363531736433231
 30
0.0
  0
VERTEX
  5
2079
  8
0
 10
116.4686378055855
 20
43.468388981142724
 30
0.0
  0
VERTEX
  5
207A
  8
0
 10
115.4310668448541
 20
43.693412090904879
 30
0.0
  0
VERTEX
  5
207B
  8
0
 10
114.4099012351823
 20
43.93798150938629
 30
0.0
  0
VERTEX
  5
207C
  8
0
 10
113.90587767019809
 20
44.06725141061699
 30
0.0
  0
SEQEND
  5
207D
  8
0
  0
POLYLINE
  5
866
  8
0
 66
     1
 10
0.0
 20
0.0
 30
0.0
  0
VERTEX
  5
207E
  8
0
 10
135.0638102313998
 20
43.081440239249233
 30
0.0
  0
VERTEX
  5
207F
  8
0
 10
134.8211198308058
 20
43.086526865119637
 30
0.0
  0
VERTEX
  5
2080
  8
0
 10
134.3356292913175
 20
43.074594603601867
 30
0.0
  0
VERTEX
  5
2081
  8
0
 10
133.84308298018641
 20
43.03221395140892
 30
0.0
  0
VERTEX
  5
2082
  8
0
 10
133.5953062763067
 20
42.999225679197771
 30
0.0
  0
SEQEND
  5
2083
  8
0
  0
LINE
  5
867
  8
0
 10
177.91587767019811
 20
41.532593287479003
 30
0.0
 11
135.0638102313998
 21
43.081440239249268
 31
0.0
  0
LINE
  5
869
  8
0
 10
135.0638102313998
 20
28.983746335708741
 30
0.0
 11
177.91587767019811
 21
30.53259328747901
 31
0.0
  0
POLYLINE
  5
86A
  8
0
 66
     1
 10
0.0
 20
0.0
 30
0.0
  0
VERTEX
  5
2084
  8
0
 10
133.5953062763067
 20
29.065960895760242
 30
0.0
  0
VERTEX
  5
2085
  8
0
 10
133.8430829801863
 20
29.032972623549089
 30
0.0
  0
VERTEX
  5
2086
  8
0
 10
134.3356292913175
 20
28.990591971356121
 30
0.0
  0
VERTEX
  5
2087
  8
0
 10
134.8211198308058
 20
28.978659709838372
 30
0.0
  0
VERTEX
  5
2088
  8
0
 10
135.0638102313998
 20
28.983746335708741
 30
0.0
  0
SEQEND
  5
2089
  8
0
  0
POLYLINE
  5
86B
  8
0
 66
     1
 10
0.0
 20
0.0
 30
0.0
  0
VERTEX
  5
208A
  8
0
 10
113.90587767019809
 20
27.99793516434093
 30
0.0
  0
VERTEX
  5
208B
  8
0
 10
114.4099012351824
 20
28.127205065571658
 30
0.0
  0
VERTEX
  5
208C
  8
0
 10
115.4310668448541
 20
28.371774484053049
 30
0.0
  0
VERTEX
  5
208D
  8
0
 10
116.4686378055855
 20
28.596797593815211
 30
0.0
  0
VERTEX
  5
208E
  8
0
 10
116.99316088507101
 20
28.701654838524711
 30
0.0
  0
VERTEX
  5
208F
  8
0
 10
117.5212838010558
 20
28.80124700750838
 30
0.0
  0
VERTEX
  5
2090
  8
0
 10
118.58764282948751
 20
28.984182859805991
 30
0.0
  0
VERTEX
  5
2091
  8
0
 10
119.6663415294725
 20
29.144757160213128
 30
0.0
  0
VERTEX
  5
2092
  8
0
 10
120.75597934266369
 20
29.282211354057509
 30
0.0
  0
VERTEX
  5
2093
  8
0
 10
121.8551115708884
 20
29.39587610341702
 30
0.0
  0
VERTEX
  5
2094
  8
0
 10
122.96227119246851
 20
29.48517626423012
 30
0.0
  0
VERTEX
  5
2095
  8
0
 10
123.51839712114599
 20
29.520535962929461
 30
0.0
  0
VERTEX
  5
2096
  8
0
 10
124.075969485101
 20
29.549632124370319
 30
0.0
  0
VERTEX
  5
2097
  8
0
 10
125.19469183451641
 20
29.588860689421558
 30
0.0
  0
VERTEX
  5
2098
  8
0
 10
126.316961337241
 20
29.602577865063431
 30
0.0
  0
VERTEX
  5
2099
  8
0
 10
127.4414520603957
 20
29.590591089827239
 30
0.0
  0
VERTEX
  5
209A
  8
0
 10
128.56661200117401
 20
29.55279872759764
 30
0.0
  0
VERTEX
  5
209B
  8
0
 10
129.69085169058761
 20
29.489203175113872
 30
0.0
  0
VERTEX
  5
209C
  8
0
 10
130.2521280210002
 20
29.447758862884641
 30
0.0
  0
VERTEX
  5
209D
  8
0
 10
130.81257468090959
 20
29.399912761604732
 30
0.0
  0
VERTEX
  5
209E
  8
0
 10
131.9301719547766
 20
29.285143889399318
 30
0.0
  0
VERTEX
  5
209F
  8
0
 10
133.04202780734829
 20
29.145222701846478
 30
0.0
  0
VERTEX
  5
20A0
  8
0
 10
133.5953062763067
 20
29.065960895760231
 30
0.0
  0
SEQEND
  5
20A1
  8
0
  0
LINE
  5
86C
  8
0
 10
93.155839917347663
 20
38.310031775152879
 30
0.0
 11
93.155839917347663
 21
33.75515479980514
 31
0.0
  0
CIRCLE
  5
871
  8
0
 10
103.4158776701982
 20
36.032593287479003
 30
0.0
 40
4.1879999999999979
  0
CIRCLE
  5
929
  8
3
 10
103.4158776701982
 20
36.032593287479003
 30
0.0
 40
5.0
  0
CIRCLE
  5
93D
  8
0
 10
103.40587767019819
 20
36.032593287479003
 30
0.0
 40
8.0
  0
LINE
  5
941
  8
0
 10
113.7908965466235
 20
90.911366998405654
 30
0.0
 11
113.5409342994741
 21
90.661404751256185
 31
0.0
  0
LINE
  5
942
  8
0
 10
215.3424401600993
 20
116.7038347963236
 30
0.0
 11
215.8424401600993
 21
90.661404751256185
 31
0.0
  0
LINE
  5
943
  8
0
 10
237.3424401600993
 20
116.7038347963236
 30
0.0
 11
236.8424401600993
 21
90.661404751256185
 31
0.0
  0
LINE
  5
944
  8
0
 10
23.083563058217781
 20
116.6108901730276
 30
0.0
 11
23.581120931067289
 21
90.661404751256185
 31
0.0
  0
LINE
  5
945
  8
0
 10
45.059088814497919
 20
116.424031323655
 30
0.0
 11
44.581120931067282
 21
90.661404751256185
 31
0.0
  0
LINE
  5
CF2
  8
0
 10
40.081120931067296
 20
116.3154975891127
 30
0.0
 11
40.081120931067296
 21
119.6447195248041
 31
0.0
  0
LINE
  5
CF3
  8
0
 10
28.0811209310673
 20
119.6447195248041
 30
0.0
 11
28.0811209310673
 21
116.3154949152045
 31
0.0
  0
POLYLINE
  5
D02
  8
0
 66
     1
 10
0.0
 20
0.0
 30
0.0
  0
VERTEX
  5
20A2
  8
0
 10
28.321535567154239
 20
116.0238403165544
 30
0.0
  0
VERTEX
  5
20A3
  8
0
 10
28.303048788282819
 20
116.0426481624542
 30
0.0
  0
VERTEX
  5
20A4
  8
0
 10
28.26722799297222
 20
116.0803563355436
 30
0.0
  0
VERTEX
  5
20A5
  8
0
 10
28.232950140361769
 20
116.11817212051361
 30
0.0
  0
VERTEX
  5
20A6
  8
0
 10
28.216391669284071
 20
116.1371144632715
 30
0.0
  0
VERTEX
  5
20A7
  8
0
 10
28.200220955617571
 20
116.1560766182689
 30
0.0
  0
VERTEX
  5
20A8
  8
0
 10
28.169044553740729
 20
116.1940508974907
 30
0.0
  0
VERTEX
  5
20A9
  8
0
 10
28.139423417177181
 20
116.2320760398698
 30
0.0
  0
VERTEX
  5
20AA
  8
0
 10
28.111358382150751
 20
116.2701331837572
 30
0.0
  0
VERTEX
  5
20AB
  8
0
 10
28.084848703996681
 20
116.30820346135989
 30
0.0
  0
VERTEX
  5
20AC
  8
0
 10
28.059892198924679
 20
116.34626778586249
 30
0.0
  0
VERTEX
  5
20AD
  8
0
 10
28.047995304915801
 20
116.3652916843776
 30
0.0
  0
VERTEX
  5
20AE
  8
0
 10
28.03648521696239
 20
116.3843068309762
 30
0.0
  0
VERTEX
  5
20AF
  8
0
 10
28.014622572322718
 20
116.42230107539049
 30
0.0
  0
VERTEX
  5
20B0
  8
0
 10
27.994297482776751
 20
116.46023084732479
 30
0.0
  0
VERTEX
  5
20B1
  8
0
 10
27.975501517997891
 20
116.49807636881791
 30
0.0
  0
VERTEX
  5
20B2
  8
0
 10
27.958224556587538
 20
116.5358177998113
 30
0.0
  0
VERTEX
  5
20B3
  8
0
 10
27.942454751544641
 20
116.57343528211931
 30
0.0
  0
VERTEX
  5
20B4
  8
0
 10
27.935130851995559
 20
116.59219134269421
 30
0.0
  0
VERTEX
  5
20B5
  8
0
 10
27.928178503991099
 20
116.6109089833957
 30
0.0
  0
VERTEX
  5
20B6
  8
0
 10
27.915380445028362
 20
116.6482191412432
 30
0.0
  0
VERTEX
  5
20B7
  8
0
 10
27.904043425658589
 20
116.6853461076319
 30
0.0
  0
VERTEX
  5
20B8
  8
0
 10
27.898916959352739
 20
116.70383479633379
 30
0.0
  0
SEQEND
  5
20B9
  8
0
  0
POLYLINE
  5
D03
  8
0
 66
     1
 10
0.0
 20
0.0
 30
0.0
  0
VERTEX
  5
20BA
  8
0
 10
27.898916959352739
 20
116.70383479633379
 30
0.0
  0
VERTEX
  5
20BB
  8
0
 10
27.892632949329212
 20
116.728424724335
 30
0.0
  0
VERTEX
  5
20BC
  8
0
 10
27.88183998990775
 20
116.7778766504174
 30
0.0
  0
VERTEX
  5
20BD
  8
0
 10
27.87346233371245
 20
116.82765780534911
 30
0.0
  0
VERTEX
  5
20BE
  8
0
 10
27.870196363668651
 20
116.8526591807974
 30
0.0
  0
VERTEX
  5
20BF
  8
0
 10
27.867554175960731
 20
116.8777276356408
 30
0.0
  0
VERTEX
  5
20C0
  8
0
 10
27.864165006979711
 20
116.92804537870521
 30
0.0
  0
VERTEX
  5
20C1
  8
0
 10
27.863339589968469
 20
116.97857022927489
 30
0.0
  0
VERTEX
  5
20C2
  8
0
 10
27.865117976688119
 20
117.0292615039221
 30
0.0
  0
VERTEX
  5
20C3
  8
0
 10
27.86953556125793
 20
117.080078804427
 30
0.0
  0
VERTEX
  5
20C4
  8
0
 10
27.876623172752669
 20
117.13098218057731
 30
0.0
  0
VERTEX
  5
20C5
  8
0
 10
27.881176656207121
 20
117.15645382510679
 30
0.0
  0
VERTEX
  5
20C6
  8
0
 10
27.886407207764311
 20
117.1819322928223
 30
0.0
  0
VERTEX
  5
20C7
  8
0
 10
27.89890979947274
 20
117.2328905565257
 30
0.0
  0
VERTEX
  5
20C8
  8
0
 10
27.914148891759361
 20
117.2838188806015
 30
0.0
  0
VERTEX
  5
20C9
  8
0
 10
27.932138115636871
 20
117.33467913391929
 30
0.0
  0
VERTEX
  5
20CA
  8
0
 10
27.95288672991331
 20
117.3854331888673
 30
0.0
  0
VERTEX
  5
20CB
  8
0
 10
27.976399616152332
 20
117.4360430775466
 30
0.0
  0
VERTEX
  5
20CC
  8
0
 10
27.989192996459181
 20
117.4612821757789
 30
0.0
  0
VERTEX
  5
20CD
  8
0
 10
28.002677308474691
 20
117.4864711440182
 30
0.0
  0
VERTEX
  5
20CE
  8
0
 10
28.03171605853408
 20
117.5366801930932
 30
0.0
  0
VERTEX
  5
20CF
  8
0
 10
28.063507936438171
 20
117.5866336361846
 30
0.0
  0
VERTEX
  5
20D0
  8
0
 10
28.080432710033449
 20
117.6115032727408
 30
0.0
  0
SEQEND
  5
20D1
  8
0
  0
POLYLINE
  5
D04
  8
0
 66
     1
 10
0.0
 20
0.0
 30
0.0
  0
VERTEX
  5
20D2
  8
0
 10
40.081793486663443
 20
117.61152580102031
 30
0.0
  0
VERTEX
  5
20D3
  8
0
 10
40.098715435944818
 20
117.58666140717629
 30
0.0
  0
VERTEX
  5
20D4
  8
0
 10
40.130501255252391
 20
117.5367206150151
 30
0.0
  0
VERTEX
  5
20D5
  8
0
 10
40.159534091852883
 20
117.48652656477471
 30
0.0
  0
VERTEX
  5
20D6
  8
0
 10
40.173015730272773
 20
117.4613457612986
 30
0.0
  0
VERTEX
  5
20D7
  8
0
 10
40.185806730280952
 20
117.436115150313
 30
0.0
  0
VERTEX
  5
20D8
  8
0
 10
40.209315993920718
 20
117.3855228229413
 30
0.0
  0
VERTEX
  5
20D9
  8
0
 10
40.230062835961071
 20
117.3347864510413
 30
0.0
  0
VERTEX
  5
20DA
  8
0
 10
40.24805239608299
 20
117.2839431766497
 30
0.0
  0
VERTEX
  5
20DB
  8
0
 10
40.263294023512067
 20
117.2330302685434
 30
0.0
  0
VERTEX
  5
20DC
  8
0
 10
40.275801266433589
 20
117.1820849724165
 30
0.0
  0
VERTEX
  5
20DD
  8
0
 10
40.281034859967193
 20
117.1566118031194
 30
0.0
  0
VERTEX
  5
20DE
  8
0
 10
40.285591797410639
 20
117.1311445423256
 30
0.0
  0
VERTEX
  5
20DF
  8
0
 10
40.292687301776532
 20
117.0802468134559
 30
0.0
  0
VERTEX
  5
20E0
  8
0
 10
40.29711358428569
 20
117.0294303520823
 30
0.0
  0
VERTEX
  5
20E1
  8
0
 10
40.298900734255717
 20
116.9787343060258
 30
0.0
  0
VERTEX
  5
20E2
  8
0
 10
40.298083252875877
 20
116.92819824815599
 30
0.0
  0
VERTEX
  5
20E3
  8
0
 10
40.294700142271033
 20
116.8778620194706
 30
0.0
  0
VERTEX
  5
20E4
  8
0
 10
40.292059908411488
 20
116.85278132590931
 30
0.0
  0
VERTEX
  5
20E5
  8
0
 10
40.288794957359023
 20
116.8277655713687
 30
0.0
  0
VERTEX
  5
20E6
  8
0
 10
40.280415821101833
 20
116.7779488065807
 30
0.0
  0
VERTEX
  5
20E7
  8
0
 10
40.269615403264311
 20
116.7284514180689
 30
0.0
  0
VERTEX
  5
20E8
  8
0
 10
40.263324902781847
 20
116.70383479633379
 30
0.0
  0
SEQEND
  5
20E9
  8
0
  0
POLYLINE
  5
D05
  8
0
 66
     1
 10
0.0
 20
0.0
 30
0.0
  0
VERTEX
  5
20EA
  8
0
 10
40.263324902781847
 20
116.70383479633379
 30
0.0
  0
VERTEX
  5
20EB
  8
0
 10
40.258198436476
 20
116.6853461076319
 30
0.0
  0
VERTEX
  5
20EC
  8
0
 10
40.246861417106231
 20
116.6482191412433
 30
0.0
  0
VERTEX
  5
20ED
  8
0
 10
40.23406335814343
 20
116.6109089833957
 30
0.0
  0
VERTEX
  5
20EE
  8
0
 10
40.227111010139033
 20
116.59219134269431
 30
0.0
  0
VERTEX
  5
20EF
  8
0
 10
40.219787110589941
 20
116.57343528211921
 30
0.0
  0
VERTEX
  5
20F0
  8
0
 10
40.204017305547048
 20
116.5358177998114
 30
0.0
  0
VERTEX
  5
20F1
  8
0
 10
40.186740344136687
 20
116.49807636881791
 30
0.0
  0
VERTEX
  5
20F2
  8
0
 10
40.167944379357841
 20
116.46023084732499
 30
0.0
  0
VERTEX
  5
20F3
  8
0
 10
40.147619289811871
 20
116.42230107539049
 30
0.0
  0
VERTEX
  5
20F4
  8
0
 10
40.125756645172203
 20
116.3843068309762
 30
0.0
  0
VERTEX
  5
20F5
  8
0
 10
40.114246557218792
 20
116.3652916843775
 30
0.0
  0
VERTEX
  5
20F6
  8
0
 10
40.1023496632099
 20
116.34626778586249
 30
0.0
  0
VERTEX
  5
20F7
  8
0
 10
40.077393158137909
 20
116.30820346135989
 30
0.0
  0
VERTEX
  5
20F8
  8
0
 10
40.050883479983838
 20
116.2701331837572
 30
0.0
  0
VERTEX
  5
20F9
  8
0
 10
40.022818444957387
 20
116.2320760398697
 30
0.0
  0
VERTEX
  5
20FA
  8
0
 10
39.993197308393867
 20
116.1940508974907
 30
0.0
  0
VERTEX
  5
20FB
  8
0
 10
39.962020906517012
 20
116.1560766182689
 30
0.0
  0
VERTEX
  5
20FC
  8
0
 10
39.945850192850578
 20
116.1371144632716
 30
0.0
  0
VERTEX
  5
20FD
  8
0
 10
39.92929172177282
 20
116.11817212051371
 30
0.0
  0
VERTEX
  5
20FE
  8
0
 10
39.895013869162383
 20
116.0803563355436
 30
0.0
  0
VERTEX
  5
20FF
  8
0
 10
39.85919307385177
 20
116.0426481624542
 30
0.0
  0
VERTEX
  5
2100
  8
0
 10
39.840706294980421
 20
116.0238403165544
 30
0.0
  0
SEQEND
  5
2101
  8
0
  0
POLYLINE
  5
D1A
  8
0
 66
     1
 10
0.0
 20
0.0
 30
0.0
  0
VERTEX
  5
2102
  8
0
 10
39.840706294980421
 20
116.0238403165544
 30
0.0
  0
VERTEX
  5
2103
  8
0
 10
39.820706632757052
 20
115.99644721707369
 30
0.0
  0
VERTEX
  5
2104
  8
0
 10
39.778298705349201
 20
115.9418065462131
 30
0.0
  0
VERTEX
  5
2105
  8
0
 10
39.732695956662219
 20
115.8874037168428
 30
0.0
  0
VERTEX
  5
2106
  8
0
 10
39.70870422107982
 20
115.86030785985569
 30
0.0
  0
VERTEX
  5
2107
  8
0
 10
39.683923774548468
 20
115.8332910494663
 30
0.0
  0
VERTEX
  5
2108
  8
0
 10
39.632013541415922
 20
115.7795203528987
 30
0.0
  0
VERTEX
  5
2109
  8
0
 10
39.576998234020273
 20
115.7261387822054
 30
0.0
  0
VERTEX
  5
210A
  8
0
 10
39.518905024134938
 20
115.67318348869669
 30
0.0
  0
VERTEX
  5
210B
  8
0
 10
39.457777867781552
 20
115.6207031507636
 30
0.0
  0
VERTEX
  5
210C
  8
0
 10
39.393668055382307
 20
115.5687472837655
 30
0.0
  0
VERTEX
  5
210D
  8
0
 10
39.360512375344641
 20
115.5429813797012
 30
0.0
  0
VERTEX
  5
210E
  8
0
 10
39.326633054228701
 20
115.51736493402301
 30
0.0
  0
VERTEX
  5
210F
  8
0
 10
39.256736312238282
 20
115.4666044046793
 30
0.0
  0
VERTEX
  5
2110
  8
0
 10
39.184046997616143
 20
115.4165129873743
 30
0.0
  0
VERTEX
  5
2111
  8
0
 10
39.108639671284671
 20
115.36713669925371
 30
0.0
  0
VERTEX
  5
2112
  8
0
 10
39.030593887993007
 20
115.3185200250476
 30
0.0
  0
VERTEX
  5
2113
  8
0
 10
38.949993815255532
 20
115.2707057187182
 30
0.0
  0
VERTEX
  5
2114
  8
0
 10
38.908763655731562
 20
115.2471124503236
 30
0.0
  0
VERTEX
  5
2115
  8
0
 10
38.866929025284328
 20
115.2237352884076
 30
0.0
  0
VERTEX
  5
2116
  8
0
 10
38.781495685757541
 20
115.17764954231311
 30
0.0
  0
VERTEX
  5
2117
  8
0
 10
38.693796528065889
 20
115.1324883443031
 30
0.0
  0
VERTEX
  5
2118
  8
0
 10
38.64913110546258
 20
115.1102665695748
 30
0.0
  0
VERTEX
  5
2119
  8
0
 10
38.603940596348153
 20
115.0882902878743
 30
0.0
  0
VERTEX
  5
211A
  8
0
 10
38.512042923256452
 20
115.0450923828805
 30
0.0
  0
VERTEX
  5
211B
  8
0
 10
38.41822412925189
 20
115.0029297550528
 30
0.0
  0
VERTEX
  5
211C
  8
0
 10
38.370633416923411
 20
114.98224706063201
 30
0.0
  0
VERTEX
  5
211D
  8
0
 10
38.322609940889272
 20
114.9618353583904
 30
0.0
  0
VERTEX
  5
211E
  8
0
 10
38.22524387858153
 20
114.9218048182897
 30
0.0
  0
VERTEX
  5
211F
  8
0
 10
38.125064351611293
 20
114.88241053760279
 30
0.0
  0
VERTEX
  5
2120
  8
0
 10
38.021767389355091
 20
114.84357962252
 30
0.0
  0
VERTEX
  5
2121
  8
0
 10
37.915420802895149
 20
114.8053898897588
 30
0.0
  0
VERTEX
  5
2122
  8
0
 10
37.806100554527532
 20
114.7679169223742
 30
0.0
  0
VERTEX
  5
2123
  8
0
 10
37.750351085802961
 20
114.74947214532391
 30
0.0
  0
VERTEX
  5
2124
  8
0
 10
37.693889982680332
 20
114.7312337092057
 30
0.0
  0
VERTEX
  5
2125
  8
0
 10
37.578878909750323
 20
114.695410312947
 30
0.0
  0
VERTEX
  5
2126
  8
0
 10
37.461162621939494
 20
114.6605135684551
 30
0.0
  0
VERTEX
  5
2127
  8
0
 10
37.340840716319249
 20
114.62660681587541
 30
0.0
  0
VERTEX
  5
2128
  8
0
 10
37.218016782409627
 20
114.593749926896
 30
0.0
  0
VERTEX
  5
2129
  8
0
 10
37.092801186391121
 20
114.5620000966544
 30
0.0
  0
VERTEX
  5
212A
  8
0
 10
37.02933311235126
 20
114.5465575049225
 30
0.0
  0
VERTEX
  5
212B
  8
0
 10
36.965311921536468
 20
114.5314119338904
 30
0.0
  0
VERTEX
  5
212C
  8
0
 10
36.83567375252813
 20
114.502037097048
 30
0.0
  0
VERTEX
  5
212D
  8
0
 10
36.704017226323863
 20
114.4739239614005
 30
0.0
  0
VERTEX
  5
212E
  8
0
 10
36.570477584861422
 20
114.4471173309894
 30
0.0
  0
VERTEX
  5
212F
  8
0
 10
36.435193572833107
 20
114.4216581979033
 30
0.0
  0
VERTEX
  5
2130
  8
0
 10
36.298300835989778
 20
114.39758265272739
 30
0.0
  0
VERTEX
  5
2131
  8
0
 10
36.229279636350959
 20
114.3860716190856
 30
0.0
  0
VERTEX
  5
2132
  8
0
 10
36.15989577356153
 20
114.37491658800781
 30
0.0
  0
VERTEX
  5
2133
  8
0
 10
36.020114930262501
 20
114.3536897921221
 30
0.0
  0
VERTEX
  5
2134
  8
0
 10
35.87911186189708
 20
114.3339305969767
 30
0.0
  0
VERTEX
  5
2135
  8
0
 10
35.73704540928459
 20
114.3156636064091
 30
0.0
  0
VERTEX
  5
2136
  8
0
 10
35.594078480105921
 20
114.29890941123971
 30
0.0
  0
VERTEX
  5
2137
  8
0
 10
35.450376756698297
 20
114.2836843670925
 30
0.0
  0
VERTEX
  5
2138
  8
0
 10
35.37830254635697
 20
114.2766491896641
 30
0.0
  0
VERTEX
  5
2139
  8
0
 10
35.306107327311452
 20
114.27000043720361
 30
0.0
  0
VERTEX
  5
213A
  8
0
 10
35.16143725015008
 20
114.2578651038945
 30
0.0
  0
VERTEX
  5
213B
  8
0
 10
35.016533568945711
 20
114.2472814539978
 30
0.0
  0
VERTEX
  5
213C
  8
0
 10
34.871567400110173
 20
114.23824847689281
 30
0.0
  0
VERTEX
  5
213D
  8
0
 10
34.726714700228968
 20
114.2307609323156
 30
0.0
  0
VERTEX
  5
213E
  8
0
 10
34.582154869401052
 20
114.22480908250181
 30
0.0
  0
VERTEX
  5
213F
  8
0
 10
34.51004142465144
 20
114.2224047216901
 30
0.0
  0
VERTEX
  5
2140
  8
0
 10
34.438069289311052
 20
114.2203785013719
 30
0.0
  0
VERTEX
  5
2141
  8
0
 10
34.294639840703731
 20
114.2174499638665
 30
0.0
  0
VERTEX
  5
2142
  8
0
 10
34.15204739981818
 20
114.2159994150057
 30
0.0
  0
VERTEX
  5
2143
  8
0
 10
34.081120931067296
 20
114.21581955881901
 30
0.0
  0
VERTEX
  5
2144
  8
0
 10
34.01019446231642
 20
114.2159994150057
 30
0.0
  0
VERTEX
  5
2145
  8
0
 10
33.867602021430862
 20
114.2174499638665
 30
0.0
  0
VERTEX
  5
2146
  8
0
 10
33.724172572823541
 20
114.2203785013719
 30
0.0
  0
VERTEX
  5
2147
  8
0
 10
33.652200437483152
 20
114.2224047216901
 30
0.0
  0
VERTEX
  5
2148
  8
0
 10
33.580086992733591
 20
114.22480908250181
 30
0.0
  0
VERTEX
  5
2149
  8
0
 10
33.435527161905682
 20
114.2307609323156
 30
0.0
  0
VERTEX
  5
214A
  8
0
 10
33.29067446202442
 20
114.23824847689281
 30
0.0
  0
VERTEX
  5
214B
  8
0
 10
33.145708293188932
 20
114.2472814539977
 30
0.0
  0
VERTEX
  5
214C
  8
0
 10
33.000804611984513
 20
114.2578651038945
 30
0.0
  0
VERTEX
  5
214D
  8
0
 10
32.856134534823191
 20
114.27000043720361
 30
0.0
  0
VERTEX
  5
214E
  8
0
 10
32.78393931577768
 20
114.2766491896641
 30
0.0
  0
VERTEX
  5
214F
  8
0
 10
32.71186510543631
 20
114.2836843670925
 30
0.0
  0
VERTEX
  5
2150
  8
0
 10
32.568163382028679
 20
114.29890941123971
 30
0.0
  0
VERTEX
  5
2151
  8
0
 10
32.42519645285001
 20
114.3156636064091
 30
0.0
  0
VERTEX
  5
2152
  8
0
 10
32.283130000237591
 20
114.3339305969767
 30
0.0
  0
VERTEX
  5
2153
  8
0
 10
32.142126931872163
 20
114.3536897921221
 30
0.0
  0
VERTEX
  5
2154
  8
0
 10
32.002346088573127
 20
114.37491658800781
 30
0.0
  0
VERTEX
  5
2155
  8
0
 10
31.93296222578363
 20
114.3860716190855
 30
0.0
  0
VERTEX
  5
2156
  8
0
 10
31.863941026144872
 20
114.39758265272739
 30
0.0
  0
VERTEX
  5
2157
  8
0
 10
31.727048289301528
 20
114.4216581979033
 30
0.0
  0
VERTEX
  5
2158
  8
0
 10
31.591764277273182
 20
114.4471173309894
 30
0.0
  0
VERTEX
  5
2159
  8
0
 10
31.45822463581073
 20
114.4739239614005
 30
0.0
  0
VERTEX
  5
215A
  8
0
 10
31.326568109606519
 20
114.502037097048
 30
0.0
  0
VERTEX
  5
215B
  8
0
 10
31.196929940598189
 20
114.5314119338903
 30
0.0
  0
VERTEX
  5
215C
  8
0
 10
31.132908749783329
 20
114.5465575049225
 30
0.0
  0
VERTEX
  5
215D
  8
0
 10
31.069440675743468
 20
114.5620000966544
 30
0.0
  0
VERTEX
  5
215E
  8
0
 10
30.944225079724969
 20
114.593749926896
 30
0.0
  0
VERTEX
  5
215F
  8
0
 10
30.821401145815411
 20
114.62660681587531
 30
0.0
  0
VERTEX
  5
2160
  8
0
 10
30.70107924019517
 20
114.6605135684551
 30
0.0
  0
VERTEX
  5
2161
  8
0
 10
30.583362952384341
 20
114.695410312947
 30
0.0
  0
VERTEX
  5
2162
  8
0
 10
30.468351879454261
 20
114.7312337092057
 30
0.0
  0
VERTEX
  5
2163
  8
0
 10
30.411890776331639
 20
114.74947214532391
 30
0.0
  0
VERTEX
  5
2164
  8
0
 10
30.356141307607071
 20
114.7679169223742
 30
0.0
  0
VERTEX
  5
2165
  8
0
 10
30.246821059239501
 20
114.8053898897588
 30
0.0
  0
VERTEX
  5
2166
  8
0
 10
30.140474472779552
 20
114.84357962252
 30
0.0
  0
VERTEX
  5
2167
  8
0
 10
30.03717751052336
 20
114.88241053760279
 30
0.0
  0
VERTEX
  5
2168
  8
0
 10
29.93699798355312
 20
114.9218048182897
 30
0.0
  0
VERTEX
  5
2169
  8
0
 10
29.839631921245381
 20
114.9618353583904
 30
0.0
  0
VERTEX
  5
216A
  8
0
 10
29.791608445211189
 20
114.98224706063201
 30
0.0
  0
VERTEX
  5
216B
  8
0
 10
29.74401773288276
 20
115.0029297550528
 30
0.0
  0
VERTEX
  5
216C
  8
0
 10
29.650198938878201
 20
115.0450923828805
 30
0.0
  0
VERTEX
  5
216D
  8
0
 10
29.558301265786451
 20
115.0882902878744
 30
0.0
  0
VERTEX
  5
216E
  8
0
 10
29.51311075667201
 20
115.1102665695748
 30
0.0
  0
VERTEX
  5
216F
  8
0
 10
29.468445334068701
 20
115.1324883443031
 30
0.0
  0
VERTEX
  5
2170
  8
0
 10
29.380746176377109
 20
115.17764954231301
 30
0.0
  0
VERTEX
  5
2171
  8
0
 10
29.295312836850322
 20
115.2237352884076
 30
0.0
  0
VERTEX
  5
2172
  8
0
 10
29.253478206403042
 20
115.2471124503236
 30
0.0
  0
VERTEX
  5
2173
  8
0
 10
29.212248046879111
 20
115.2707057187182
 30
0.0
  0
VERTEX
  5
2174
  8
0
 10
29.131647974141579
 20
115.3185200250476
 30
0.0
  0
VERTEX
  5
2175
  8
0
 10
29.053602190849979
 20
115.36713669925371
 30
0.0
  0
VERTEX
  5
2176
  8
0
 10
28.978194864518461
 20
115.4165129873742
 30
0.0
  0
VERTEX
  5
2177
  8
0
 10
28.905505549896311
 20
115.4666044046793
 30
0.0
  0
VERTEX
  5
2178
  8
0
 10
28.835608807905889
 20
115.51736493402289
 30
0.0
  0
VERTEX
  5
2179
  8
0
 10
28.801729486789959
 20
115.5429813797012
 30
0.0
  0
VERTEX
  5
217A
  8
0
 10
28.768573806752279
 20
115.5687472837655
 30
0.0
  0
VERTEX
  5
217B
  8
0
 10
28.704463994353041
 20
115.6207031507636
 30
0.0
  0
VERTEX
  5
217C
  8
0
 10
28.643336837999652
 20
115.67318348869669
 30
0.0
  0
VERTEX
  5
217D
  8
0
 10
28.58524362811432
 20
115.7261387822054
 30
0.0
  0
VERTEX
  5
217E
  8
0
 10
28.53022832071867
 20
115.7795203528987
 30
0.0
  0
VERTEX
  5
217F
  8
0
 10
28.478318087586111
 20
115.8332910494662
 30
0.0
  0
VERTEX
  5
2180
  8
0
 10
28.453537641054769
 20
115.86030785985569
 30
0.0
  0
VERTEX
  5
2181
  8
0
 10
28.429545905472381
 20
115.8874037168428
 30
0.0
  0
VERTEX
  5
2182
  8
0
 10
28.383943156785399
 20
115.9418065462131
 30
0.0
  0
VERTEX
  5
2183
  8
0
 10
28.341535229377609
 20
115.99644721707369
 30
0.0
  0
VERTEX
  5
2184
  8
0
 10
28.321535567154179
 20
116.0238403165544
 30
0.0
  0
SEQEND
  5
2185
  8
0
  0
TEXT
  5
1867
  8
0
 62
     3
 10
0.0
 20
0.0
 30
0.0
 40
10.0
  1
FKFP10-SUS
  7
STANDARD1
  0
ENDSEC
  0
EOF
