  0
SECTION
  2
HEADER
  9
$ACADVER
  1
AC1009
  9
$INSBASE
 10
0.0
 20
0.0
 30
0.0
  9
$EXTMIN
 10
0.0
 20
-2.960436562073669
 30
0.0
  9
$EXTMAX
 10
363.09820077138158
 20
282.66994275431648
 30
0.0
  9
$LIMMIN
 10
0.0
 20
0.0
  9
$LIMMAX
 10
187.5
 20
135.0
  9
$ORTHOMODE
 70
     0
  9
$REGENMODE
 70
     1
  9
$FILLMODE
 70
     1
  9
$QTEXTMODE
 70
     0
  9
$MIRRTEXT
 70
     0
  9
$DRAGMODE
 70
     2
  9
$LTSCALE
 40
10.0
  9
$OSMODE
 70
    55
  9
$ATTMODE
 70
     1
  9
$TEXTSIZE
 40
4.0
  9
$TRACEWID
 40
0.05
  9
$TEXTSTYLE
  7
STANDARD
  9
$CLAYER
  8
0
  9
$CELTYPE
  6
BYLAYER
  9
$CECOLOR
 62
   256
  9
$DIMSCALE
 40
0.5
  9
$DIMASZ
 40
3.0
  9
$DIMEXO
 40
2.0
  9
$DIMDLI
 40
0.38
  9
$DIMRND
 40
0.0
  9
$DIMDLE
 40
0.0
  9
$DIMEXE
 40
2.0
  9
$DIMTP
 40
0.0
  9
$DIMTM
 40
0.0
  9
$DIMTXT
 40
3.0
  9
$DIMCEN
 40
0.0
  9
$DIMTSZ
 40
0.0
  9
$DIMTOL
 70
     0
  9
$DIMLIM
 70
     0
  9
$DIMTIH
 70
     0
  9
$DIMTOH
 70
     0
  9
$DIMSE1
 70
     0
  9
$DIMSE2
 70
     0
  9
$DIMTAD
 70
     1
  9
$DIMZIN
 70
     0
  9
$DIMBLK
  1

  9
$DIMASO
 70
     0
  9
$DIMSHO
 70
     0
  9
$DIMPOST
  1

  9
$DIMAPOST
  1

  9
$DIMALT
 70
     0
  9
$DIMALTD
 70
     2
  9
$DIMALTF
 40
25.399999999999999
  9
$DIMLFAC
 40
1.0
  9
$DIMTOFL
 70
     0
  9
$DIMTVP
 40
1.6000000000000001
  9
$DIMTIX
 70
     1
  9
$DIMSOXD
 70
     0
  9
$DIMSAH
 70
     0
  9
$DIMBLK1
  1

  9
$DIMBLK2
  1

  9
$DIMSTYLE
  2
STANDARD
  9
$DIMCLRD
 70
     0
  9
$DIMCLRE
 70
     0
  9
$DIMCLRT
 70
     0
  9
$DIMTFAC
 40
1.0
  9
$DIMGAP
 40
0.09
  9
$LUNITS
 70
     2
  9
$LUPREC
 70
     4
  9
$SKETCHINC
 40
0.1
  9
$FILLETRAD
 40
1.25
  9
$AUNITS
 70
     0
  9
$AUPREC
 70
     0
  9
$MENU
  1
E:\r13\win\SUPPORT\ACAD
  9
$ELEVATION
 40
0.0
  9
$PELEVATION
 40
0.0
  9
$THICKNESS
 40
0.0
  9
$LIMCHECK
 70
     0
  9
$BLIPMODE
 70
     0
  9
$CHAMFERA
 40
0.0
  9
$CHAMFERB
 40
0.0
  9
$SKPOLY
 70
     0
  9
$TDCREATE
 40
2449840.6143865739
  9
$TDUPDATE
 40
2456598.6544734142
  9
$TDINDWG
 40
0.2365711574
  9
$TDUSRTIMER
 40
0.2365711574
  9
$USRTIMER
 70
     1
  9
$ANGBASE
 50
0.0
  9
$ANGDIR
 70
     0
  9
$PDMODE
 70
     0
  9
$PDSIZE
 40
0.0
  9
$PLINEWID
 40
0.0
  9
$COORDS
 70
     1
  9
$SPLFRAME
 70
     0
  9
$SPLINETYPE
 70
     6
  9
$SPLINESEGS
 70
     8
  9
$ATTDIA
 70
     0
  9
$ATTREQ
 70
     1
  9
$HANDLING
 70
     1
  9
$HANDSEED
  5
1495
  9
$SURFTAB1
 70
     6
  9
$SURFTAB2
 70
     6
  9
$SURFTYPE
 70
     6
  9
$SURFU
 70
     6
  9
$SURFV
 70
     6
  9
$UCSNAME
  2

  9
$UCSORG
 10
0.0
 20
0.0
 30
0.0
  9
$UCSXDIR
 10
1.0
 20
0.0
 30
0.0
  9
$UCSYDIR
 10
0.0
 20
1.0
 30
0.0
  9
$PUCSNAME
  2

  9
$PUCSORG
 10
0.0
 20
0.0
 30
0.0
  9
$PUCSXDIR
 10
1.0
 20
0.0
 30
0.0
  9
$PUCSYDIR
 10
0.0
 20
1.0
 30
0.0
  9
$USERI1
 70
     0
  9
$USERI2
 70
     1
  9
$USERI3
 70
     1
  9
$USERI4
 70
     0
  9
$USERI5
 70
     0
  9
$USERR1
 40
0.0
  9
$USERR2
 40
0.0
  9
$USERR3
 40
0.0
  9
$USERR4
 40
0.0
  9
$USERR5
 40
0.0
  9
$WORLDVIEW
 70
     1
  9
$SHADEDGE
 70
     3
  9
$SHADEDIF
 70
    70
  9
$TILEMODE
 70
     1
  9
$MAXACTVP
 70
    16
  9
$PLIMCHECK
 70
     0
  9
$PEXTMIN
 10
1.0000000000000000E+020
 20
1.0000000000000000E+020
 30
1.0000000000000000E+020
  9
$PEXTMAX
 10
-1.0000000000000000E+020
 20
-1.0000000000000000E+020
 30
-1.0000000000000000E+020
  9
$PLIMMIN
 10
0.0
 20
0.0
  9
$PLIMMAX
 10
12.0
 20
9.0
  9
$UNITMODE
 70
     0
  9
$VISRETAIN
 70
     0
  9
$PLINEGEN
 70
     0
  9
$PSLTSCALE
 70
     0
  0
ENDSEC
  0
SECTION
  2
TABLES
  0
TABLE
  2
VPORT
 70
     1
  0
VPORT
  2
*ACTIVE
 70
     0
 10
0.0
 20
0.0
 11
1.0
 21
1.0
 12
181.5491012310946
 22
183.18307253027621
 13
0.0
 23
0.0
 14
5.0
 24
5.0
 15
5.0
 25
5.0
 16
0.0
 26
0.0
 36
1.0
 17
0.0
 27
0.0
 37
0.0
 40
375.57572033837857
 41
1.7807262569832401
 42
50.0
 43
0.0
 44
0.0
 50
0.0
 51
0.0
 71
     0
 72
   100
 73
     1
 74
     0
 75
     0
 76
     0
 77
     0
 78
     0
  0
ENDTAB
  0
TABLE
  2
LTYPE
 70
     3
  0
LTYPE
  2
CONTINUOUS
 70
     0
  3
Solid Line
 72
    65
 73
     0
 40
0.0
  0
LTYPE
  2
CENTER
 70
     0
  3
____ _ ____ _ ____ _ ____ _ ____ _ ____ _ ____
 72
    65
 73
     4
 40
2.0
 49
1.25
 49
-0.25
 49
0.25
 49
-0.25
  0
LTYPE
  2
PHANTOM2
 70
     0
  3
___ _ _ ___ _ _ ___ _ _ ___ _ _
 72
    65
 73
     6
 40
1.25
 49
0.625
 49
-0.125
 49
0.125
 49
-0.125
 49
0.125
 49
-0.125
  0
ENDTAB
  0
TABLE
  2
LAYER
 70
     3
  0
LAYER
  2
0
 70
     0
 62
     7
  6
CONTINUOUS
  0
LAYER
  2
1
 70
     0
 62
     1
  6
CENTER
  0
LAYER
  2
3
 70
     0
 62
     3
  6
CONTINUOUS
  0
ENDTAB
  0
TABLE
  2
STYLE
 70
     2
  0
STYLE
  2
STANDARD
 70
     0
 40
0.0
 41
1.0
 50
0.0
 71
     0
 42
4.0
  3
TXT
  4
BIGFONT
  0
STYLE
  2
STANDARD1
 70
     0
 40
0.0
 41
1.0
 50
0.0
 71
     0
 42
3.0
  3
txt
  4

  0
ENDTAB
  0
TABLE
  2
VIEW
 70
     1
  0
VIEW
  2
ALL
 70
     0
 40
179.66152299999999
 10
141.903918
 20
89.830760999999995
 41
0.0
 11
0.0
 21
0.0
 31
1.0
 12
0.0
 22
0.0
 32
0.0
 42
0.0
 43
0.0
 44
0.0
 50
0.0
 71
     0
  0
ENDTAB
  0
TABLE
  2
UCS
 70
     0
  0
ENDTAB
  0
TABLE
  2
APPID
 70
     4
  0
APPID
  2
ACAD
 70
     0
  0
APPID
  2
DCO15
 70
     0
  0
APPID
  2
ACAD_MLEADERVER
 70
     0
  0
APPID
  2
ACAD_NAV_VCDISPLAY
 70
     0
  0
ENDTAB
  0
TABLE
  2
DIMSTYLE
 70
     1
  0
DIMSTYLE
  2
STANDARD
 70
     0
  3

  4

  5

  6

  7

 40
1.0
 41
0.18
 42
0.0625
 43
0.38
 44
0.18
 45
0.0
 46
0.0
 47
0.0
 48
0.0
140
0.18
141
0.09
142
0.0
143
25.399999999999999
144
1.0
145
0.0
146
1.0
147
0.09
 71
     0
 72
     0
 73
     1
 74
     1
 75
     0
 76
     0
 77
     0
 78
     0
170
     0
171
     2
172
     0
173
     0
174
     0
175
     0
176
     0
177
     0
178
     0
  0
ENDTAB
  0
ENDSEC
  0
SECTION
  2
BLOCKS
  0
BLOCK
  8
0
  2
$MODEL_SPACE
 70
     0
 10
0.0
 20
0.0
 30
0.0
  3
$MODEL_SPACE
  1

  0
ENDBLK
  5
1BD
  8
0
  0
BLOCK
 67
     1
  8
0
  2
$PAPER_SPACE
 70
     0
 10
0.0
 20
0.0
 30
0.0
  3
$PAPER_SPACE
  1

  0
ENDBLK
  5
1BB
 67
     1
  8
0
  0
ENDSEC
  0
SECTION
  2
ENTITIES
  0
LINE
  5
104A
  8
0
 10
181.38038095782861
 20
169.37359013238361
 30
0.0
 11
181.38038095782869
 21
150.75468329607699
 31
0.0
  0
LINE
  5
104B
  8
0
 10
202.38038095782869
 20
150.75468329607699
 30
0.0
 11
202.38038095782869
 21
164.75468329607699
 31
0.0
  0
LINE
  5
104C
  8
0
 10
258.26331356166111
 20
182.81468329607711
 30
0.0
 11
248.22486311217239
 21
182.81468329607711
 31
0.0
  0
LINE
  5
104D
  8
0
 10
266.64992728769408
 20
185.08598987136091
 30
0.0
 11
261.65156653203047
 21
183.40385563116931
 31
0.0
  0
LINE
  5
104E
  8
0
 10
202.38038095782869
 20
150.75468329607699
 30
0.0
 11
181.38038095782869
 21
150.75468329607699
 31
0.0
  0
LINE
  5
104F
  8
1
 10
191.88038095782861
 20
182.75468329607699
 30
0.0
 11
191.88038095782869
 21
115.754683296077
 31
0.0
  0
LINE
  5
1051
  8
0
 10
199.89038095782871
 20
140.75468329607699
 30
0.0
 11
199.89038095782871
 21
150.75468329607699
 31
0.0
  0
LINE
  5
1052
  8
0
 10
183.89038095782871
 20
150.75468329607699
 30
0.0
 11
183.89038095782871
 21
140.75468329607699
 31
0.0
  0
LINE
  5
1054
  8
0
 10
183.89038095782871
 20
140.75468329607699
 30
0.0
 11
199.89038095782871
 21
140.75468329607699
 31
0.0
  0
ARC
  5
1062
  8
0
 10
292.5961345684795
 20
-73.735434651376522
 30
0.0
 40
270.0
 50
94.957086921350097
 51
113.6996745048306
  0
LINE
  5
1063
  8
0
 10
269.26554420700211
 20
195.25468329607699
 30
0.0
 11
269.89038095782871
 21
195.25468329607699
 31
0.0
  0
LINE
  5
1064
  8
0
 10
271.89038095782871
 20
193.25468329607699
 30
0.0
 11
271.89038095782871
 21
191.21979545430301
 31
0.0
  0
ARC
  5
1065
  8
0
 10
269.89038095782871
 20
193.25468329607699
 30
0.0
 40
2.0
 50
0.0
 51
90.0
  0
ARC
  5
1066
  8
0
 10
185.88038095782869
 20
169.37359013238361
 30
0.0
 40
4.5
 50
113.6996745048306
 51
180.0
  0
ARC
  5
1067
  8
0
 10
319.17803782013681
 20
-61.905251208463248
 30
0.0
 40
255.0
 50
106.4878909565075
 51
117.2600616186912
  0
ARC
  5
1068
  8
0
 10
248.22486311217239
 20
177.81468329607711
 30
0.0
 40
5.0
 50
90.0
 51
106.48789095650569
  0
ARC
  5
1069
  8
0
 10
264.46286976045252
 20
192.26002495439019
 30
0.0
 40
7.5
 50
286.95422943661129
 51
352.02753029962417
  0
LINE
  5
106A
  8
0
 10
181.38038095782861
 20
263.42342153923107
 30
0.0
 11
181.38038095782861
 21
269.916463969402
 31
0.0
  0
CIRCLE
  5
1078
  8
0
 10
192.84196971627961
 20
266.66994275431648
 30
0.0
 40
6.5992762682978654
  0
LINE
  5
1079
  8
1
 10
191.89038095782871
 20
282.66994275431648
 30
0.0
 11
191.89038095782871
 21
250.66994275431651
 31
0.0
  0
LINE
  5
107A
  8
1
 10
276.89038095782871
 20
266.66994275431648
 30
0.0
 11
176.38038095782869
 21
266.66994275431648
 31
0.0
  0
ARC
  5
107B
  8
0
 10
191.89038095782871
 20
266.66994275431648
 30
0.0
 40
11.0
 50
197.16583016485521
 51
297.66428518543768
  0
ARC
  5
107C
  8
0
 10
266.39038095782871
 20
266.66994275431648
 30
0.0
 40
5.5
 50
270.0
 51
90.0
  0
ARC
  5
107D
  8
0
 10
214.95944424969551
 20
323.07476756269682
 30
0.0
 40
50.0
 50
248.9466271382876
 51
278.79596523459998
  0
LINE
  5
107E
  8
0
 10
266.39038095782871
 20
272.16994275431648
 30
0.0
 11
223.5504400032531
 21
273.71835140592418
 31
0.0
  0
ARC
  5
107F
  8
0
 10
223.3698377203329
 20
268.72161418895911
 30
0.0
 40
5.0
 50
87.929999999999524
 51
98.795965234600004
  0
LINE
  5
1080
  8
0
 10
266.39038095782871
 20
261.16994275431648
 30
0.0
 11
223.5504400032531
 21
259.62153410270889
 31
0.0
  0
ARC
  5
1081
  8
0
 10
214.95944424969551
 20
210.2651179459362
 30
0.0
 40
50.0
 50
81.204034765399996
 51
111.0533728617124
  0
ARC
  5
1082
  8
0
 10
223.3698377203329
 20
264.61827131967391
 30
0.0
 40
5.0
 50
261.20403476540002
 51
272.0700000000005
  0
ARC
  5
1083
  8
0
 10
191.89038095782871
 20
266.66994275431648
 30
0.0
 40
11.0
 50
62.335714814562287
 51
162.83416983514471
  0
LINE
  5
1084
  8
0
 10
266.39038095782871
 20
54.019945623442027
 30
0.0
 11
223.5504400032531
 21
55.568354275049728
 31
0.0
  0
LINE
  5
1085
  8
0
 10
266.39038095782871
 20
43.01994562344202
 30
0.0
 11
223.5504400032531
 21
41.471536971834432
 31
0.0
  0
LINE
  5
1086
  8
1
 10
276.89038095782871
 20
48.51994562344202
 30
0.0
 11
176.38038095782869
 21
48.51994562344202
 31
0.0
  0
ARC
  5
1087
  8
0
 10
214.95944424969551
 20
104.9247704318224
 30
0.0
 40
50.0
 50
248.9466271382876
 51
278.79596523459998
  0
ARC
  5
1088
  8
0
 10
214.95944424969551
 20
-7.8848791849382556
 30
0.0
 40
50.0
 50
81.204034765399996
 51
111.0533728617124
  0
LINE
  5
1089
  8
1
 10
191.89038095782871
 20
64.519945623442027
 30
0.0
 11
191.89038095782871
 21
32.519945623442027
 31
0.0
  0
ARC
  5
108A
  8
0
 10
191.89038095782871
 20
48.51994562344202
 30
0.0
 40
11.0
 50
62.335714814562287
 51
162.83416983514471
  0
ARC
  5
108B
  8
0
 10
191.89038095782871
 20
48.51994562344202
 30
0.0
 40
11.0
 50
197.16583016485521
 51
297.66428518543768
  0
LINE
  5
108C
  8
0
 10
181.38038095782869
 20
45.273424408356618
 30
0.0
 11
181.38038095782869
 21
51.766466838527492
 31
0.0
  0
ARC
  5
108D
  8
0
 10
223.3698377203329
 20
46.468274188799448
 30
0.0
 40
5.0
 50
261.20403476540002
 51
272.0700000000005
  0
ARC
  5
108E
  8
0
 10
223.3698377203329
 20
50.571617058084598
 30
0.0
 40
5.0
 50
87.929999999999524
 51
98.795965234600004
  0
ARC
  5
108F
  8
0
 10
266.39038095782871
 20
48.51994562344202
 30
0.0
 40
5.5
 50
270.0
 51
90.0
  0
CIRCLE
  5
1090
  8
0
 10
191.89038095782871
 20
48.51994562344202
 30
0.0
 40
8.0
  0
CIRCLE
  5
1091
  8
0
 10
191.89038095782871
 20
48.51994562344202
 30
0.0
 40
10.5
  0
CIRCLE
  5
1092
  8
3
 10
191.89038095782871
 20
48.51994562344202
 30
0.0
 40
4.0
  0
CIRCLE
  5
1093
  8
0
 10
191.89038095782871
 20
48.51994562344202
 30
0.0
 40
5.0
  0
LINE
  5
1096
  8
0
 10
104.92355595794059
 20
140.75468329607699
 30
0.0
 11
104.92355595794059
 21
150.75468329607699
 31
0.0
  0
LINE
  5
1097
  8
0
 10
88.923555957940565
 20
150.75468329607699
 30
0.0
 11
88.923555957940565
 21
140.75468329607699
 31
0.0
  0
LINE
  5
1099
  8
0
 10
91.623555957940567
 20
173.50468329607699
 30
0.0
 11
102.2235559579405
 21
173.50468329607699
 31
0.0
  0
LINE
  5
109A
  8
0
 10
88.923555957940565
 20
140.75468329607699
 30
0.0
 11
104.92355595794059
 21
140.75468329607699
 31
0.0
  0
LINE
  5
109B
  8
1
 10
96.923555957940621
 20
200.25468329607699
 30
0.0
 11
96.923555957940621
 21
115.754683296077
 31
0.0
  0
LINE
  5
109C
  8
0
 10
101.5111425606846
 20
195.25468329607699
 30
0.0
 11
92.335969355196454
 21
195.25468329607699
 31
0.0
  0
LINE
  5
109D
  8
0
 10
107.42355595794059
 20
150.75468329607699
 30
0.0
 11
86.423555957940565
 21
150.75468329607699
 31
0.0
  0
LINE
  5
109E
  8
0
 10
91.623555957940567
 20
173.50468329607699
 30
0.0
 11
102.2235559579405
 21
173.50468329607699
 31
0.0
  0
POLYLINE
  5
109F
  8
0
 10
90.361606717223495
 20
177.05399278778276
 30
0.0
 66
     1
 70
     8
  0
VERTEX
  8
0
  5
1391
 10
90.3616
 20
177.054
 30
0.000000
  70
    32
  0
VERTEX
  8
0
  5
1392
 10
90.3721
 20
176.932
 30
0.000000
  70
    32
  0
VERTEX
  8
0
  5
1393
 10
90.3983
 20
176.810
 30
0.000000
  70
    32
  0
VERTEX
  8
0
  5
1394
 10
90.4403
 20
176.689
 30
0.000000
  70
    32
  0
VERTEX
  8
0
  5
1395
 10
90.4979
 20
176.570
 30
0.000000
  70
    32
  0
VERTEX
  8
0
  5
1396
 10
90.5710
 20
176.451
 30
0.000000
  70
    32
  0
VERTEX
  8
0
  5
1397
 10
90.6594
 20
176.335
 30
0.000000
  70
    32
  0
VERTEX
  8
0
  5
1398
 10
90.7629
 20
176.221
 30
0.000000
  70
    32
  0
VERTEX
  8
0
  5
1399
 10
90.8812
 20
176.109
 30
0.000000
  70
    32
  0
VERTEX
  8
0
  5
139A
 10
91.0141
 20
176.000
 30
0.000000
  70
    32
  0
VERTEX
  8
0
  5
139B
 10
91.1612
 20
175.893
 30
0.000000
  70
    32
  0
VERTEX
  8
0
  5
139C
 10
91.3222
 20
175.790
 30
0.000000
  70
    32
  0
VERTEX
  8
0
  5
139D
 10
91.4966
 20
175.690
 30
0.000000
  70
    32
  0
VERTEX
  8
0
  5
139E
 10
91.6842
 20
175.594
 30
0.000000
  70
    32
  0
VERTEX
  8
0
  5
139F
 10
91.8844
 20
175.501
 30
0.000000
  70
    32
  0
VERTEX
  8
0
  5
13A0
 10
92.0967
 20
175.413
 30
0.000000
  70
    32
  0
VERTEX
  8
0
  5
13A1
 10
92.3207
 20
175.329
 30
0.000000
  70
    32
  0
VERTEX
  8
0
  5
13A2
 10
92.5557
 20
175.249
 30
0.000000
  70
    32
  0
VERTEX
  8
0
  5
13A3
 10
92.8013
 20
175.174
 30
0.000000
  70
    32
  0
VERTEX
  8
0
  5
13A4
 10
93.0567
 20
175.104
 30
0.000000
  70
    32
  0
VERTEX
  8
0
  5
13A5
 10
93.3216
 20
175.039
 30
0.000000
  70
    32
  0
VERTEX
  8
0
  5
13A6
 10
93.5950
 20
174.979
 30
0.000000
  70
    32
  0
VERTEX
  8
0
  5
13A7
 10
93.8765
 20
174.925
 30
0.000000
  70
    32
  0
VERTEX
  8
0
  5
13A8
 10
94.1654
 20
174.876
 30
0.000000
  70
    32
  0
VERTEX
  8
0
  5
13A9
 10
94.4609
 20
174.832
 30
0.000000
  70
    32
  0
VERTEX
  8
0
  5
13AA
 10
94.7623
 20
174.795
 30
0.000000
  70
    32
  0
VERTEX
  8
0
  5
13AB
 10
95.0689
 20
174.762
 30
0.000000
  70
    32
  0
VERTEX
  8
0
  5
13AC
 10
95.3800
 20
174.736
 30
0.000000
  70
    32
  0
VERTEX
  8
0
  5
13AD
 10
95.6948
 20
174.716
 30
0.000000
  70
    32
  0
VERTEX
  8
0
  5
13AE
 10
96.0126
 20
174.702
 30
0.000000
  70
    32
  0
VERTEX
  8
0
  5
13AF
 10
96.3326
 20
174.694
 30
0.000000
  70
    32
  0
VERTEX
  8
0
  5
13B0
 10
96.6540
 20
174.691
 30
0.000000
  70
    32
  0
VERTEX
  8
0
  5
13B1
 10
96.9760
 20
174.695
 30
0.000000
  70
    32
  0
VERTEX
  8
0
  5
13B2
 10
97.2979
 20
174.705
 30
0.000000
  70
    32
  0
VERTEX
  8
0
  5
13B3
 10
97.6190
 20
174.721
 30
0.000000
  70
    32
  0
VERTEX
  8
0
  5
13B4
 10
97.9383
 20
174.742
 30
0.000000
  70
    32
  0
VERTEX
  8
0
  5
13B5
 10
98.2552
 20
174.770
 30
0.000000
  70
    32
  0
VERTEX
  8
0
  5
13B6
 10
98.5689
 20
174.803
 30
0.000000
  70
    32
  0
VERTEX
  8
0
  5
13B7
 10
98.8786
 20
174.843
 30
0.000000
  70
    32
  0
VERTEX
  8
0
  5
13B8
 10
99.1836
 20
174.887
 30
0.000000
  70
    32
  0
VERTEX
  8
0
  5
13B9
 10
99.4832
 20
174.938
 30
0.000000
  70
    32
  0
VERTEX
  8
0
  5
13BA
 10
99.7766
 20
174.994
 30
0.000000
  70
    32
  0
VERTEX
  8
0
  5
13BB
 10
100.063
 20
175.055
 30
0.000000
  70
    32
  0
VERTEX
  8
0
  5
13BC
 10
100.342
 20
175.121
 30
0.000000
  70
    32
  0
VERTEX
  8
0
  5
13BD
 10
100.613
 20
175.192
 30
0.000000
  70
    32
  0
VERTEX
  8
0
  5
13BE
 10
100.875
 20
175.269
 30
0.000000
  70
    32
  0
VERTEX
  8
0
  5
13BF
 10
101.127
 20
175.349
 30
0.000000
  70
    32
  0
VERTEX
  8
0
  5
13C0
 10
101.369
 20
175.434
 30
0.000000
  70
    32
  0
VERTEX
  8
0
  5
13C1
 10
101.601
 20
175.524
 30
0.000000
  70
    32
  0
VERTEX
  8
0
  5
13C2
 10
101.821
 20
175.617
 30
0.000000
  70
    32
  0
VERTEX
  8
0
  5
13C3
 10
102.029
 20
175.714
 30
0.000000
  70
    32
  0
VERTEX
  8
0
  5
13C4
 10
102.225
 20
175.815
 30
0.000000
  70
    32
  0
VERTEX
  8
0
  5
13C5
 10
102.409
 20
175.919
 30
0.000000
  70
    32
  0
VERTEX
  8
0
  5
13C6
 10
102.579
 20
176.026
 30
0.000000
  70
    32
  0
VERTEX
  8
0
  5
13C7
 10
102.735
 20
176.136
 30
0.000000
  70
    32
  0
VERTEX
  8
0
  5
13C8
 10
102.878
 20
176.249
 30
0.000000
  70
    32
  0
VERTEX
  8
0
  5
13C9
 10
103.006
 20
176.364
 30
0.000000
  70
    32
  0
VERTEX
  8
0
  5
13CA
 10
103.120
 20
176.481
 30
0.000000
  70
    32
  0
VERTEX
  8
0
  5
13CB
 10
103.218
 20
176.599
 30
0.000000
  70
    32
  0
VERTEX
  8
0
  5
13CC
 10
103.302
 20
176.719
 30
0.000000
  70
    32
  0
VERTEX
  8
0
  5
13CD
 10
103.370
 20
176.840
 30
0.000000
  70
    32
  0
VERTEX
  8
0
  5
13CE
 10
103.422
 20
176.962
 30
0.000000
  70
    32
  0
VERTEX
  8
0
  5
13CF
 10
103.459
 20
177.084
 30
0.000000
  70
    32
  0
VERTEX
  8
0
  5
13D0
 10
103.480
 20
177.207
 30
0.000000
  70
    32
  0
VERTEX
  8
0
  5
13D1
 10
103.486
 20
177.330
 30
0.000000
  70
    32
  0
VERTEX
  8
0
  5
13D2
 10
103.475
 20
177.452
 30
0.000000
  70
    32
  0
VERTEX
  8
0
  5
13D3
 10
103.449
 20
177.574
 30
0.000000
  70
    32
  0
VERTEX
  8
0
  5
13D4
 10
103.407
 20
177.695
 30
0.000000
  70
    32
  0
VERTEX
  8
0
  5
13D5
 10
103.349
 20
177.814
 30
0.000000
  70
    32
  0
VERTEX
  8
0
  5
13D6
 10
103.276
 20
177.932
 30
0.000000
  70
    32
  0
VERTEX
  8
0
  5
13D7
 10
103.188
 20
178.049
 30
0.000000
  70
    32
  0
VERTEX
  8
0
  5
13D8
 10
103.084
 20
178.163
 30
0.000000
  70
    32
  0
VERTEX
  8
0
  5
13D9
 10
102.966
 20
178.275
 30
0.000000
  70
    32
  0
VERTEX
  8
0
  5
13DA
 10
102.833
 20
178.384
 30
0.000000
  70
    32
  0
VERTEX
  8
0
  5
13DB
 10
102.686
 20
178.490
 30
0.000000
  70
    32
  0
VERTEX
  8
0
  5
13DC
 10
102.525
 20
178.594
 30
0.000000
  70
    32
  0
VERTEX
  8
0
  5
13DD
 10
102.350
 20
178.694
 30
0.000000
  70
    32
  0
VERTEX
  8
0
  5
13DE
 10
102.163
 20
178.790
 30
0.000000
  70
    32
  0
VERTEX
  8
0
  5
13DF
 10
101.963
 20
178.882
 30
0.000000
  70
    32
  0
VERTEX
  8
0
  5
13E0
 10
101.750
 20
178.971
 30
0.000000
  70
    32
  0
VERTEX
  8
0
  5
13E1
 10
101.526
 20
179.055
 30
0.000000
  70
    32
  0
VERTEX
  8
0
  5
13E2
 10
101.291
 20
179.135
 30
0.000000
  70
    32
  0
VERTEX
  8
0
  5
13E3
 10
101.046
 20
179.209
 30
0.000000
  70
    32
  0
VERTEX
  8
0
  5
13E4
 10
100.790
 20
179.280
 30
0.000000
  70
    32
  0
VERTEX
  8
0
  5
13E5
 10
100.526
 20
179.345
 30
0.000000
  70
    32
  0
VERTEX
  8
0
  5
13E6
 10
100.252
 20
179.404
 30
0.000000
  70
    32
  0
VERTEX
  8
0
  5
13E7
 10
99.9706
 20
179.459
 30
0.000000
  70
    32
  0
VERTEX
  8
0
  5
13E8
 10
99.6817
 20
179.508
 30
0.000000
  70
    32
  0
VERTEX
  8
0
  5
13E9
 10
99.3862
 20
179.551
 30
0.000000
  70
    32
  0
VERTEX
  8
0
  5
13EA
 10
99.0848
 20
179.589
 30
0.000000
  70
    32
  0
VERTEX
  8
0
  5
13EB
 10
98.7782
 20
179.621
 30
0.000000
  70
    32
  0
VERTEX
  8
0
  5
13EC
 10
98.4671
 20
179.647
 30
0.000000
  70
    32
  0
VERTEX
  8
0
  5
13ED
 10
98.1523
 20
179.668
 30
0.000000
  70
    32
  0
VERTEX
  8
0
  5
13EE
 10
97.8345
 20
179.682
 30
0.000000
  70
    32
  0
VERTEX
  8
0
  5
13EF
 10
97.5145
 20
179.690
 30
0.000000
  70
    32
  0
VERTEX
  8
0
  5
13F0
 10
97.1931
 20
179.693
 30
0.000000
  70
    32
  0
VERTEX
  8
0
  5
13F1
 10
96.8711
 20
179.689
 30
0.000000
  70
    32
  0
VERTEX
  8
0
  5
13F2
 10
96.5492
 20
179.679
 30
0.000000
  70
    32
  0
VERTEX
  8
0
  5
13F3
 10
96.2282
 20
179.663
 30
0.000000
  70
    32
  0
VERTEX
  8
0
  5
13F4
 10
95.9088
 20
179.641
 30
0.000000
  70
    32
  0
VERTEX
  8
0
  5
13F5
 10
95.5919
 20
179.614
 30
0.000000
  70
    32
  0
VERTEX
  8
0
  5
13F6
 10
95.2782
 20
179.580
 30
0.000000
  70
    32
  0
VERTEX
  8
0
  5
13F7
 10
94.9685
 20
179.541
 30
0.000000
  70
    32
  0
VERTEX
  8
0
  5
13F8
 10
94.6635
 20
179.496
 30
0.000000
  70
    32
  0
VERTEX
  8
0
  5
13F9
 10
94.3639
 20
179.446
 30
0.000000
  70
    32
  0
VERTEX
  8
0
  5
13FA
 10
94.0705
 20
179.390
 30
0.000000
  70
    32
  0
VERTEX
  8
0
  5
13FB
 10
93.7840
 20
179.329
 30
0.000000
  70
    32
  0
VERTEX
  8
0
  5
13FC
 10
93.5050
 20
179.263
 30
0.000000
  70
    32
  0
VERTEX
  8
0
  5
13FD
 10
93.2343
 20
179.191
 30
0.000000
  70
    32
  0
VERTEX
  8
0
  5
13FE
 10
92.9725
 20
179.115
 30
0.000000
  70
    32
  0
VERTEX
  8
0
  5
13FF
 10
92.7201
 20
179.035
 30
0.000000
  70
    32
  0
VERTEX
  8
0
  5
1400
 10
92.4779
 20
178.949
 30
0.000000
  70
    32
  0
VERTEX
  8
0
  5
1401
 10
92.2465
 20
178.860
 30
0.000000
  70
    32
  0
VERTEX
  8
0
  5
1402
 10
92.0262
 20
178.767
 30
0.000000
  70
    32
  0
VERTEX
  8
0
  5
1403
 10
91.8178
 20
178.669
 30
0.000000
  70
    32
  0
VERTEX
  8
0
  5
1404
 10
91.6217
 20
178.569
 30
0.000000
  70
    32
  0
VERTEX
  8
0
  5
1405
 10
91.4383
 20
178.464
 30
0.000000
  70
    32
  0
VERTEX
  8
0
  5
1406
 10
91.2682
 20
178.357
 30
0.000000
  70
    32
  0
VERTEX
  8
0
  5
1407
 10
91.1117
 20
178.247
 30
0.000000
  70
    32
  0
VERTEX
  8
0
  5
1408
 10
90.9692
 20
178.135
 30
0.000000
  70
    32
  0
VERTEX
  8
0
  5
1409
 10
90.8410
 20
178.020
 30
0.000000
  70
    32
  0
VERTEX
  8
0
  5
140A
 10
90.7275
 20
177.903
 30
0.000000
  70
    32
  0
VERTEX
  8
0
  5
140B
 10
90.6289
 20
177.785
 30
0.000000
  70
    32
  0
VERTEX
  8
0
  5
140C
 10
90.5455
 20
177.665
 30
0.000000
  70
    32
  0
VERTEX
  8
0
  5
140D
 10
90.4775
 20
177.544
 30
0.000000
  70
    32
  0
VERTEX
  8
0
  5
140E
 10
90.4249
 20
177.422
 30
0.000000
  70
    32
  0
VERTEX
  8
0
  5
140F
 10
90.3881
 20
177.299
 30
0.000000
  70
    32
  0
VERTEX
  8
0
  5
1410
 10
90.3669
 20
177.177
 30
0.000000
  70
    32
  0
VERTEX
  8
0
  5
1411
 10
90.3616
 20
177.054
 30
0.000000
  70
    32
  0
SEQEND
  8
0
  5
1412
  0
LINE
  5
10A0
  8
0
 10
104.0858744500661
 20
173.4940820778711
 30
0.0
 11
89.761237465815043
 21
173.4940820778711
 31
0.0
  0
POLYLINE
  5
10A1
  8
0
 10
104.08587445006614
 20
173.49408207787104
 30
0.0
 66
     1
 70
     8
  0
VERTEX
  8
0
  5
1413
 10
104.086
 20
173.494
 30
0.000000
  70
    32
  0
VERTEX
  8
0
  5
1414
 10
104.398
 20
173.606
 30
0.000000
  70
    32
  0
VERTEX
  8
0
  5
1415
 10
104.699
 20
173.723
 30
0.000000
  70
    32
  0
VERTEX
  8
0
  5
1416
 10
104.989
 20
173.844
 30
0.000000
  70
    32
  0
VERTEX
  8
0
  5
1417
 10
105.267
 20
173.969
 30
0.000000
  70
    32
  0
VERTEX
  8
0
  5
1418
 10
105.534
 20
174.099
 30
0.000000
  70
    32
  0
VERTEX
  8
0
  5
1419
 10
105.788
 20
174.232
 30
0.000000
  70
    32
  0
VERTEX
  8
0
  5
141A
 10
106.029
 20
174.370
 30
0.000000
  70
    32
  0
VERTEX
  8
0
  5
141B
 10
106.257
 20
174.511
 30
0.000000
  70
    32
  0
VERTEX
  8
0
  5
141C
 10
106.471
 20
174.655
 30
0.000000
  70
    32
  0
VERTEX
  8
0
  5
141D
 10
106.672
 20
174.803
 30
0.000000
  70
    32
  0
VERTEX
  8
0
  5
141E
 10
106.858
 20
174.953
 30
0.000000
  70
    32
  0
VERTEX
  8
0
  5
141F
 10
107.030
 20
175.106
 30
0.000000
  70
    32
  0
VERTEX
  8
0
  5
1420
 10
107.188
 20
175.262
 30
0.000000
  70
    32
  0
VERTEX
  8
0
  5
1421
 10
107.331
 20
175.420
 30
0.000000
  70
    32
  0
VERTEX
  8
0
  5
1422
 10
107.458
 20
175.580
 30
0.000000
  70
    32
  0
VERTEX
  8
0
  5
1423
 10
107.571
 20
175.742
 30
0.000000
  70
    32
  0
VERTEX
  8
0
  5
1424
 10
107.668
 20
175.906
 30
0.000000
  70
    32
  0
VERTEX
  8
0
  5
1425
 10
107.750
 20
176.071
 30
0.000000
  70
    32
  0
VERTEX
  8
0
  5
1426
 10
107.816
 20
176.237
 30
0.000000
  70
    32
  0
VERTEX
  8
0
  5
1427
 10
107.866
 20
176.404
 30
0.000000
  70
    32
  0
VERTEX
  8
0
  5
1428
 10
107.901
 20
176.572
 30
0.000000
  70
    32
  0
VERTEX
  8
0
  5
1429
 10
107.919
 20
176.740
 30
0.000000
  70
    32
  0
VERTEX
  8
0
  5
142A
 10
107.922
 20
176.908
 30
0.000000
  70
    32
  0
VERTEX
  8
0
  5
142B
 10
107.909
 20
177.076
 30
0.000000
  70
    32
  0
VERTEX
  8
0
  5
142C
 10
107.880
 20
177.244
 30
0.000000
  70
    32
  0
VERTEX
  8
0
  5
142D
 10
107.835
 20
177.411
 30
0.000000
  70
    32
  0
VERTEX
  8
0
  5
142E
 10
107.774
 20
177.577
 30
0.000000
  70
    32
  0
VERTEX
  8
0
  5
142F
 10
107.698
 20
177.743
 30
0.000000
  70
    32
  0
VERTEX
  8
0
  5
1430
 10
107.606
 20
177.907
 30
0.000000
  70
    32
  0
VERTEX
  8
0
  5
1431
 10
107.499
 20
178.069
 30
0.000000
  70
    32
  0
VERTEX
  8
0
  5
1432
 10
107.376
 20
178.230
 30
0.000000
  70
    32
  0
VERTEX
  8
0
  5
1433
 10
107.239
 20
178.389
 30
0.000000
  70
    32
  0
VERTEX
  8
0
  5
1434
 10
107.086
 20
178.545
 30
0.000000
  70
    32
  0
VERTEX
  8
0
  5
1435
 10
106.919
 20
178.699
 30
0.000000
  70
    32
  0
VERTEX
  8
0
  5
1436
 10
106.737
 20
178.851
 30
0.000000
  70
    32
  0
VERTEX
  8
0
  5
1437
 10
106.541
 20
179.000
 30
0.000000
  70
    32
  0
VERTEX
  8
0
  5
1438
 10
106.331
 20
179.145
 30
0.000000
  70
    32
  0
VERTEX
  8
0
  5
1439
 10
106.108
 20
179.287
 30
0.000000
  70
    32
  0
VERTEX
  8
0
  5
143A
 10
105.872
 20
179.426
 30
0.000000
  70
    32
  0
VERTEX
  8
0
  5
143B
 10
105.622
 20
179.561
 30
0.000000
  70
    32
  0
VERTEX
  8
0
  5
143C
 10
105.360
 20
179.692
 30
0.000000
  70
    32
  0
VERTEX
  8
0
  5
143D
 10
105.086
 20
179.819
 30
0.000000
  70
    32
  0
VERTEX
  8
0
  5
143E
 10
104.800
 20
179.941
 30
0.000000
  70
    32
  0
VERTEX
  8
0
  5
143F
 10
104.502
 20
180.059
 30
0.000000
  70
    32
  0
VERTEX
  8
0
  5
1440
 10
104.194
 20
180.173
 30
0.000000
  70
    32
  0
VERTEX
  8
0
  5
1441
 10
103.875
 20
180.282
 30
0.000000
  70
    32
  0
VERTEX
  8
0
  5
1442
 10
103.546
 20
180.386
 30
0.000000
  70
    32
  0
VERTEX
  8
0
  5
1443
 10
103.208
 20
180.484
 30
0.000000
  70
    32
  0
VERTEX
  8
0
  5
1444
 10
102.860
 20
180.578
 30
0.000000
  70
    32
  0
VERTEX
  8
0
  5
1445
 10
102.504
 20
180.666
 30
0.000000
  70
    32
  0
VERTEX
  8
0
  5
1446
 10
102.140
 20
180.748
 30
0.000000
  70
    32
  0
VERTEX
  8
0
  5
1447
 10
101.768
 20
180.825
 30
0.000000
  70
    32
  0
VERTEX
  8
0
  5
1448
 10
101.389
 20
180.896
 30
0.000000
  70
    32
  0
VERTEX
  8
0
  5
1449
 10
101.004
 20
180.962
 30
0.000000
  70
    32
  0
VERTEX
  8
0
  5
144A
 10
100.613
 20
181.021
 30
0.000000
  70
    32
  0
VERTEX
  8
0
  5
144B
 10
100.217
 20
181.075
 30
0.000000
  70
    32
  0
VERTEX
  8
0
  5
144C
 10
99.8155
 20
181.122
 30
0.000000
  70
    32
  0
VERTEX
  8
0
  5
144D
 10
99.4102
 20
181.163
 30
0.000000
  70
    32
  0
VERTEX
  8
0
  5
144E
 10
99.0012
 20
181.198
 30
0.000000
  70
    32
  0
VERTEX
  8
0
  5
144F
 10
98.5893
 20
181.227
 30
0.000000
  70
    32
  0
VERTEX
  8
0
  5
1450
 10
98.1750
 20
181.249
 30
0.000000
  70
    32
  0
VERTEX
  8
0
  5
1451
 10
97.7588
 20
181.265
 30
0.000000
  70
    32
  0
VERTEX
  8
0
  5
1452
 10
97.3415
 20
181.274
 30
0.000000
  70
    32
  0
VERTEX
  8
0
  5
1453
 10
96.9236
 20
181.278
 30
0.000000
  70
    32
  0
VERTEX
  8
0
  5
1454
 10
96.5056
 20
181.274
 30
0.000000
  70
    32
  0
VERTEX
  8
0
  5
1455
 10
96.0883
 20
181.265
 30
0.000000
  70
    32
  0
VERTEX
  8
0
  5
1456
 10
95.6721
 20
181.249
 30
0.000000
  70
    32
  0
VERTEX
  8
0
  5
1457
 10
95.2578
 20
181.227
 30
0.000000
  70
    32
  0
VERTEX
  8
0
  5
1458
 10
94.8459
 20
181.198
 30
0.000000
  70
    32
  0
VERTEX
  8
0
  5
1459
 10
94.4370
 20
181.163
 30
0.000000
  70
    32
  0
VERTEX
  8
0
  5
145A
 10
94.0316
 20
181.122
 30
0.000000
  70
    32
  0
VERTEX
  8
0
  5
145B
 10
93.6305
 20
181.075
 30
0.000000
  70
    32
  0
VERTEX
  8
0
  5
145C
 10
93.2341
 20
181.021
 30
0.000000
  70
    32
  0
VERTEX
  8
0
  5
145D
 10
92.8430
 20
180.962
 30
0.000000
  70
    32
  0
VERTEX
  8
0
  5
145E
 10
92.4578
 20
180.896
 30
0.000000
  70
    32
  0
VERTEX
  8
0
  5
145F
 10
92.0791
 20
180.825
 30
0.000000
  70
    32
  0
VERTEX
  8
0
  5
1460
 10
91.7074
 20
180.748
 30
0.000000
  70
    32
  0
VERTEX
  8
0
  5
1461
 10
91.3432
 20
180.666
 30
0.000000
  70
    32
  0
VERTEX
  8
0
  5
1462
 10
90.9871
 20
180.578
 30
0.000000
  70
    32
  0
VERTEX
  8
0
  5
1463
 10
90.6395
 20
180.484
 30
0.000000
  70
    32
  0
VERTEX
  8
0
  5
1464
 10
90.3010
 20
180.386
 30
0.000000
  70
    32
  0
VERTEX
  8
0
  5
1465
 10
89.9721
 20
180.282
 30
0.000000
  70
    32
  0
VERTEX
  8
0
  5
1466
 10
89.6532
 20
180.173
 30
0.000000
  70
    32
  0
VERTEX
  8
0
  5
1467
 10
89.3449
 20
180.059
 30
0.000000
  70
    32
  0
VERTEX
  8
0
  5
1468
 10
89.0474
 20
179.941
 30
0.000000
  70
    32
  0
VERTEX
  8
0
  5
1469
 10
88.7614
 20
179.819
 30
0.000000
  70
    32
  0
VERTEX
  8
0
  5
146A
 10
88.4871
 20
179.692
 30
0.000000
  70
    32
  0
VERTEX
  8
0
  5
146B
 10
88.2250
 20
179.561
 30
0.000000
  70
    32
  0
VERTEX
  8
0
  5
146C
 10
87.9755
 20
179.426
 30
0.000000
  70
    32
  0
VERTEX
  8
0
  5
146D
 10
87.7389
 20
179.287
 30
0.000000
  70
    32
  0
VERTEX
  8
0
  5
146E
 10
87.5156
 20
179.145
 30
0.000000
  70
    32
  0
VERTEX
  8
0
  5
146F
 10
87.3059
 20
179.000
 30
0.000000
  70
    32
  0
VERTEX
  8
0
  5
1470
 10
87.1100
 20
178.851
 30
0.000000
  70
    32
  0
VERTEX
  8
0
  5
1471
 10
86.9284
 20
178.699
 30
0.000000
  70
    32
  0
VERTEX
  8
0
  5
1472
 10
86.7611
 20
178.545
 30
0.000000
  70
    32
  0
VERTEX
  8
0
  5
1473
 10
86.6086
 20
178.389
 30
0.000000
  70
    32
  0
VERTEX
  8
0
  5
1474
 10
86.4709
 20
178.230
 30
0.000000
  70
    32
  0
VERTEX
  8
0
  5
1475
 10
86.3484
 20
178.069
 30
0.000000
  70
    32
  0
VERTEX
  8
0
  5
1476
 10
86.2411
 20
177.907
 30
0.000000
  70
    32
  0
VERTEX
  8
0
  5
1477
 10
86.1492
 20
177.743
 30
0.000000
  70
    32
  0
VERTEX
  8
0
  5
1478
 10
86.0730
 20
177.577
 30
0.000000
  70
    32
  0
VERTEX
  8
0
  5
1479
 10
86.0123
 20
177.411
 30
0.000000
  70
    32
  0
VERTEX
  8
0
  5
147A
 10
85.9675
 20
177.244
 30
0.000000
  70
    32
  0
VERTEX
  8
0
  5
147B
 10
85.9385
 20
177.076
 30
0.000000
  70
    32
  0
VERTEX
  8
0
  5
147C
 10
85.9253
 20
176.908
 30
0.000000
  70
    32
  0
VERTEX
  8
0
  5
147D
 10
85.9280
 20
176.740
 30
0.000000
  70
    32
  0
VERTEX
  8
0
  5
147E
 10
85.9466
 20
176.572
 30
0.000000
  70
    32
  0
VERTEX
  8
0
  5
147F
 10
85.9811
 20
176.404
 30
0.000000
  70
    32
  0
VERTEX
  8
0
  5
1480
 10
86.0313
 20
176.237
 30
0.000000
  70
    32
  0
VERTEX
  8
0
  5
1481
 10
86.0973
 20
176.071
 30
0.000000
  70
    32
  0
VERTEX
  8
0
  5
1482
 10
86.1789
 20
175.906
 30
0.000000
  70
    32
  0
VERTEX
  8
0
  5
1483
 10
86.2761
 20
175.742
 30
0.000000
  70
    32
  0
VERTEX
  8
0
  5
1484
 10
86.3886
 20
175.580
 30
0.000000
  70
    32
  0
VERTEX
  8
0
  5
1485
 10
86.5164
 20
175.420
 30
0.000000
  70
    32
  0
VERTEX
  8
0
  5
1486
 10
86.6592
 20
175.262
 30
0.000000
  70
    32
  0
VERTEX
  8
0
  5
1487
 10
86.8168
 20
175.106
 30
0.000000
  70
    32
  0
VERTEX
  8
0
  5
1488
 10
86.9890
 20
174.953
 30
0.000000
  70
    32
  0
VERTEX
  8
0
  5
1489
 10
87.1755
 20
174.803
 30
0.000000
  70
    32
  0
VERTEX
  8
0
  5
148A
 10
87.3761
 20
174.655
 30
0.000000
  70
    32
  0
VERTEX
  8
0
  5
148B
 10
87.5906
 20
174.511
 30
0.000000
  70
    32
  0
VERTEX
  8
0
  5
148C
 10
87.8185
 20
174.370
 30
0.000000
  70
    32
  0
VERTEX
  8
0
  5
148D
 10
88.0595
 20
174.232
 30
0.000000
  70
    32
  0
VERTEX
  8
0
  5
148E
 10
88.3134
 20
174.099
 30
0.000000
  70
    32
  0
VERTEX
  8
0
  5
148F
 10
88.5797
 20
173.969
 30
0.000000
  70
    32
  0
VERTEX
  8
0
  5
1490
 10
88.8580
 20
173.844
 30
0.000000
  70
    32
  0
VERTEX
  8
0
  5
1491
 10
89.1480
 20
173.723
 30
0.000000
  70
    32
  0
VERTEX
  8
0
  5
1492
 10
89.4492
 20
173.606
 30
0.000000
  70
    32
  0
VERTEX
  8
0
  5
1493
 10
89.7612
 20
173.494
 30
0.000000
  70
    32
  0
SEQEND
  8
0
  5
1494
  0
LINE
  5
10A2
  8
0
 10
107.92355595794059
 20
176.79711334107961
 30
0.0
 11
107.42355595794059
 21
150.75468329607699
 31
0.0
  0
ARC
  5
10A3
  8
0
 10
108.3550614320301
 20
184.92306057401851
 30
0.0
 40
5.0
 50
152.0074062139272
 51
213.9177417789258
  0
LINE
  5
10A4
  8
0
 10
103.9592173807177
 20
187.4044962531614
 30
0.0
 11
102.4901373423089
 21
194.4585686009728
 31
0.0
  0
ARC
  5
10A5
  8
0
 10
101.5111425606846
 20
194.25468329607699
 30
0.0
 40
1.0
 50
11.764253641804171
 51
90.0
  0
ARC
  5
10A6
  8
0
 10
103.7634184243929
 20
187.3637191921822
 30
0.0
 40
0.2
 50
332.00740621392731
 51
11.764253641805761
  0
LINE
  5
10A7
  8
0
 10
103.9634184243929
 20
187.3637191921822
 30
0.0
 11
103.9634184243929
 21
182.53277362608301
 31
0.0
  0
ARC
  5
10A8
  8
0
 10
117.23148612239061
 20
189.57167640978841
 30
0.0
 40
15.0
 50
209.7296705382044
 51
225.69583298831839
  0
LINE
  5
10A9
  8
0
 10
89.883693491488245
 20
187.3637191921822
 30
0.0
 11
89.883693491488245
 21
182.53277362608301
 31
0.0
  0
ARC
  5
10AA
  8
0
 10
85.492050483851017
 20
184.92306057401851
 30
0.0
 40
5.0
 50
326.0822582210742
 51
27.992593786072749
  0
LINE
  5
10AB
  8
0
 10
89.887894535163369
 20
187.4044962531614
 30
0.0
 11
91.356974573572217
 21
194.4585686009728
 31
0.0
  0
ARC
  5
10AC
  8
0
 10
90.083693491488248
 20
187.3637191921822
 30
0.0
 40
0.2
 50
168.23574635819421
 51
207.99259378607269
  0
ARC
  5
10AD
  8
0
 10
92.335969355196454
 20
194.25468329607699
 30
0.0
 40
1.0
 50
90.0
 51
168.2357463581958
  0
ARC
  5
10AE
  8
0
 10
76.615625793490523
 20
189.57167640978841
 30
0.0
 40
15.0
 50
314.30416701168161
 51
330.2703294617956
  0
LINE
  5
10AF
  8
0
 10
85.923555957940579
 20
176.79711334107961
 30
0.0
 11
86.423555957940565
 21
150.75468329607699
 31
0.0
  0
LINE
  5
10B0
  8
0
 10
360.09820077138158
 20
140.75468329607699
 30
0.0
 11
360.09820077138158
 21
150.75468329607699
 31
0.0
  0
LINE
  5
10B1
  8
0
 10
344.09820077138158
 20
150.75468329607699
 30
0.0
 11
344.09820077138158
 21
140.75468329607699
 31
0.0
  0
LINE
  5
10B2
  8
0
 10
344.09820077138158
 20
140.75468329607699
 30
0.0
 11
360.09820077138158
 21
140.75468329607699
 31
0.0
  0
LINE
  5
10B3
  8
0
 10
346.63664948647568
 20
185.3576251352865
 30
0.0
 11
357.58090615630431
 21
185.3576251352865
 31
0.0
  0
LINE
  5
10B4
  8
0
 10
346.42692086081752
 20
183.4038556311688
 30
0.0
 11
357.76948068194571
 21
183.4038556311688
 31
0.0
  0
LINE
  5
10B5
  8
0
 10
358.21712950605729
 20
182.81468329607711
 30
0.0
 11
345.97927203670588
 21
182.81468329607711
 31
0.0
  0
LINE
  5
10B6
  8
0
 10
362.59820077138158
 20
150.75468329607699
 30
0.0
 11
341.59820077138158
 21
150.75468329607699
 31
0.0
  0
LINE
  5
10B7
  8
0
 10
345.89750559137627
 20
182.5114424272025
 30
0.0
 11
358.29889595138673
 21
182.5114424272025
 31
0.0
  0
LINE
  5
10B8
  8
1
 10
352.09820077138158
 20
200.2546832960771
 30
0.0
 11
352.09820077138158
 21
115.754683296077
 31
0.0
  0
LINE
  5
10B9
  8
0
 10
356.6857873741256
 20
195.25468329607699
 30
0.0
 11
347.5106141686374
 21
195.25468329607719
 31
0.0
  0
LINE
  5
10BA
  8
0
 10
345.06253934860428
 20
187.4044962531614
 30
0.0
 11
346.53161938701322
 21
194.4585686009728
 31
0.0
  0
ARC
  5
10BB
  8
0
 10
347.5106141686374
 20
194.25468329607699
 30
0.0
 40
1.0
 50
90.0
 51
168.2357463581958
  0
LINE
  5
10BC
  8
0
 10
359.13386219415872
 20
187.4044962531614
 30
0.0
 11
357.66478215574989
 21
194.4585686009728
 31
0.0
  0
ARC
  5
10BD
  8
0
 10
356.6857873741256
 20
194.25468329607699
 30
0.0
 40
1.0
 50
11.764253641804171
 51
90.0
  0
LINE
  5
10BE
  8
0
 10
359.13806323783388
 20
187.3637191921822
 30
0.0
 11
359.13806323783399
 21
174.30058172564529
 31
0.0
  0
ARC
  5
10BF
  8
0
 10
352.1159507030211
 20
196.91350664794311
 30
0.0
 40
3.0
 50
269.66099929890152
 51
299.63458235356808
  0
LINE
  5
10C0
  8
0
 10
353.59935045140043
 20
194.30591672878239
 30
0.0
 11
355.49727093116462
 21
195.09977865237369
 31
0.0
  0
ARC
  5
10C1
  8
0
 10
356.26903716920071
 20
193.25468329607699
 30
0.0
 40
2.0
 50
90.0
 51
112.69857631690989
  0
ARC
  5
10C2
  8
0
 10
352.08045083974213
 20
196.91350664794311
 30
0.0
 40
3.0
 50
240.36541764643189
 51
270.33900070109848
  0
LINE
  5
10C3
  8
0
 10
350.5970510913628
 20
194.30591672878239
 30
0.0
 11
348.69913061159838
 21
195.09977865237369
 31
0.0
  0
ARC
  5
10C4
  8
0
 10
347.9273643735624
 20
193.25468329607699
 30
0.0
 40
2.0
 50
67.30142368309005
 51
90.0
  0
ARC
  5
10C5
  8
0
 10
352.10877782138999
 20
190.7157982826534
 30
0.0
 40
0.8
 50
41.037685178419068
 51
138.96231482158089
  0
ARC
  5
10C6
  8
0
 10
332.44424436574678
 20
169.12295107994331
 30
0.0
 40
30.0
 50
33.602711735221362
 51
47.49935354968013
  0
ARC
  5
10C7
  8
0
 10
356.59820077138158
 20
185.1724492015264
 30
0.0
 40
1.0
 50
0.0
 51
33.602711735221362
  0
LINE
  5
10C8
  8
0
 10
357.59820077138158
 20
194.6639531245618
 30
0.0
 11
357.59820077138158
 21
185.19379453753089
 31
0.0
  0
LINE
  5
10C9
  8
0
 10
357.59820077138158
 20
185.1724492015264
 30
0.0
 11
357.82653923205743
 21
182.81468329607711
 31
0.0
  0
LINE
  5
10CA
  8
0
 10
346.61935487139829
 20
194.6639531245618
 30
0.0
 11
346.61935487139829
 21
185.19379453753089
 31
0.0
  0
ARC
  5
10CB
  8
0
 10
347.61935487139829
 20
185.1724492015264
 30
0.0
 40
1.0
 50
146.39728826477861
 51
180.0
  0
LINE
  5
10CC
  8
0
 10
346.61935487139829
 20
185.1724492015264
 30
0.0
 11
346.39101641072261
 21
182.81468329607711
 31
0.0
  0
ARC
  5
10CD
  8
0
 10
371.77331127703297
 20
169.12295107994331
 30
0.0
 40
30.0
 50
132.50064645031981
 51
146.39728826477861
  0
LINE
  5
10CE
  8
0
 10
358.21712950605729
 20
182.81468329607711
 30
0.0
 11
358.29889595138673
 21
182.5114424272025
 31
0.0
  0
ARC
  5
10CF
  8
0
 10
372.25622621078099
 20
189.5968482165639
 30
0.0
 40
15.0
 50
209.00892254597429
 51
229.35444282771439
  0
ARC
  5
10D0
  8
0
 10
331.94017533198212
 20
189.5968482165639
 30
0.0
 40
15.0
 50
310.64555717228558
 51
330.9910774540258
  0
ARC
  5
10D1
  8
0
 10
369.51644353074431
 20
170.4884350980999
 30
0.0
 40
11.0
 50
161.4773883406954
 51
211.41614743140761
  0
ARC
  5
10D2
  8
0
 10
358.13806323783399
 20
174.30058172564529
 30
0.0
 40
1.0
 50
341.47738834069543
 51
0.0
  0
ARC
  5
10D3
  8
0
 10
334.67995801201869
 20
170.4884350980999
 30
0.0
 40
11.0
 50
328.58385256859248
 51
18.522611659304619
  0
LINE
  5
10D4
  8
0
 10
345.05833830492918
 20
187.3637191921822
 30
0.0
 11
345.05833830492918
 21
174.30058172564529
 31
0.0
  0
ARC
  5
10D5
  8
0
 10
346.05833830492918
 20
174.30058172564529
 30
0.0
 40
1.0
 50
179.9999999999992
 51
198.5226116593046
  0
LINE
  5
10D6
  8
0
 10
341.09820077138158
 20
176.79711334107961
 30
0.0
 11
341.59820077138158
 21
150.75468329607699
 31
0.0
  0
LINE
  5
10D7
  8
0
 10
363.09820077138158
 20
176.79711334107961
 30
0.0
 11
362.59820077138158
 21
150.75468329607699
 31
0.0
  0
LINE
  5
10F2
  8
0
 10
92.660143906806127
 20
195.25468329607699
 30
0.0
 11
92.636837184952242
 21
195.2544948471278
 31
0.0
  0
LINE
  5
10F3
  8
0
 10
92.636837184952242
 20
195.2544948471278
 30
0.0
 11
92.590644339694336
 21
195.2529599558714
 31
0.0
  0
LINE
  5
10F4
  8
0
 10
92.590644339694336
 20
195.2529599558714
 30
0.0
 11
92.545105146318804
 21
195.2498247876195
 31
0.0
  0
LINE
  5
10F5
  8
0
 10
92.545105146318804
 20
195.2498247876195
 30
0.0
 11
92.522613468567883
 21
195.24763801206839
 31
0.0
  0
LINE
  5
10F6
  8
0
 10
101.186968009075
 20
195.25468329607699
 30
0.0
 11
101.210274730929
 21
195.2544948471278
 31
0.0
  0
LINE
  5
10F7
  8
0
 10
101.210274730929
 20
195.2544948471278
 30
0.0
 11
101.25646757618669
 21
195.2529599558714
 31
0.0
  0
LINE
  5
10F8
  8
0
 10
101.25646757618669
 20
195.2529599558714
 30
0.0
 11
101.3020067695623
 21
195.2498247876195
 31
0.0
  0
LINE
  5
10F9
  8
0
 10
101.3020067695623
 20
195.2498247876195
 30
0.0
 11
101.3244984473133
 21
195.24763801206839
 31
0.0
  0
LINE
  5
10FA
  8
0
 10
261.65156653202939
 20
183.4038556311688
 30
0.0
 11
261.55501665088798
 21
183.3718468995466
 31
0.0
  0
LINE
  5
10FB
  8
0
 10
261.55501665088798
 20
183.3718468995466
 30
0.0
 11
261.36107063144482
 21
183.31044776265071
 31
0.0
  0
LINE
  5
10FC
  8
0
 10
261.36107063144482
 20
183.31044776265071
 30
0.0
 11
261.16604887530963
 21
183.252556251154
 31
0.0
  0
LINE
  5
10FD
  8
0
 10
261.16604887530963
 20
183.252556251154
 30
0.0
 11
261.06815440530988
 21
183.22493178388379
 31
0.0
  0
LINE
  5
10FE
  8
0
 10
261.06815440530988
 20
183.22493178388379
 30
0.0
 11
260.97001481426321
 21
183.1981911945542
 31
0.0
  0
LINE
  5
10FF
  8
0
 10
260.97001481426321
 20
183.1981911945542
 30
0.0
 11
260.7730322093438
 21
183.1473702753519
 31
0.0
  0
LINE
  5
1100
  8
0
 10
260.7730322093438
 20
183.1473702753519
 30
0.0
 11
260.57516513010768
 21
183.10011002329981
 31
0.0
  0
LINE
  5
1101
  8
0
 10
260.57516513010768
 20
183.10011002329981
 30
0.0
 11
260.37647793379131
 21
183.0564258100265
 31
0.0
  0
LINE
  5
1102
  8
0
 10
260.37647793379131
 20
183.0564258100265
 30
0.0
 11
260.17703524437758
 21
183.01633184403599
 31
0.0
  0
LINE
  5
1103
  8
0
 10
260.17703524437758
 20
183.01633184403599
 30
0.0
 11
259.97690193157769
 21
182.97984116608711
 31
0.0
  0
LINE
  5
1104
  8
0
 10
259.97690193157769
 20
182.97984116608711
 30
0.0
 11
259.87659662519309
 21
182.9629508150083
 31
0.0
  0
LINE
  5
1105
  8
0
 10
259.87659662519309
 20
182.9629508150083
 30
0.0
 11
259.77614308973142
 21
182.9469656449514
 31
0.0
  0
LINE
  5
1106
  8
0
 10
259.77614308973142
 20
182.9469656449514
 30
0.0
 11
259.57482401663469
 21
182.91771597355299
 31
0.0
  0
LINE
  5
1107
  8
0
 10
259.57482401663469
 20
182.91771597355299
 30
0.0
 11
259.37301019230182
 21
182.8921016654908
 31
0.0
  0
LINE
  5
1108
  8
0
 10
259.37301019230182
 20
182.8921016654908
 30
0.0
 11
259.17076725766668
 21
182.87013105194401
 31
0.0
  0
LINE
  5
1109
  8
0
 10
259.17076725766668
 20
182.87013105194401
 30
0.0
 11
258.96816099323422
 21
182.851811278962
 31
0.0
  0
LINE
  5
110A
  8
0
 10
258.96816099323422
 20
182.851811278962
 30
0.0
 11
258.76525729768338
 21
182.83714830514069
 31
0.0
  0
LINE
  5
110B
  8
0
 10
258.76525729768338
 20
182.83714830514069
 30
0.0
 11
258.6637145336154
 21
182.83118965479741
 31
0.0
  0
LINE
  5
110C
  8
0
 10
258.6637145336154
 20
182.83118965479741
 30
0.0
 11
258.56212216643479
 21
182.82614689968429
 31
0.0
  0
LINE
  5
110D
  8
0
 10
258.56212216643479
 20
182.82614689968429
 30
0.0
 11
258.35882167018411
 21
182.81881064085351
 31
0.0
  0
LINE
  5
110E
  8
0
 10
258.35882167018411
 20
182.81881064085351
 30
0.0
 11
258.15542193341292
 21
182.81514191480261
 31
0.0
  0
LINE
  5
110F
  8
0
 10
258.15542193341292
 20
182.81514191480261
 30
0.0
 11
258.05370552314707
 21
182.81468329607711
 31
0.0
  0
LINE
  5
1110
  8
0
 10
345.05833830492918
 20
174.72129261751661
 30
0.0
 11
345.18833813799091
 21
176.12617777876861
 31
0.0
  0
LINE
  5
1111
  8
0
 10
345.18833813799091
 20
176.12617777876861
 30
0.0
 11
345.46931264373018
 21
178.90671338241219
 31
0.0
  0
LINE
  5
1112
  8
0
 10
345.46931264373018
 20
178.90671338241219
 30
0.0
 11
345.75394732507311
 21
181.38596448376671
 31
0.0
  0
LINE
  5
1113
  8
0
 10
345.75394732507311
 20
181.38596448376671
 30
0.0
 11
345.89750559137627
 21
182.5114424272025
 31
0.0
  0
LINE
  5
1114
  8
0
 10
341.71084121153029
 20
178.21554388576621
 30
0.0
 11
341.69371565967788
 21
178.19716203000871
 31
0.0
  0
LINE
  5
1115
  8
0
 10
341.69371565967788
 20
178.19716203000871
 30
0.0
 11
341.609033825376
 21
178.09834086992851
 31
0.0
  0
LINE
  5
1116
  8
0
 10
341.609033825376
 20
178.09834086992851
 30
0.0
 11
341.53145604213461
 21
177.99944887281791
 31
0.0
  0
LINE
  5
1117
  8
0
 10
341.53145604213461
 20
177.99944887281791
 30
0.0
 11
341.4609035339538
 21
177.90066508196651
 31
0.0
  0
LINE
  5
1118
  8
0
 10
341.4609035339538
 20
177.90066508196651
 30
0.0
 11
341.39724204311722
 21
177.80212487282941
 31
0.0
  0
LINE
  5
1119
  8
0
 10
341.39724204311722
 20
177.80212487282941
 30
0.0
 11
341.3676742324709
 21
177.75251415105299
 31
0.0
  0
LINE
  5
111A
  8
0
 10
341.3676742324709
 20
177.75251415105299
 30
0.0
 11
341.33949247403888
 21
177.70244784198769
 31
0.0
  0
LINE
  5
111B
  8
0
 10
341.33949247403888
 20
177.70244784198769
 30
0.0
 11
341.28741638756401
 21
177.60100926143139
 31
0.0
  0
LINE
  5
111C
  8
0
 10
341.28741638756401
 20
177.60100926143139
 30
0.0
 11
341.24125720955527
 21
177.49793358232091
 31
0.0
  0
LINE
  5
111D
  8
0
 10
341.24125720955527
 20
177.49793358232091
 30
0.0
 11
341.20123374928028
 21
177.3933491675117
 31
0.0
  0
LINE
  5
111E
  8
0
 10
341.20123374928028
 20
177.3933491675117
 30
0.0
 11
341.16753984404119
 21
177.2873873373016
 31
0.0
  0
LINE
  5
111F
  8
0
 10
341.16753984404119
 20
177.2873873373016
 30
0.0
 11
341.14034432711162
 21
177.18018137481579
 31
0.0
  0
LINE
  5
1120
  8
0
 10
341.14034432711162
 20
177.18018137481579
 30
0.0
 11
341.12922945220561
 21
177.12615377544131
 31
0.0
  0
LINE
  5
1121
  8
0
 10
341.12922945220561
 20
177.12615377544131
 30
0.0
 11
341.11979131837711
 21
177.07186548694929
 31
0.0
  0
LINE
  5
1122
  8
0
 10
341.11979131837711
 20
177.07186548694929
 30
0.0
 11
341.10600092784858
 21
176.96257463538871
 31
0.0
  0
LINE
  5
1123
  8
0
 10
341.10600092784858
 20
176.96257463538871
 30
0.0
 11
341.0990700263614
 21
176.85244690356211
 31
0.0
  0
LINE
  5
1124
  8
0
 10
341.0990700263614
 20
176.85244690356211
 30
0.0
 11
341.09820077138158
 21
176.79711334107961
 31
0.0
  0
LINE
  5
1125
  8
0
 10
345.04413336675549
 20
174.50786730281831
 30
0.0
 11
345.04427672189729
 21
174.5271815651609
 31
0.0
  0
LINE
  5
1126
  8
0
 10
345.04427672189729
 20
174.5271815651609
 30
0.0
 11
345.04542965442158
 21
174.56590416987311
 31
0.0
  0
LINE
  5
1127
  8
0
 10
345.04542965442158
 20
174.56590416987311
 30
0.0
 11
345.04775062456002
 21
174.604741363475
 31
0.0
  0
LINE
  5
1128
  8
0
 10
345.04775062456002
 20
174.604741363475
 30
0.0
 11
345.04935381961133
 21
174.62419887664541
 31
0.0
  0
LINE
  5
1129
  8
0
 10
359.13806323783399
 20
174.72129261751661
 30
0.0
 11
359.00806340477232
 21
176.12617777876861
 31
0.0
  0
LINE
  5
112A
  8
0
 10
359.00806340477232
 20
176.12617777876861
 30
0.0
 11
358.72708889903299
 21
178.90671338241219
 31
0.0
  0
LINE
  5
112B
  8
0
 10
358.72708889903299
 20
178.90671338241219
 30
0.0
 11
358.44245421769
 21
181.38596448376671
 31
0.0
  0
LINE
  5
112C
  8
0
 10
358.44245421769
 20
181.38596448376671
 30
0.0
 11
358.29889595138673
 21
182.5114424272025
 31
0.0
  0
LINE
  5
112D
  8
0
 10
359.15226817600762
 20
174.50786730281831
 30
0.0
 11
359.15212482086588
 21
174.5271815651609
 31
0.0
  0
LINE
  5
112E
  8
0
 10
359.15212482086588
 20
174.5271815651609
 30
0.0
 11
359.15097188834159
 21
174.56590416987311
 31
0.0
  0
LINE
  5
112F
  8
0
 10
359.15097188834159
 20
174.56590416987311
 30
0.0
 11
359.1486509182032
 21
174.604741363475
 31
0.0
  0
LINE
  5
1130
  8
0
 10
359.1486509182032
 20
174.604741363475
 30
0.0
 11
359.14704772315179
 21
174.62419887664541
 31
0.0
  0
LINE
  5
1131
  8
0
 10
271.89038095782871
 20
191.32072827881811
 30
0.0
 11
271.89037841523509
 21
191.3207078656576
 31
0.0
  0
LINE
  5
1132
  8
0
 10
271.89037841523509
 20
191.3207078656576
 30
0.0
 11
271.8903580745008
 21
191.3205445604867
 31
0.0
  0
LINE
  5
1133
  8
0
 10
271.8903580745008
 20
191.3205445604867
 30
0.0
 11
271.89031739310741
 21
191.320217950749
 31
0.0
  0
LINE
  5
1134
  8
0
 10
271.89031739310741
 20
191.320217950749
 30
0.0
 11
271.8902894247077
 21
191.3199934070214
 31
0.0
  0
LINE
  5
1135
  8
0
 10
271.8902894247077
 20
191.3199934070214
 30
0.0
 11
271.89025637120551
 21
191.3197280376522
 31
0.0
  0
LINE
  5
1136
  8
0
 10
271.89025637120551
 20
191.3197280376522
 30
0.0
 11
271.8901750090206
 21
191.31907482300829
 31
0.0
  0
LINE
  5
1137
  8
0
 10
271.8901750090206
 20
191.31907482300829
 30
0.0
 11
271.89007330685371
 21
191.3182583092331
 31
0.0
  0
LINE
  5
1138
  8
0
 10
271.89007330685371
 20
191.3182583092331
 30
0.0
 11
271.88995126508092
 21
191.31727849934629
 31
0.0
  0
LINE
  5
1139
  8
0
 10
271.88995126508092
 20
191.31727849934629
 30
0.0
 11
271.88980888415352
 21
191.3161353969715
 31
0.0
  0
LINE
  5
113A
  8
0
 10
271.88980888415352
 20
191.3161353969715
 30
0.0
 11
271.8896461645981
 21
191.31482900633631
 31
0.0
  0
LINE
  5
113B
  8
0
 10
271.8896461645981
 20
191.31482900633631
 30
0.0
 11
271.88955717802003
 21
191.3141145794072
 31
0.0
  0
LINE
  5
113C
  8
0
 10
271.88955717802003
 20
191.3141145794072
 30
0.0
 11
271.88946310701658
 21
191.31335933227211
 31
0.0
  0
LINE
  5
113D
  8
0
 10
271.88946310701658
 20
191.31335933227211
 30
0.0
 11
271.88925971208579
 21
191.3117263802142
 31
0.0
  0
LINE
  5
113E
  8
0
 10
271.88925971208579
 20
191.3117263802142
 30
0.0
 11
271.88903598055799
 21
191.30993015620189
 31
0.0
  0
LINE
  5
113F
  8
0
 10
271.88903598055799
 20
191.30993015620189
 30
0.0
 11
271.88879191326077
 21
191.30797066687819
 31
0.0
  0
LINE
  5
1140
  8
0
 10
271.88879191326077
 20
191.30797066687819
 30
0.0
 11
271.8885275110967
 21
191.30584791948979
 31
0.0
  0
LINE
  5
1141
  8
0
 10
271.8885275110967
 20
191.30584791948979
 30
0.0
 11
271.88824277504341
 21
191.30356192188739
 31
0.0
  0
LINE
  5
1142
  8
0
 10
271.88824277504341
 20
191.30356192188739
 30
0.0
 11
271.88809278213449
 21
191.3023577068742
 31
0.0
  0
LINE
  5
1143
  8
0
 10
271.88809278213449
 20
191.3023577068742
 30
0.0
 11
271.88793770615422
 21
191.30111268252509
 31
0.0
  0
LINE
  5
1144
  8
0
 10
271.88793770615422
 20
191.30111268252509
 30
0.0
 11
271.88761230555713
 21
191.29850021046141
 31
0.0
  0
LINE
  5
1145
  8
0
 10
271.88761230555713
 20
191.29850021046141
 30
0.0
 11
271.88726657445579
 21
191.29572451535759
 31
0.0
  0
LINE
  5
1146
  8
0
 10
271.88726657445579
 20
191.29572451535759
 30
0.0
 11
271.88708608536263
 21
191.2942754623501
 31
0.0
  0
LINE
  5
1147
  8
0
 10
362.48556033123282
 20
178.21554388576621
 30
0.0
 11
362.50268588308518
 21
178.19716203000871
 31
0.0
  0
LINE
  5
1148
  8
0
 10
362.50268588308518
 20
178.19716203000871
 30
0.0
 11
362.58736771738722
 21
178.09834086992851
 31
0.0
  0
LINE
  5
1149
  8
0
 10
362.58736771738722
 20
178.09834086992851
 30
0.0
 11
362.66494550062851
 21
177.99944887281791
 31
0.0
  0
LINE
  5
114A
  8
0
 10
362.66494550062851
 20
177.99944887281791
 30
0.0
 11
362.73549800880937
 21
177.90066508196651
 31
0.0
  0
LINE
  5
114B
  8
0
 10
362.73549800880937
 20
177.90066508196651
 30
0.0
 11
362.79915949964578
 21
177.80212487282941
 31
0.0
  0
LINE
  5
114C
  8
0
 10
362.79915949964578
 20
177.80212487282941
 30
0.0
 11
362.82872731029232
 21
177.75251415105299
 31
0.0
  0
LINE
  5
114D
  8
0
 10
362.82872731029232
 20
177.75251415105299
 30
0.0
 11
362.85690906872418
 21
177.70244784198769
 31
0.0
  0
LINE
  5
114E
  8
0
 10
362.85690906872418
 20
177.70244784198769
 30
0.0
 11
362.9089851551991
 21
177.60100926143139
 31
0.0
  0
LINE
  5
114F
  8
0
 10
362.9089851551991
 20
177.60100926143139
 30
0.0
 11
362.95514433320778
 21
177.49793358232091
 31
0.0
  0
LINE
  5
1150
  8
0
 10
362.95514433320778
 20
177.49793358232091
 30
0.0
 11
362.99516779348278
 21
177.3933491675117
 31
0.0
  0
LINE
  5
1151
  8
0
 10
362.99516779348278
 20
177.3933491675117
 30
0.0
 11
363.0288616987221
 21
177.2873873373016
 31
0.0
  0
LINE
  5
1152
  8
0
 10
363.0288616987221
 20
177.2873873373016
 30
0.0
 11
363.05605721565149
 21
177.18018137481579
 31
0.0
  0
LINE
  5
1153
  8
0
 10
363.05605721565149
 20
177.18018137481579
 30
0.0
 11
363.06717209055762
 21
177.12615377544131
 31
0.0
  0
LINE
  5
1154
  8
0
 10
363.06717209055762
 20
177.12615377544131
 30
0.0
 11
363.07661022438612
 21
177.07186548694929
 31
0.0
  0
LINE
  5
1155
  8
0
 10
363.07661022438612
 20
177.07186548694929
 30
0.0
 11
363.09040061491447
 21
176.96257463538871
 31
0.0
  0
LINE
  5
1156
  8
0
 10
363.09040061491447
 20
176.96257463538871
 30
0.0
 11
363.09733151640182
 21
176.85244690356211
 31
0.0
  0
LINE
  5
1157
  8
0
 10
363.09733151640182
 20
176.85244690356211
 30
0.0
 11
363.09820077138158
 21
176.79711334107961
 31
0.0
  0
LINE
  5
1165
  8
0
 10
195.3903809578286
 20
120.754683296077
 30
0.0
 11
188.3903809578286
 21
120.7546832960771
 31
0.0
  0
LINE
  5
1166
  8
0
 10
186.8903809578286
 20
140.75468329607699
 30
0.0
 11
186.8903809578286
 21
122.2546832960771
 31
0.0
  0
LINE
  5
1167
  8
3
 10
187.7023809578285
 20
136.75468329607699
 30
0.0
 11
187.70238095782861
 21
121.44268329607711
 31
0.0
  0
LINE
  5
1168
  8
3
 10
196.0783809578287
 20
136.75468329607699
 30
0.0
 11
196.0783809578287
 21
121.44268329607711
 31
0.0
  0
LINE
  5
1169
  8
0
 10
196.8903809578286
 20
140.75468329607699
 30
0.0
 11
196.8903809578286
 21
122.254683296077
 31
0.0
  0
LINE
  5
116A
  8
0
 10
196.8903809578286
 20
122.254683296077
 30
0.0
 11
195.3903809578286
 21
120.754683296077
 31
0.0
  0
LINE
  5
116B
  8
0
 10
188.3903809578286
 20
120.7546832960771
 30
0.0
 11
186.8903809578286
 21
122.2546832960771
 31
0.0
  0
LINE
  5
116C
  8
0
 10
196.89038095782871
 20
136.75468329607699
 30
0.0
 11
186.89038095782871
 21
136.7546832960771
 31
0.0
  0
LINE
  5
116D
  8
3
 10
196.07838095782881
 20
136.75468329607699
 30
0.0
 11
196.89038095782871
 21
138.16110855182271
 31
0.0
  0
LINE
  5
116E
  8
3
 10
187.70238095782861
 20
136.75468329607699
 30
0.0
 11
186.89038095782871
 21
138.16110855182271
 31
0.0
  0
LINE
  5
116F
  8
0
 10
196.8903809578286
 20
122.254683296077
 30
0.0
 11
186.8903809578286
 21
122.2546832960771
 31
0.0
  0
LINE
  5
1173
  8
3
 10
101.1215559579406
 20
136.75468329607699
 30
0.0
 11
101.1215559579406
 21
121.44268329607711
 31
0.0
  0
LINE
  5
1174
  8
0
 10
101.9335559579405
 20
140.75468329607699
 30
0.0
 11
101.9335559579405
 21
122.254683296077
 31
0.0
  0
LINE
  5
1175
  8
0
 10
101.9335559579405
 20
122.254683296077
 30
0.0
 11
91.933555957940541
 21
122.2546832960771
 31
0.0
  0
LINE
  5
1176
  8
0
 10
100.4335559579405
 20
120.754683296077
 30
0.0
 11
93.433555957940541
 21
120.7546832960771
 31
0.0
  0
LINE
  5
1177
  8
0
 10
101.9335559579405
 20
122.254683296077
 30
0.0
 11
100.4335559579405
 21
120.754683296077
 31
0.0
  0
LINE
  5
1178
  8
0
 10
101.9335559579406
 20
136.75468329607699
 30
0.0
 11
91.933555957940584
 21
136.7546832960771
 31
0.0
  0
LINE
  5
1179
  8
3
 10
101.1215559579407
 20
136.75468329607699
 30
0.0
 11
101.9335559579406
 21
138.16110855182271
 31
0.0
  0
LINE
  5
117A
  8
3
 10
92.745555957940439
 20
136.75468329607699
 30
0.0
 11
92.745555957940496
 21
121.44268329607711
 31
0.0
  0
LINE
  5
117B
  8
0
 10
91.933555957940541
 20
140.75468329607699
 30
0.0
 11
91.933555957940541
 21
122.2546832960771
 31
0.0
  0
LINE
  5
117C
  8
0
 10
93.433555957940541
 20
120.7546832960771
 30
0.0
 11
91.933555957940541
 21
122.2546832960771
 31
0.0
  0
LINE
  5
117D
  8
3
 10
92.745555957940496
 20
136.75468329607699
 30
0.0
 11
91.933555957940584
 21
138.16110855182271
 31
0.0
  0
LINE
  5
117F
  8
3
 10
356.29620077138168
 20
136.75468329607699
 30
0.0
 11
356.29620077138168
 21
121.44268329607711
 31
0.0
  0
LINE
  5
1180
  8
3
 10
347.92020077138147
 20
136.75468329607699
 30
0.0
 11
347.92020077138147
 21
121.44268329607711
 31
0.0
  0
LINE
  5
1181
  8
0
 10
347.10820077138158
 20
140.75468329607699
 30
0.0
 11
347.10820077138158
 21
122.2546832960771
 31
0.0
  0
LINE
  5
1182
  8
0
 10
357.10820077138158
 20
140.75468329607699
 30
0.0
 11
357.10820077138158
 21
122.254683296077
 31
0.0
  0
LINE
  5
1183
  8
0
 10
348.60820077138158
 20
120.7546832960771
 30
0.0
 11
347.10820077138158
 21
122.2546832960771
 31
0.0
  0
LINE
  5
1184
  8
0
 10
357.10820077138158
 20
122.254683296077
 30
0.0
 11
347.10820077138158
 21
122.2546832960771
 31
0.0
  0
LINE
  5
1185
  8
0
 10
355.60820077138158
 20
120.754683296077
 30
0.0
 11
348.60820077138158
 21
120.7546832960771
 31
0.0
  0
LINE
  5
1186
  8
0
 10
357.10820077138158
 20
122.254683296077
 30
0.0
 11
355.60820077138158
 21
120.754683296077
 31
0.0
  0
LINE
  5
1187
  8
0
 10
357.10820077138158
 20
136.75468329607699
 30
0.0
 11
347.10820077138158
 21
136.7546832960771
 31
0.0
  0
LINE
  5
1188
  8
3
 10
347.92020077138147
 20
136.75468329607699
 30
0.0
 11
347.10820077138158
 21
138.16110855182271
 31
0.0
  0
LINE
  5
1189
  8
3
 10
356.29620077138168
 20
136.75468329607699
 30
0.0
 11
357.10820077138158
 21
138.16110855182271
 31
0.0
  0
ARC
  5
11E1
  8
0
 10
191.89038095782871
 20
266.66994275431648
 30
0.0
 40
2.6855911825890351
 50
191.27321412590859
 51
348.72678587409132
  0
LINE
  5
11E2
  8
0
 10
189.14038095782871
 20
267.19494275431651
 30
0.0
 11
189.14038095782871
 21
266.1449427543165
 31
0.0
  0
LINE
  5
11E3
  8
0
 10
194.64038095782871
 20
267.19494275431651
 30
0.0
 11
194.64038095782871
 21
266.1449427543165
 31
0.0
  0
ARC
  5
11E4
  8
0
 10
191.89038095782871
 20
266.66994275431648
 30
0.0
 40
2.6855911825890351
 50
11.27321412590867
 51
168.72678587409129
  0
LINE
  5
11E8
  8
0
 10
101.92355595794059
 20
177.09138012669899
 30
0.0
 11
91.923555957940579
 21
177.09138012669899
 31
0.0
  0
ARC
  5
11E9
  8
0
 10
96.923555957940579
 20
164.01468329607701
 30
0.0
 40
14.0
 50
101.0594800362036
 51
110.92483242763829
  0
ARC
  5
11EA
  8
0
 10
96.923555957940579
 20
164.01468329607701
 30
0.0
 40
14.0
 50
69.075167572361664
 51
78.940519963796405
  0
LINE
  5
11EB
  8
0
 10
99.609147140529686
 20
177.75468329607699
 30
0.0
 11
94.237964775351529
 21
177.75468329607699
 31
0.0
  0
LINE
  5
11EC
  8
0
 10
91.923555957940579
 20
177.09138012669899
 30
0.0
 11
91.923555957940593
 21
175.4842887967198
 31
0.0
  0
LINE
  5
11ED
  8
0
 10
101.92355595794059
 20
177.09138012669899
 30
0.0
 11
101.92355595794059
 21
175.66397605329379
 31
0.0
  0
CIRCLE
  5
11EE
  8
0
 10
191.89038095782871
 20
266.66994275431648
 30
0.0
 40
5.0
  0
ARC
  5
11F3
  8
0
 10
190.0597190518167
 20
267.72687589854769
 30
0.0
 40
0.6912500000000005
 50
309.6888779406537
 51
16.658241772777039
  0
ARC
  5
11F4
  8
0
 10
191.10038095782869
 20
268.03826289229602
 30
0.0
 40
0.3949999999999998
 50
43.341758227222279
 51
196.65824177277699
  0
ARC
  5
11F5
  8
0
 10
191.89038095782871
 20
268.7838090427789
 30
0.0
 40
0.6912499999999989
 50
223.3417582272223
 51
316.65824177277773
  0
ARC
  5
11F6
  8
0
 10
192.6803809578287
 20
268.03826289229602
 30
0.0
 40
0.3950000000000002
 50
343.3417582272229
 51
136.6582417727777
  0
ARC
  5
11F7
  8
0
 10
190.0597190518167
 20
265.61300961008533
 30
0.0
 40
0.691250000000001
 50
343.3417582272229
 51
50.311122059332341
  0
ARC
  5
11F8
  8
0
 10
191.10038095782869
 20
265.30162261633711
 30
0.0
 40
0.3950000000000001
 50
163.3417582272229
 51
316.65824177277773
  0
ARC
  5
11F9
  8
0
 10
191.89038095782871
 20
264.55607646585412
 30
0.0
 40
0.6912500000000003
 50
43.341758227222279
 51
136.65824177277651
  0
ARC
  5
11FA
  8
0
 10
192.6803809578287
 20
265.30162261633711
 30
0.0
 40
0.3949999999999998
 50
223.3417582272223
 51
16.658241772777039
  0
ARC
  5
11FB
  8
0
 10
193.72104286384069
 20
265.61300961008533
 30
0.0
 40
0.6912500000000003
 50
129.6888779406676
 51
196.65824177277699
  0
ARC
  5
11FD
  8
0
 10
193.72104286384069
 20
267.72687589854769
 30
0.0
 40
0.6912500000000011
 50
163.3417582272229
 51
230.3111220593463
  0
LINE
  5
11FE
  8
0
 10
189.14038095782871
 20
266.1449427543165
 30
0.0
 11
190.50116405696269
 21
266.1449427543165
 31
0.0
  0
LINE
  5
11FF
  8
0
 10
189.14038095782871
 20
267.19494275431651
 30
0.0
 11
190.50116405696269
 21
267.19494275431651
 31
0.0
  0
LINE
  5
1200
  8
0
 10
193.27959785869481
 20
267.19494275431651
 30
0.0
 11
194.64038095782871
 21
267.19494275431651
 31
0.0
  0
LINE
  5
1201
  8
0
 10
193.2795978586947
 20
266.1449427543165
 30
0.0
 11
194.64038095782871
 21
266.1449427543165
 31
0.0
  0
LINE
  5
1204
  8
0
 10
194.3478746613651
 20
177.75468329607699
 30
0.0
 11
189.1947897752396
 21
177.75468329607699
 31
0.0
  0
LINE
  5
1206
  8
0
 10
192.666614464133
 20
177.09138012669899
 30
0.0
 11
186.88038095782861
 21
177.09138012669899
 31
0.0
  0
LINE
  5
1207
  8
0
 10
186.88038095782861
 20
177.09138012669899
 30
0.0
 11
186.88038095782861
 21
174.70807892571841
 31
0.0
  0
ARC
  5
1208
  8
0
 10
191.88038095782861
 20
164.01468329607701
 30
0.0
 40
14.0
 50
101.0594800362036
 51
110.92483242763829
  0
TEXT
  5
1300
  8
0
 62
     3
 10
0.0
 20
0.0
 30
0.0
 40
10.0
  1
FKR10X20-OG
  7
STANDARD1
  0
ENDSEC
  0
EOF
