  0
SECTION
  2
HEADER
  9
$ACADVER
  1
AC1009
  9
$INSBASE
 10
0.0
 20
0.0
 30
0.0
  9
$EXTMIN
 10
0.0
 20
-2.960436562073669
 30
0.0
  9
$EXTMAX
 10
383.09820077138158
 20
310.45437346845461
 30
0.0
  9
$LIMMIN
 10
0.0
 20
0.0
  9
$LIMMAX
 10
187.5
 20
135.0
  9
$ORTHOMODE
 70
     0
  9
$REGENMODE
 70
     1
  9
$FILLMODE
 70
     1
  9
$QTEXTMODE
 70
     0
  9
$MIRRTEXT
 70
     0
  9
$DRAGMODE
 70
     2
  9
$LTSCALE
 40
10.0
  9
$OSMODE
 70
    55
  9
$ATTMODE
 70
     1
  9
$TEXTSIZE
 40
4.0
  9
$TRACEWID
 40
0.05
  9
$TEXTSTYLE
  7
STANDARD
  9
$CLAYER
  8
0
  9
$CELTYPE
  6
BYLAYER
  9
$CECOLOR
 62
   256
  9
$DIMSCALE
 40
0.5
  9
$DIMASZ
 40
3.0
  9
$DIMEXO
 40
2.0
  9
$DIMDLI
 40
0.38
  9
$DIMRND
 40
0.0
  9
$DIMDLE
 40
0.0
  9
$DIMEXE
 40
2.0
  9
$DIMTP
 40
0.0
  9
$DIMTM
 40
0.0
  9
$DIMTXT
 40
3.0
  9
$DIMCEN
 40
0.0
  9
$DIMTSZ
 40
0.0
  9
$DIMTOL
 70
     0
  9
$DIMLIM
 70
     0
  9
$DIMTIH
 70
     0
  9
$DIMTOH
 70
     0
  9
$DIMSE1
 70
     0
  9
$DIMSE2
 70
     0
  9
$DIMTAD
 70
     1
  9
$DIMZIN
 70
     0
  9
$DIMBLK
  1

  9
$DIMASO
 70
     0
  9
$DIMSHO
 70
     0
  9
$DIMPOST
  1

  9
$DIMAPOST
  1

  9
$DIMALT
 70
     0
  9
$DIMALTD
 70
     2
  9
$DIMALTF
 40
25.399999999999999
  9
$DIMLFAC
 40
1.0
  9
$DIMTOFL
 70
     0
  9
$DIMTVP
 40
1.6000000000000001
  9
$DIMTIX
 70
     1
  9
$DIMSOXD
 70
     0
  9
$DIMSAH
 70
     0
  9
$DIMBLK1
  1

  9
$DIMBLK2
  1

  9
$DIMSTYLE
  2
STANDARD
  9
$DIMCLRD
 70
     0
  9
$DIMCLRE
 70
     0
  9
$DIMCLRT
 70
     0
  9
$DIMTFAC
 40
1.0
  9
$DIMGAP
 40
0.09
  9
$LUNITS
 70
     2
  9
$LUPREC
 70
     4
  9
$SKETCHINC
 40
0.1
  9
$FILLETRAD
 40
1.25
  9
$AUNITS
 70
     0
  9
$AUPREC
 70
     0
  9
$MENU
  1
E:\r13\win\SUPPORT\ACAD
  9
$ELEVATION
 40
0.0
  9
$PELEVATION
 40
0.0
  9
$THICKNESS
 40
0.0
  9
$LIMCHECK
 70
     0
  9
$BLIPMODE
 70
     0
  9
$CHAMFERA
 40
0.0
  9
$CHAMFERB
 40
0.0
  9
$SKPOLY
 70
     0
  9
$TDCREATE
 40
2449840.6143865739
  9
$TDUPDATE
 40
2456598.655255035
  9
$TDINDWG
 40
0.2373600347
  9
$TDUSRTIMER
 40
0.2373600347
  9
$USRTIMER
 70
     1
  9
$ANGBASE
 50
0.0
  9
$ANGDIR
 70
     0
  9
$PDMODE
 70
     0
  9
$PDSIZE
 40
0.0
  9
$PLINEWID
 40
0.0
  9
$COORDS
 70
     1
  9
$SPLFRAME
 70
     0
  9
$SPLINETYPE
 70
     6
  9
$SPLINESEGS
 70
     8
  9
$ATTDIA
 70
     0
  9
$ATTREQ
 70
     1
  9
$HANDLING
 70
     1
  9
$HANDSEED
  5
14E3
  9
$SURFTAB1
 70
     6
  9
$SURFTAB2
 70
     6
  9
$SURFTYPE
 70
     6
  9
$SURFU
 70
     6
  9
$SURFV
 70
     6
  9
$UCSNAME
  2

  9
$UCSORG
 10
0.0
 20
0.0
 30
0.0
  9
$UCSXDIR
 10
1.0
 20
0.0
 30
0.0
  9
$UCSYDIR
 10
0.0
 20
1.0
 30
0.0
  9
$PUCSNAME
  2

  9
$PUCSORG
 10
0.0
 20
0.0
 30
0.0
  9
$PUCSXDIR
 10
1.0
 20
0.0
 30
0.0
  9
$PUCSYDIR
 10
0.0
 20
1.0
 30
0.0
  9
$USERI1
 70
     0
  9
$USERI2
 70
     1
  9
$USERI3
 70
     1
  9
$USERI4
 70
     0
  9
$USERI5
 70
     0
  9
$USERR1
 40
0.0
  9
$USERR2
 40
0.0
  9
$USERR3
 40
0.0
  9
$USERR4
 40
0.0
  9
$USERR5
 40
0.0
  9
$WORLDVIEW
 70
     1
  9
$SHADEDGE
 70
     3
  9
$SHADEDIF
 70
    70
  9
$TILEMODE
 70
     1
  9
$MAXACTVP
 70
    16
  9
$PLIMCHECK
 70
     0
  9
$PEXTMIN
 10
1.0000000000000000E+020
 20
1.0000000000000000E+020
 30
1.0000000000000000E+020
  9
$PEXTMAX
 10
-1.0000000000000000E+020
 20
-1.0000000000000000E+020
 30
-1.0000000000000000E+020
  9
$PLIMMIN
 10
0.0
 20
0.0
  9
$PLIMMAX
 10
12.0
 20
9.0
  9
$UNITMODE
 70
     0
  9
$VISRETAIN
 70
     0
  9
$PLINEGEN
 70
     0
  9
$PSLTSCALE
 70
     0
  0
ENDSEC
  0
SECTION
  2
TABLES
  0
TABLE
  2
VPORT
 70
     1
  0
VPORT
  2
*ACTIVE
 70
     0
 10
0.0
 20
0.0
 11
1.0
 21
1.0
 12
191.5491012776607
 22
201.2876600600606
 13
0.0
 23
0.0
 14
5.0
 24
5.0
 15
5.0
 25
5.0
 16
0.0
 26
0.0
 36
1.0
 17
0.0
 27
0.0
 37
0.0
 40
412.11840474119202
 41
1.7807262569832401
 42
50.0
 43
0.0
 44
0.0
 50
0.0
 51
0.0
 71
     0
 72
   100
 73
     1
 74
     0
 75
     0
 76
     0
 77
     0
 78
     0
  0
ENDTAB
  0
TABLE
  2
LTYPE
 70
     3
  0
LTYPE
  2
CONTINUOUS
 70
     0
  3
Solid Line
 72
    65
 73
     0
 40
0.0
  0
LTYPE
  2
CENTER
 70
     0
  3
____ _ ____ _ ____ _ ____ _ ____ _ ____ _ ____
 72
    65
 73
     4
 40
2.0
 49
1.25
 49
-0.25
 49
0.25
 49
-0.25
  0
LTYPE
  2
PHANTOM2
 70
     0
  3
___ _ _ ___ _ _ ___ _ _ ___ _ _
 72
    65
 73
     6
 40
1.25
 49
0.625
 49
-0.125
 49
0.125
 49
-0.125
 49
0.125
 49
-0.125
  0
ENDTAB
  0
TABLE
  2
LAYER
 70
     3
  0
LAYER
  2
0
 70
     0
 62
     7
  6
CONTINUOUS
  0
LAYER
  2
1
 70
     0
 62
     1
  6
CENTER
  0
LAYER
  2
3
 70
     0
 62
     3
  6
CONTINUOUS
  0
ENDTAB
  0
TABLE
  2
STYLE
 70
     2
  0
STYLE
  2
STANDARD
 70
     0
 40
0.0
 41
1.0
 50
0.0
 71
     0
 42
4.0
  3
TXT
  4
BIGFONT
  0
STYLE
  2
STANDARD1
 70
     0
 40
0.0
 41
1.0
 50
0.0
 71
     0
 42
3.0
  3
txt
  4

  0
ENDTAB
  0
TABLE
  2
VIEW
 70
     1
  0
VIEW
  2
ALL
 70
     0
 40
179.66152299999999
 10
141.903918
 20
89.830760999999995
 41
0.0
 11
0.0
 21
0.0
 31
1.0
 12
0.0
 22
0.0
 32
0.0
 42
0.0
 43
0.0
 44
0.0
 50
0.0
 71
     0
  0
ENDTAB
  0
TABLE
  2
UCS
 70
     0
  0
ENDTAB
  0
TABLE
  2
APPID
 70
     4
  0
APPID
  2
ACAD
 70
     0
  0
APPID
  2
DCO15
 70
     0
  0
APPID
  2
ACAD_MLEADERVER
 70
     0
  0
APPID
  2
ACAD_NAV_VCDISPLAY
 70
     0
  0
ENDTAB
  0
TABLE
  2
DIMSTYLE
 70
     1
  0
DIMSTYLE
  2
STANDARD
 70
     0
  3

  4

  5

  6

  7

 40
1.0
 41
0.18
 42
0.0625
 43
0.38
 44
0.18
 45
0.0
 46
0.0
 47
0.0
 48
0.0
140
0.18
141
0.09
142
0.0
143
25.399999999999999
144
1.0
145
0.0
146
1.0
147
0.09
 71
     0
 72
     0
 73
     1
 74
     1
 75
     0
 76
     0
 77
     0
 78
     0
170
     0
171
     2
172
     0
173
     0
174
     0
175
     0
176
     0
177
     0
178
     0
  0
ENDTAB
  0
ENDSEC
  0
SECTION
  2
BLOCKS
  0
BLOCK
  8
0
  2
$MODEL_SPACE
 70
     0
 10
0.0
 20
0.0
 30
0.0
  3
$MODEL_SPACE
  1

  0
ENDBLK
  5
1BD
  8
0
  0
BLOCK
 67
     1
  8
0
  2
$PAPER_SPACE
 70
     0
 10
0.0
 20
0.0
 30
0.0
  3
$PAPER_SPACE
  1

  0
ENDBLK
  5
1BB
 67
     1
  8
0
  0
ENDSEC
  0
SECTION
  2
ENTITIES
  0
LINE
  5
104A
  8
0
 10
201.38038095782869
 20
197.15802084652171
 30
0.0
 11
201.38038095782869
 21
178.53911401021509
 31
0.0
  0
LINE
  5
104B
  8
0
 10
222.38038095782869
 20
178.53911401021509
 30
0.0
 11
222.38038095782869
 21
192.53911401021509
 31
0.0
  0
LINE
  5
104C
  8
0
 10
278.26331356166111
 20
210.5991140102152
 30
0.0
 11
268.22486311217227
 21
210.5991140102152
 31
0.0
  0
LINE
  5
104D
  8
0
 10
286.64992728769408
 20
212.87042058549901
 30
0.0
 11
281.65156653203047
 21
211.18828634530749
 31
0.0
  0
LINE
  5
104E
  8
0
 10
222.38038095782869
 20
178.53911401021509
 30
0.0
 11
201.38038095782869
 21
178.53911401021509
 31
0.0
  0
LINE
  5
104F
  8
1
 10
211.88038095782869
 20
210.5391140102152
 30
0.0
 11
211.88038095782869
 21
133.53911401021509
 31
0.0
  0
LINE
  5
1051
  8
0
 10
219.89038095782871
 20
168.53911401021509
 30
0.0
 11
219.89038095782871
 21
178.53911401021509
 31
0.0
  0
LINE
  5
1052
  8
0
 10
203.89038095782871
 20
178.53911401021509
 30
0.0
 11
203.89038095782871
 21
168.53911401021509
 31
0.0
  0
LINE
  5
1054
  8
0
 10
203.89038095782871
 20
168.53911401021509
 30
0.0
 11
219.89038095782871
 21
168.53911401021509
 31
0.0
  0
ARC
  5
1062
  8
0
 10
312.59613456847961
 20
-45.95100393723839
 30
0.0
 40
270.0
 50
94.957086921350097
 51
113.6996745048306
  0
LINE
  5
1063
  8
0
 10
289.26554420700211
 20
223.0391140102152
 30
0.0
 11
289.89038095782871
 21
223.0391140102152
 31
0.0
  0
LINE
  5
1064
  8
0
 10
291.89038095782871
 20
221.0391140102152
 30
0.0
 11
291.89038095782871
 21
219.00422616844111
 31
0.0
  0
ARC
  5
1065
  8
0
 10
289.89038095782871
 20
221.0391140102152
 30
0.0
 40
2.0
 50
0.0
 51
90.0
  0
ARC
  5
1066
  8
0
 10
205.88038095782869
 20
197.15802084652171
 30
0.0
 40
4.5
 50
113.6996745048306
 51
180.0
  0
ARC
  5
1067
  8
0
 10
339.17803782013681
 20
-34.12082049432513
 30
0.0
 40
255.0
 50
106.4878909565075
 51
117.2600616186912
  0
ARC
  5
1068
  8
0
 10
268.22486311217227
 20
205.5991140102152
 30
0.0
 40
5.0
 50
90.0
 51
106.48789095650569
  0
ARC
  5
1069
  8
0
 10
284.46286976045252
 20
220.0444556685284
 30
0.0
 40
7.5
 50
286.95422943661129
 51
352.02753029962417
  0
LINE
  5
106A
  8
0
 10
201.38038095782869
 20
291.2078522533692
 30
0.0
 11
201.38038095782869
 21
297.70089468354013
 31
0.0
  0
CIRCLE
  5
1078
  8
0
 10
212.84196971627961
 20
294.45437346845461
 30
0.0
 40
6.5992762682978654
  0
LINE
  5
1079
  8
1
 10
211.89038095782871
 20
310.45437346845461
 30
0.0
 11
211.89038095782871
 21
278.45437346845461
 31
0.0
  0
LINE
  5
107A
  8
1
 10
296.89038095782871
 20
294.45437346845461
 30
0.0
 11
196.38038095782869
 21
294.45437346845461
 31
0.0
  0
ARC
  5
107B
  8
0
 10
211.89038095782871
 20
294.45437346845461
 30
0.0
 40
11.0
 50
197.16583016485521
 51
297.66428518543768
  0
ARC
  5
107C
  8
0
 10
286.39038095782871
 20
294.45437346845461
 30
0.0
 40
5.5
 50
270.0
 51
90.0
  0
ARC
  5
107D
  8
0
 10
234.95944424969551
 20
350.85919827683489
 30
0.0
 40
50.0
 50
248.9466271382876
 51
278.79596523459998
  0
LINE
  5
107E
  8
0
 10
286.39038095782871
 20
299.95437346845461
 30
0.0
 11
243.5504400032531
 21
301.50278212006231
 31
0.0
  0
ARC
  5
107F
  8
0
 10
243.36983772033301
 20
296.50604490309718
 30
0.0
 40
5.0
 50
87.929999999999524
 51
98.795965234600004
  0
LINE
  5
1080
  8
0
 10
286.39038095782871
 20
288.95437346845461
 30
0.0
 11
243.5504400032531
 21
287.40596481684702
 31
0.0
  0
ARC
  5
1081
  8
0
 10
234.95944424969551
 20
238.04954866007429
 30
0.0
 40
50.0
 50
81.204034765399996
 51
111.0533728617124
  0
ARC
  5
1082
  8
0
 10
243.36983772033301
 20
292.40270203381198
 30
0.0
 40
5.0
 50
261.20403476540002
 51
272.0700000000005
  0
ARC
  5
1083
  8
0
 10
211.89038095782871
 20
294.45437346845461
 30
0.0
 40
11.0
 50
62.335714814562287
 51
162.83416983514471
  0
LINE
  5
1084
  8
0
 10
286.39038095782871
 20
71.804376337580152
 30
0.0
 11
243.5504400032531
 21
73.352784989187853
 31
0.0
  0
LINE
  5
1085
  8
0
 10
286.39038095782871
 20
60.804376337580152
 30
0.0
 11
243.5504400032531
 21
59.255967685972557
 31
0.0
  0
LINE
  5
1086
  8
1
 10
296.89038095782871
 20
66.304376337580152
 30
0.0
 11
196.38038095782869
 21
66.304376337580152
 31
0.0
  0
ARC
  5
1087
  8
0
 10
234.95944424969551
 20
122.70920114596051
 30
0.0
 40
50.0
 50
248.9466271382876
 51
278.79596523459998
  0
ARC
  5
1088
  8
0
 10
234.95944424969551
 20
9.8995515291998686
 30
0.0
 40
50.0
 50
81.204034765399996
 51
111.0533728617124
  0
LINE
  5
1089
  8
1
 10
211.89038095782871
 20
82.304376337580152
 30
0.0
 11
211.89038095782871
 21
50.304376337580152
 31
0.0
  0
ARC
  5
108A
  8
0
 10
211.89038095782871
 20
66.304376337580152
 30
0.0
 40
11.0
 50
62.335714814562287
 51
162.83416983514471
  0
ARC
  5
108B
  8
0
 10
211.89038095782871
 20
66.304376337580152
 30
0.0
 40
11.0
 50
197.16583016485521
 51
297.66428518543768
  0
LINE
  5
108C
  8
0
 10
201.38038095782869
 20
63.05785512249475
 30
0.0
 11
201.38038095782869
 21
69.550897552665617
 31
0.0
  0
ARC
  5
108D
  8
0
 10
243.36983772033301
 20
64.25270490293758
 30
0.0
 40
5.0
 50
261.20403476540002
 51
272.0700000000005
  0
ARC
  5
108E
  8
0
 10
243.36983772033301
 20
68.356047772222723
 30
0.0
 40
5.0
 50
87.929999999999524
 51
98.795965234600004
  0
ARC
  5
108F
  8
0
 10
286.39038095782871
 20
66.304376337580152
 30
0.0
 40
5.5
 50
270.0
 51
90.0
  0
CIRCLE
  5
1090
  8
0
 10
211.89038095782871
 20
66.304376337580152
 30
0.0
 40
8.0
  0
CIRCLE
  5
1091
  8
0
 10
211.89038095782871
 20
66.304376337580152
 30
0.0
 40
10.5
  0
CIRCLE
  5
1092
  8
3
 10
211.89038095782871
 20
66.304376337580152
 30
0.0
 40
4.0
  0
CIRCLE
  5
1093
  8
0
 10
211.89038095782871
 20
66.304376337580152
 30
0.0
 40
5.0
  0
LINE
  5
1096
  8
0
 10
124.92355595794059
 20
168.53911401021509
 30
0.0
 11
124.92355595794059
 21
178.53911401021509
 31
0.0
  0
LINE
  5
1097
  8
0
 10
108.92355595794059
 20
178.53911401021509
 30
0.0
 11
108.92355595794059
 21
168.53911401021509
 31
0.0
  0
LINE
  5
1099
  8
0
 10
111.6235559579406
 20
201.28911401021509
 30
0.0
 11
122.2235559579405
 21
201.28911401021509
 31
0.0
  0
LINE
  5
109A
  8
0
 10
108.92355595794059
 20
168.53911401021509
 30
0.0
 11
124.92355595794059
 21
168.53911401021509
 31
0.0
  0
LINE
  5
109B
  8
1
 10
116.92355595794059
 20
228.03911401021509
 30
0.0
 11
116.92355595794059
 21
133.53911401021509
 31
0.0
  0
LINE
  5
109C
  8
0
 10
121.5111425606846
 20
223.0391140102152
 30
0.0
 11
112.3359693551964
 21
223.0391140102152
 31
0.0
  0
LINE
  5
109D
  8
0
 10
127.42355595794059
 20
178.53911401021509
 30
0.0
 11
106.42355595794049
 21
178.53911401021509
 31
0.0
  0
LINE
  5
109E
  8
0
 10
111.6235559579406
 20
201.28911401021509
 30
0.0
 11
122.2235559579405
 21
201.28911401021509
 31
0.0
  0
POLYLINE
  5
109F
  8
0
 10
110.36160671722347
 20
204.83842350192086
 30
0.0
 66
     1
 70
     8
  0
VERTEX
  8
0
  5
13DF
 10
110.362
 20
204.838
 30
0.000000
  70
    32
  0
VERTEX
  8
0
  5
13E0
 10
110.372
 20
204.716
 30
0.000000
  70
    32
  0
VERTEX
  8
0
  5
13E1
 10
110.398
 20
204.594
 30
0.000000
  70
    32
  0
VERTEX
  8
0
  5
13E2
 10
110.440
 20
204.474
 30
0.000000
  70
    32
  0
VERTEX
  8
0
  5
13E3
 10
110.498
 20
204.354
 30
0.000000
  70
    32
  0
VERTEX
  8
0
  5
13E4
 10
110.571
 20
204.236
 30
0.000000
  70
    32
  0
VERTEX
  8
0
  5
13E5
 10
110.659
 20
204.120
 30
0.000000
  70
    32
  0
VERTEX
  8
0
  5
13E6
 10
110.763
 20
204.005
 30
0.000000
  70
    32
  0
VERTEX
  8
0
  5
13E7
 10
110.881
 20
203.893
 30
0.000000
  70
    32
  0
VERTEX
  8
0
  5
13E8
 10
111.014
 20
203.784
 30
0.000000
  70
    32
  0
VERTEX
  8
0
  5
13E9
 10
111.161
 20
203.678
 30
0.000000
  70
    32
  0
VERTEX
  8
0
  5
13EA
 10
111.322
 20
203.574
 30
0.000000
  70
    32
  0
VERTEX
  8
0
  5
13EB
 10
111.497
 20
203.474
 30
0.000000
  70
    32
  0
VERTEX
  8
0
  5
13EC
 10
111.684
 20
203.378
 30
0.000000
  70
    32
  0
VERTEX
  8
0
  5
13ED
 10
111.884
 20
203.286
 30
0.000000
  70
    32
  0
VERTEX
  8
0
  5
13EE
 10
112.097
 20
203.197
 30
0.000000
  70
    32
  0
VERTEX
  8
0
  5
13EF
 10
112.321
 20
203.113
 30
0.000000
  70
    32
  0
VERTEX
  8
0
  5
13F0
 10
112.556
 20
203.034
 30
0.000000
  70
    32
  0
VERTEX
  8
0
  5
13F1
 10
112.801
 20
202.959
 30
0.000000
  70
    32
  0
VERTEX
  8
0
  5
13F2
 10
113.057
 20
202.889
 30
0.000000
  70
    32
  0
VERTEX
  8
0
  5
13F3
 10
113.322
 20
202.824
 30
0.000000
  70
    32
  0
VERTEX
  8
0
  5
13F4
 10
113.595
 20
202.764
 30
0.000000
  70
    32
  0
VERTEX
  8
0
  5
13F5
 10
113.877
 20
202.709
 30
0.000000
  70
    32
  0
VERTEX
  8
0
  5
13F6
 10
114.165
 20
202.660
 30
0.000000
  70
    32
  0
VERTEX
  8
0
  5
13F7
 10
114.461
 20
202.617
 30
0.000000
  70
    32
  0
VERTEX
  8
0
  5
13F8
 10
114.762
 20
202.579
 30
0.000000
  70
    32
  0
VERTEX
  8
0
  5
13F9
 10
115.069
 20
202.547
 30
0.000000
  70
    32
  0
VERTEX
  8
0
  5
13FA
 10
115.380
 20
202.521
 30
0.000000
  70
    32
  0
VERTEX
  8
0
  5
13FB
 10
115.695
 20
202.501
 30
0.000000
  70
    32
  0
VERTEX
  8
0
  5
13FC
 10
116.013
 20
202.486
 30
0.000000
  70
    32
  0
VERTEX
  8
0
  5
13FD
 10
116.333
 20
202.478
 30
0.000000
  70
    32
  0
VERTEX
  8
0
  5
13FE
 10
116.654
 20
202.476
 30
0.000000
  70
    32
  0
VERTEX
  8
0
  5
13FF
 10
116.976
 20
202.479
 30
0.000000
  70
    32
  0
VERTEX
  8
0
  5
1400
 10
117.298
 20
202.489
 30
0.000000
  70
    32
  0
VERTEX
  8
0
  5
1401
 10
117.619
 20
202.505
 30
0.000000
  70
    32
  0
VERTEX
  8
0
  5
1402
 10
117.938
 20
202.527
 30
0.000000
  70
    32
  0
VERTEX
  8
0
  5
1403
 10
118.255
 20
202.554
 30
0.000000
  70
    32
  0
VERTEX
  8
0
  5
1404
 10
118.569
 20
202.588
 30
0.000000
  70
    32
  0
VERTEX
  8
0
  5
1405
 10
118.879
 20
202.627
 30
0.000000
  70
    32
  0
VERTEX
  8
0
  5
1406
 10
119.184
 20
202.672
 30
0.000000
  70
    32
  0
VERTEX
  8
0
  5
1407
 10
119.483
 20
202.722
 30
0.000000
  70
    32
  0
VERTEX
  8
0
  5
1408
 10
119.777
 20
202.778
 30
0.000000
  70
    32
  0
VERTEX
  8
0
  5
1409
 10
120.063
 20
202.839
 30
0.000000
  70
    32
  0
VERTEX
  8
0
  5
140A
 10
120.342
 20
202.906
 30
0.000000
  70
    32
  0
VERTEX
  8
0
  5
140B
 10
120.613
 20
202.977
 30
0.000000
  70
    32
  0
VERTEX
  8
0
  5
140C
 10
120.875
 20
203.053
 30
0.000000
  70
    32
  0
VERTEX
  8
0
  5
140D
 10
121.127
 20
203.134
 30
0.000000
  70
    32
  0
VERTEX
  8
0
  5
140E
 10
121.369
 20
203.219
 30
0.000000
  70
    32
  0
VERTEX
  8
0
  5
140F
 10
121.601
 20
203.308
 30
0.000000
  70
    32
  0
VERTEX
  8
0
  5
1410
 10
121.821
 20
203.402
 30
0.000000
  70
    32
  0
VERTEX
  8
0
  5
1411
 10
122.029
 20
203.499
 30
0.000000
  70
    32
  0
VERTEX
  8
0
  5
1412
 10
122.225
 20
203.600
 30
0.000000
  70
    32
  0
VERTEX
  8
0
  5
1413
 10
122.409
 20
203.704
 30
0.000000
  70
    32
  0
VERTEX
  8
0
  5
1414
 10
122.579
 20
203.811
 30
0.000000
  70
    32
  0
VERTEX
  8
0
  5
1415
 10
122.735
 20
203.921
 30
0.000000
  70
    32
  0
VERTEX
  8
0
  5
1416
 10
122.878
 20
204.033
 30
0.000000
  70
    32
  0
VERTEX
  8
0
  5
1417
 10
123.006
 20
204.148
 30
0.000000
  70
    32
  0
VERTEX
  8
0
  5
1418
 10
123.120
 20
204.265
 30
0.000000
  70
    32
  0
VERTEX
  8
0
  5
1419
 10
123.218
 20
204.383
 30
0.000000
  70
    32
  0
VERTEX
  8
0
  5
141A
 10
123.302
 20
204.503
 30
0.000000
  70
    32
  0
VERTEX
  8
0
  5
141B
 10
123.370
 20
204.624
 30
0.000000
  70
    32
  0
VERTEX
  8
0
  5
141C
 10
123.422
 20
204.746
 30
0.000000
  70
    32
  0
VERTEX
  8
0
  5
141D
 10
123.459
 20
204.869
 30
0.000000
  70
    32
  0
VERTEX
  8
0
  5
141E
 10
123.480
 20
204.992
 30
0.000000
  70
    32
  0
VERTEX
  8
0
  5
141F
 10
123.486
 20
205.114
 30
0.000000
  70
    32
  0
VERTEX
  8
0
  5
1420
 10
123.475
 20
205.237
 30
0.000000
  70
    32
  0
VERTEX
  8
0
  5
1421
 10
123.449
 20
205.358
 30
0.000000
  70
    32
  0
VERTEX
  8
0
  5
1422
 10
123.407
 20
205.479
 30
0.000000
  70
    32
  0
VERTEX
  8
0
  5
1423
 10
123.349
 20
205.599
 30
0.000000
  70
    32
  0
VERTEX
  8
0
  5
1424
 10
123.276
 20
205.717
 30
0.000000
  70
    32
  0
VERTEX
  8
0
  5
1425
 10
123.188
 20
205.833
 30
0.000000
  70
    32
  0
VERTEX
  8
0
  5
1426
 10
123.084
 20
205.947
 30
0.000000
  70
    32
  0
VERTEX
  8
0
  5
1427
 10
122.966
 20
206.059
 30
0.000000
  70
    32
  0
VERTEX
  8
0
  5
1428
 10
122.833
 20
206.168
 30
0.000000
  70
    32
  0
VERTEX
  8
0
  5
1429
 10
122.686
 20
206.275
 30
0.000000
  70
    32
  0
VERTEX
  8
0
  5
142A
 10
122.525
 20
206.378
 30
0.000000
  70
    32
  0
VERTEX
  8
0
  5
142B
 10
122.350
 20
206.478
 30
0.000000
  70
    32
  0
VERTEX
  8
0
  5
142C
 10
122.163
 20
206.574
 30
0.000000
  70
    32
  0
VERTEX
  8
0
  5
142D
 10
121.963
 20
206.667
 30
0.000000
  70
    32
  0
VERTEX
  8
0
  5
142E
 10
121.750
 20
206.755
 30
0.000000
  70
    32
  0
VERTEX
  8
0
  5
142F
 10
121.526
 20
206.839
 30
0.000000
  70
    32
  0
VERTEX
  8
0
  5
1430
 10
121.291
 20
206.919
 30
0.000000
  70
    32
  0
VERTEX
  8
0
  5
1431
 10
121.046
 20
206.994
 30
0.000000
  70
    32
  0
VERTEX
  8
0
  5
1432
 10
120.790
 20
207.064
 30
0.000000
  70
    32
  0
VERTEX
  8
0
  5
1433
 10
120.526
 20
207.129
 30
0.000000
  70
    32
  0
VERTEX
  8
0
  5
1434
 10
120.252
 20
207.189
 30
0.000000
  70
    32
  0
VERTEX
  8
0
  5
1435
 10
119.971
 20
207.243
 30
0.000000
  70
    32
  0
VERTEX
  8
0
  5
1436
 10
119.682
 20
207.292
 30
0.000000
  70
    32
  0
VERTEX
  8
0
  5
1437
 10
119.386
 20
207.336
 30
0.000000
  70
    32
  0
VERTEX
  8
0
  5
1438
 10
119.085
 20
207.374
 30
0.000000
  70
    32
  0
VERTEX
  8
0
  5
1439
 10
118.778
 20
207.406
 30
0.000000
  70
    32
  0
VERTEX
  8
0
  5
143A
 10
118.467
 20
207.432
 30
0.000000
  70
    32
  0
VERTEX
  8
0
  5
143B
 10
118.152
 20
207.452
 30
0.000000
  70
    32
  0
VERTEX
  8
0
  5
143C
 10
117.834
 20
207.466
 30
0.000000
  70
    32
  0
VERTEX
  8
0
  5
143D
 10
117.515
 20
207.475
 30
0.000000
  70
    32
  0
VERTEX
  8
0
  5
143E
 10
117.193
 20
207.477
 30
0.000000
  70
    32
  0
VERTEX
  8
0
  5
143F
 10
116.871
 20
207.473
 30
0.000000
  70
    32
  0
VERTEX
  8
0
  5
1440
 10
116.549
 20
207.463
 30
0.000000
  70
    32
  0
VERTEX
  8
0
  5
1441
 10
116.228
 20
207.448
 30
0.000000
  70
    32
  0
VERTEX
  8
0
  5
1442
 10
115.909
 20
207.426
 30
0.000000
  70
    32
  0
VERTEX
  8
0
  5
1443
 10
115.592
 20
207.398
 30
0.000000
  70
    32
  0
VERTEX
  8
0
  5
1444
 10
115.278
 20
207.365
 30
0.000000
  70
    32
  0
VERTEX
  8
0
  5
1445
 10
114.969
 20
207.326
 30
0.000000
  70
    32
  0
VERTEX
  8
0
  5
1446
 10
114.664
 20
207.281
 30
0.000000
  70
    32
  0
VERTEX
  8
0
  5
1447
 10
114.364
 20
207.230
 30
0.000000
  70
    32
  0
VERTEX
  8
0
  5
1448
 10
114.071
 20
207.174
 30
0.000000
  70
    32
  0
VERTEX
  8
0
  5
1449
 10
113.784
 20
207.113
 30
0.000000
  70
    32
  0
VERTEX
  8
0
  5
144A
 10
113.505
 20
207.047
 30
0.000000
  70
    32
  0
VERTEX
  8
0
  5
144B
 10
113.234
 20
206.976
 30
0.000000
  70
    32
  0
VERTEX
  8
0
  5
144C
 10
112.972
 20
206.900
 30
0.000000
  70
    32
  0
VERTEX
  8
0
  5
144D
 10
112.720
 20
206.819
 30
0.000000
  70
    32
  0
VERTEX
  8
0
  5
144E
 10
112.478
 20
206.734
 30
0.000000
  70
    32
  0
VERTEX
  8
0
  5
144F
 10
112.246
 20
206.644
 30
0.000000
  70
    32
  0
VERTEX
  8
0
  5
1450
 10
112.026
 20
206.551
 30
0.000000
  70
    32
  0
VERTEX
  8
0
  5
1451
 10
111.818
 20
206.454
 30
0.000000
  70
    32
  0
VERTEX
  8
0
  5
1452
 10
111.622
 20
206.353
 30
0.000000
  70
    32
  0
VERTEX
  8
0
  5
1453
 10
111.438
 20
206.249
 30
0.000000
  70
    32
  0
VERTEX
  8
0
  5
1454
 10
111.268
 20
206.142
 30
0.000000
  70
    32
  0
VERTEX
  8
0
  5
1455
 10
111.112
 20
206.032
 30
0.000000
  70
    32
  0
VERTEX
  8
0
  5
1456
 10
110.969
 20
205.919
 30
0.000000
  70
    32
  0
VERTEX
  8
0
  5
1457
 10
110.841
 20
205.804
 30
0.000000
  70
    32
  0
VERTEX
  8
0
  5
1458
 10
110.728
 20
205.688
 30
0.000000
  70
    32
  0
VERTEX
  8
0
  5
1459
 10
110.629
 20
205.569
 30
0.000000
  70
    32
  0
VERTEX
  8
0
  5
145A
 10
110.546
 20
205.449
 30
0.000000
  70
    32
  0
VERTEX
  8
0
  5
145B
 10
110.477
 20
205.328
 30
0.000000
  70
    32
  0
VERTEX
  8
0
  5
145C
 10
110.425
 20
205.206
 30
0.000000
  70
    32
  0
VERTEX
  8
0
  5
145D
 10
110.388
 20
205.084
 30
0.000000
  70
    32
  0
VERTEX
  8
0
  5
145E
 10
110.367
 20
204.961
 30
0.000000
  70
    32
  0
VERTEX
  8
0
  5
145F
 10
110.362
 20
204.838
 30
0.000000
  70
    32
  0
SEQEND
  8
0
  5
1460
  0
LINE
  5
10A0
  8
0
 10
124.0858744500661
 20
201.2785127920092
 30
0.0
 11
109.761237465815
 21
201.2785127920092
 31
0.0
  0
POLYLINE
  5
10A1
  8
0
 10
124.08587445006611
 20
201.27851279200914
 30
0.0
 66
     1
 70
     8
  0
VERTEX
  8
0
  5
1461
 10
124.086
 20
201.279
 30
0.000000
  70
    32
  0
VERTEX
  8
0
  5
1462
 10
124.398
 20
201.390
 30
0.000000
  70
    32
  0
VERTEX
  8
0
  5
1463
 10
124.699
 20
201.507
 30
0.000000
  70
    32
  0
VERTEX
  8
0
  5
1464
 10
124.989
 20
201.628
 30
0.000000
  70
    32
  0
VERTEX
  8
0
  5
1465
 10
125.267
 20
201.754
 30
0.000000
  70
    32
  0
VERTEX
  8
0
  5
1466
 10
125.534
 20
201.883
 30
0.000000
  70
    32
  0
VERTEX
  8
0
  5
1467
 10
125.788
 20
202.017
 30
0.000000
  70
    32
  0
VERTEX
  8
0
  5
1468
 10
126.029
 20
202.154
 30
0.000000
  70
    32
  0
VERTEX
  8
0
  5
1469
 10
126.257
 20
202.295
 30
0.000000
  70
    32
  0
VERTEX
  8
0
  5
146A
 10
126.471
 20
202.440
 30
0.000000
  70
    32
  0
VERTEX
  8
0
  5
146B
 10
126.672
 20
202.587
 30
0.000000
  70
    32
  0
VERTEX
  8
0
  5
146C
 10
126.858
 20
202.738
 30
0.000000
  70
    32
  0
VERTEX
  8
0
  5
146D
 10
127.030
 20
202.891
 30
0.000000
  70
    32
  0
VERTEX
  8
0
  5
146E
 10
127.188
 20
203.047
 30
0.000000
  70
    32
  0
VERTEX
  8
0
  5
146F
 10
127.331
 20
203.205
 30
0.000000
  70
    32
  0
VERTEX
  8
0
  5
1470
 10
127.458
 20
203.365
 30
0.000000
  70
    32
  0
VERTEX
  8
0
  5
1471
 10
127.571
 20
203.527
 30
0.000000
  70
    32
  0
VERTEX
  8
0
  5
1472
 10
127.668
 20
203.690
 30
0.000000
  70
    32
  0
VERTEX
  8
0
  5
1473
 10
127.750
 20
203.855
 30
0.000000
  70
    32
  0
VERTEX
  8
0
  5
1474
 10
127.816
 20
204.021
 30
0.000000
  70
    32
  0
VERTEX
  8
0
  5
1475
 10
127.866
 20
204.188
 30
0.000000
  70
    32
  0
VERTEX
  8
0
  5
1476
 10
127.901
 20
204.356
 30
0.000000
  70
    32
  0
VERTEX
  8
0
  5
1477
 10
127.919
 20
204.524
 30
0.000000
  70
    32
  0
VERTEX
  8
0
  5
1478
 10
127.922
 20
204.692
 30
0.000000
  70
    32
  0
VERTEX
  8
0
  5
1479
 10
127.909
 20
204.860
 30
0.000000
  70
    32
  0
VERTEX
  8
0
  5
147A
 10
127.880
 20
205.028
 30
0.000000
  70
    32
  0
VERTEX
  8
0
  5
147B
 10
127.835
 20
205.195
 30
0.000000
  70
    32
  0
VERTEX
  8
0
  5
147C
 10
127.774
 20
205.362
 30
0.000000
  70
    32
  0
VERTEX
  8
0
  5
147D
 10
127.698
 20
205.527
 30
0.000000
  70
    32
  0
VERTEX
  8
0
  5
147E
 10
127.606
 20
205.691
 30
0.000000
  70
    32
  0
VERTEX
  8
0
  5
147F
 10
127.499
 20
205.854
 30
0.000000
  70
    32
  0
VERTEX
  8
0
  5
1480
 10
127.376
 20
206.014
 30
0.000000
  70
    32
  0
VERTEX
  8
0
  5
1481
 10
127.239
 20
206.173
 30
0.000000
  70
    32
  0
VERTEX
  8
0
  5
1482
 10
127.086
 20
206.330
 30
0.000000
  70
    32
  0
VERTEX
  8
0
  5
1483
 10
126.919
 20
206.484
 30
0.000000
  70
    32
  0
VERTEX
  8
0
  5
1484
 10
126.737
 20
206.635
 30
0.000000
  70
    32
  0
VERTEX
  8
0
  5
1485
 10
126.541
 20
206.784
 30
0.000000
  70
    32
  0
VERTEX
  8
0
  5
1486
 10
126.331
 20
206.929
 30
0.000000
  70
    32
  0
VERTEX
  8
0
  5
1487
 10
126.108
 20
207.072
 30
0.000000
  70
    32
  0
VERTEX
  8
0
  5
1488
 10
125.872
 20
207.210
 30
0.000000
  70
    32
  0
VERTEX
  8
0
  5
1489
 10
125.622
 20
207.345
 30
0.000000
  70
    32
  0
VERTEX
  8
0
  5
148A
 10
125.360
 20
207.476
 30
0.000000
  70
    32
  0
VERTEX
  8
0
  5
148B
 10
125.086
 20
207.603
 30
0.000000
  70
    32
  0
VERTEX
  8
0
  5
148C
 10
124.800
 20
207.726
 30
0.000000
  70
    32
  0
VERTEX
  8
0
  5
148D
 10
124.502
 20
207.844
 30
0.000000
  70
    32
  0
VERTEX
  8
0
  5
148E
 10
124.194
 20
207.957
 30
0.000000
  70
    32
  0
VERTEX
  8
0
  5
148F
 10
123.875
 20
208.066
 30
0.000000
  70
    32
  0
VERTEX
  8
0
  5
1490
 10
123.546
 20
208.170
 30
0.000000
  70
    32
  0
VERTEX
  8
0
  5
1491
 10
123.208
 20
208.269
 30
0.000000
  70
    32
  0
VERTEX
  8
0
  5
1492
 10
122.860
 20
208.362
 30
0.000000
  70
    32
  0
VERTEX
  8
0
  5
1493
 10
122.504
 20
208.450
 30
0.000000
  70
    32
  0
VERTEX
  8
0
  5
1494
 10
122.140
 20
208.533
 30
0.000000
  70
    32
  0
VERTEX
  8
0
  5
1495
 10
121.768
 20
208.610
 30
0.000000
  70
    32
  0
VERTEX
  8
0
  5
1496
 10
121.389
 20
208.681
 30
0.000000
  70
    32
  0
VERTEX
  8
0
  5
1497
 10
121.004
 20
208.746
 30
0.000000
  70
    32
  0
VERTEX
  8
0
  5
1498
 10
120.613
 20
208.806
 30
0.000000
  70
    32
  0
VERTEX
  8
0
  5
1499
 10
120.217
 20
208.859
 30
0.000000
  70
    32
  0
VERTEX
  8
0
  5
149A
 10
119.815
 20
208.906
 30
0.000000
  70
    32
  0
VERTEX
  8
0
  5
149B
 10
119.410
 20
208.947
 30
0.000000
  70
    32
  0
VERTEX
  8
0
  5
149C
 10
119.001
 20
208.982
 30
0.000000
  70
    32
  0
VERTEX
  8
0
  5
149D
 10
118.589
 20
209.011
 30
0.000000
  70
    32
  0
VERTEX
  8
0
  5
149E
 10
118.175
 20
209.033
 30
0.000000
  70
    32
  0
VERTEX
  8
0
  5
149F
 10
117.759
 20
209.049
 30
0.000000
  70
    32
  0
VERTEX
  8
0
  5
14A0
 10
117.342
 20
209.059
 30
0.000000
  70
    32
  0
VERTEX
  8
0
  5
14A1
 10
116.924
 20
209.062
 30
0.000000
  70
    32
  0
VERTEX
  8
0
  5
14A2
 10
116.506
 20
209.059
 30
0.000000
  70
    32
  0
VERTEX
  8
0
  5
14A3
 10
116.088
 20
209.049
 30
0.000000
  70
    32
  0
VERTEX
  8
0
  5
14A4
 10
115.672
 20
209.033
 30
0.000000
  70
    32
  0
VERTEX
  8
0
  5
14A5
 10
115.258
 20
209.011
 30
0.000000
  70
    32
  0
VERTEX
  8
0
  5
14A6
 10
114.846
 20
208.982
 30
0.000000
  70
    32
  0
VERTEX
  8
0
  5
14A7
 10
114.437
 20
208.947
 30
0.000000
  70
    32
  0
VERTEX
  8
0
  5
14A8
 10
114.032
 20
208.906
 30
0.000000
  70
    32
  0
VERTEX
  8
0
  5
14A9
 10
113.630
 20
208.859
 30
0.000000
  70
    32
  0
VERTEX
  8
0
  5
14AA
 10
113.234
 20
208.806
 30
0.000000
  70
    32
  0
VERTEX
  8
0
  5
14AB
 10
112.843
 20
208.746
 30
0.000000
  70
    32
  0
VERTEX
  8
0
  5
14AC
 10
112.458
 20
208.681
 30
0.000000
  70
    32
  0
VERTEX
  8
0
  5
14AD
 10
112.079
 20
208.610
 30
0.000000
  70
    32
  0
VERTEX
  8
0
  5
14AE
 10
111.707
 20
208.533
 30
0.000000
  70
    32
  0
VERTEX
  8
0
  5
14AF
 10
111.343
 20
208.450
 30
0.000000
  70
    32
  0
VERTEX
  8
0
  5
14B0
 10
110.987
 20
208.362
 30
0.000000
  70
    32
  0
VERTEX
  8
0
  5
14B1
 10
110.640
 20
208.269
 30
0.000000
  70
    32
  0
VERTEX
  8
0
  5
14B2
 10
110.301
 20
208.170
 30
0.000000
  70
    32
  0
VERTEX
  8
0
  5
14B3
 10
109.972
 20
208.066
 30
0.000000
  70
    32
  0
VERTEX
  8
0
  5
14B4
 10
109.653
 20
207.957
 30
0.000000
  70
    32
  0
VERTEX
  8
0
  5
14B5
 10
109.345
 20
207.844
 30
0.000000
  70
    32
  0
VERTEX
  8
0
  5
14B6
 10
109.047
 20
207.726
 30
0.000000
  70
    32
  0
VERTEX
  8
0
  5
14B7
 10
108.761
 20
207.603
 30
0.000000
  70
    32
  0
VERTEX
  8
0
  5
14B8
 10
108.487
 20
207.476
 30
0.000000
  70
    32
  0
VERTEX
  8
0
  5
14B9
 10
108.225
 20
207.345
 30
0.000000
  70
    32
  0
VERTEX
  8
0
  5
14BA
 10
107.976
 20
207.210
 30
0.000000
  70
    32
  0
VERTEX
  8
0
  5
14BB
 10
107.739
 20
207.072
 30
0.000000
  70
    32
  0
VERTEX
  8
0
  5
14BC
 10
107.516
 20
206.929
 30
0.000000
  70
    32
  0
VERTEX
  8
0
  5
14BD
 10
107.306
 20
206.784
 30
0.000000
  70
    32
  0
VERTEX
  8
0
  5
14BE
 10
107.110
 20
206.635
 30
0.000000
  70
    32
  0
VERTEX
  8
0
  5
14BF
 10
106.928
 20
206.484
 30
0.000000
  70
    32
  0
VERTEX
  8
0
  5
14C0
 10
106.761
 20
206.330
 30
0.000000
  70
    32
  0
VERTEX
  8
0
  5
14C1
 10
106.609
 20
206.173
 30
0.000000
  70
    32
  0
VERTEX
  8
0
  5
14C2
 10
106.471
 20
206.014
 30
0.000000
  70
    32
  0
VERTEX
  8
0
  5
14C3
 10
106.348
 20
205.854
 30
0.000000
  70
    32
  0
VERTEX
  8
0
  5
14C4
 10
106.241
 20
205.691
 30
0.000000
  70
    32
  0
VERTEX
  8
0
  5
14C5
 10
106.149
 20
205.527
 30
0.000000
  70
    32
  0
VERTEX
  8
0
  5
14C6
 10
106.073
 20
205.362
 30
0.000000
  70
    32
  0
VERTEX
  8
0
  5
14C7
 10
106.012
 20
205.195
 30
0.000000
  70
    32
  0
VERTEX
  8
0
  5
14C8
 10
105.967
 20
205.028
 30
0.000000
  70
    32
  0
VERTEX
  8
0
  5
14C9
 10
105.938
 20
204.860
 30
0.000000
  70
    32
  0
VERTEX
  8
0
  5
14CA
 10
105.925
 20
204.692
 30
0.000000
  70
    32
  0
VERTEX
  8
0
  5
14CB
 10
105.928
 20
204.524
 30
0.000000
  70
    32
  0
VERTEX
  8
0
  5
14CC
 10
105.947
 20
204.356
 30
0.000000
  70
    32
  0
VERTEX
  8
0
  5
14CD
 10
105.981
 20
204.188
 30
0.000000
  70
    32
  0
VERTEX
  8
0
  5
14CE
 10
106.031
 20
204.021
 30
0.000000
  70
    32
  0
VERTEX
  8
0
  5
14CF
 10
106.097
 20
203.855
 30
0.000000
  70
    32
  0
VERTEX
  8
0
  5
14D0
 10
106.179
 20
203.690
 30
0.000000
  70
    32
  0
VERTEX
  8
0
  5
14D1
 10
106.276
 20
203.527
 30
0.000000
  70
    32
  0
VERTEX
  8
0
  5
14D2
 10
106.389
 20
203.365
 30
0.000000
  70
    32
  0
VERTEX
  8
0
  5
14D3
 10
106.516
 20
203.205
 30
0.000000
  70
    32
  0
VERTEX
  8
0
  5
14D4
 10
106.659
 20
203.047
 30
0.000000
  70
    32
  0
VERTEX
  8
0
  5
14D5
 10
106.817
 20
202.891
 30
0.000000
  70
    32
  0
VERTEX
  8
0
  5
14D6
 10
106.989
 20
202.738
 30
0.000000
  70
    32
  0
VERTEX
  8
0
  5
14D7
 10
107.176
 20
202.587
 30
0.000000
  70
    32
  0
VERTEX
  8
0
  5
14D8
 10
107.376
 20
202.440
 30
0.000000
  70
    32
  0
VERTEX
  8
0
  5
14D9
 10
107.591
 20
202.295
 30
0.000000
  70
    32
  0
VERTEX
  8
0
  5
14DA
 10
107.818
 20
202.154
 30
0.000000
  70
    32
  0
VERTEX
  8
0
  5
14DB
 10
108.060
 20
202.017
 30
0.000000
  70
    32
  0
VERTEX
  8
0
  5
14DC
 10
108.313
 20
201.883
 30
0.000000
  70
    32
  0
VERTEX
  8
0
  5
14DD
 10
108.580
 20
201.754
 30
0.000000
  70
    32
  0
VERTEX
  8
0
  5
14DE
 10
108.858
 20
201.628
 30
0.000000
  70
    32
  0
VERTEX
  8
0
  5
14DF
 10
109.148
 20
201.507
 30
0.000000
  70
    32
  0
VERTEX
  8
0
  5
14E0
 10
109.449
 20
201.390
 30
0.000000
  70
    32
  0
VERTEX
  8
0
  5
14E1
 10
109.761
 20
201.279
 30
0.000000
  70
    32
  0
SEQEND
  8
0
  5
14E2
  0
LINE
  5
10A2
  8
0
 10
127.92355595794059
 20
204.58154405521779
 30
0.0
 11
127.42355595794059
 21
178.53911401021509
 31
0.0
  0
ARC
  5
10A3
  8
0
 10
128.35506143203011
 20
212.70749128815669
 30
0.0
 40
5.0
 50
152.0074062139272
 51
213.9177417789258
  0
LINE
  5
10A4
  8
0
 10
123.9592173807177
 20
215.18892696729949
 30
0.0
 11
122.4901373423089
 21
222.24299931511101
 31
0.0
  0
ARC
  5
10A5
  8
0
 10
121.5111425606846
 20
222.03911401021509
 30
0.0
 40
1.0
 50
11.764253641804171
 51
90.0
  0
ARC
  5
10A6
  8
0
 10
123.7634184243929
 20
215.1481499063203
 30
0.0
 40
0.2
 50
332.00740621392731
 51
11.764253641805761
  0
LINE
  5
10A7
  8
0
 10
123.9634184243929
 20
215.1481499063203
 30
0.0
 11
123.9634184243929
 21
210.3172043402212
 31
0.0
  0
ARC
  5
10A8
  8
0
 10
137.23148612239061
 20
217.35610712392659
 30
0.0
 40
15.0
 50
209.7296705382044
 51
225.69583298831839
  0
LINE
  5
10A9
  8
0
 10
109.8836934914882
 20
215.1481499063203
 30
0.0
 11
109.8836934914882
 21
210.3172043402212
 31
0.0
  0
ARC
  5
10AA
  8
0
 10
105.492050483851
 20
212.70749128815669
 30
0.0
 40
5.0
 50
326.0822582210742
 51
27.992593786072749
  0
LINE
  5
10AB
  8
0
 10
109.8878945351634
 20
215.18892696729949
 30
0.0
 11
111.3569745735722
 21
222.24299931511101
 31
0.0
  0
ARC
  5
10AC
  8
0
 10
110.08369349148821
 20
215.1481499063203
 30
0.0
 40
0.2
 50
168.23574635819421
 51
207.99259378607269
  0
ARC
  5
10AD
  8
0
 10
112.3359693551964
 20
222.03911401021509
 30
0.0
 40
1.0
 50
90.0
 51
168.2357463581958
  0
ARC
  5
10AE
  8
0
 10
96.615625793490523
 20
217.35610712392659
 30
0.0
 40
15.0
 50
314.30416701168161
 51
330.2703294617956
  0
LINE
  5
10AF
  8
0
 10
105.92355595794059
 20
204.58154405521779
 30
0.0
 11
106.42355595794049
 21
178.53911401021509
 31
0.0
  0
LINE
  5
10B0
  8
0
 10
380.09820077138158
 20
168.53911401021509
 30
0.0
 11
380.09820077138158
 21
178.53911401021509
 31
0.0
  0
LINE
  5
10B1
  8
0
 10
364.09820077138158
 20
178.53911401021509
 30
0.0
 11
364.09820077138158
 21
168.53911401021509
 31
0.0
  0
LINE
  5
10B2
  8
0
 10
364.09820077138158
 20
168.53911401021509
 30
0.0
 11
380.09820077138158
 21
168.53911401021509
 31
0.0
  0
LINE
  5
10B3
  8
0
 10
366.63664948647568
 20
213.14205584942471
 30
0.0
 11
377.58090615630431
 21
213.14205584942471
 31
0.0
  0
LINE
  5
10B4
  8
0
 10
366.42692086081752
 20
211.18828634530701
 30
0.0
 11
377.76948068194559
 21
211.18828634530701
 31
0.0
  0
LINE
  5
10B5
  8
0
 10
378.21712950605729
 20
210.5991140102152
 30
0.0
 11
365.97927203670588
 21
210.5991140102152
 31
0.0
  0
LINE
  5
10B6
  8
0
 10
382.59820077138158
 20
178.53911401021509
 30
0.0
 11
361.59820077138158
 21
178.53911401021509
 31
0.0
  0
LINE
  5
10B7
  8
0
 10
365.89750559137627
 20
210.29587314134059
 30
0.0
 11
378.29889595138673
 21
210.29587314134059
 31
0.0
  0
LINE
  5
10B8
  8
1
 10
372.09820077138158
 20
228.03911401021529
 30
0.0
 11
372.09820077138181
 21
133.53911401021509
 31
0.0
  0
LINE
  5
10B9
  8
0
 10
376.68578737412571
 20
223.0391140102152
 30
0.0
 11
367.5106141686374
 21
223.0391140102154
 31
0.0
  0
LINE
  5
10BA
  8
0
 10
365.06253934860428
 20
215.18892696729949
 30
0.0
 11
366.53161938701322
 21
222.24299931511101
 31
0.0
  0
ARC
  5
10BB
  8
0
 10
367.5106141686374
 20
222.03911401021509
 30
0.0
 40
1.0
 50
90.0
 51
168.2357463581958
  0
LINE
  5
10BC
  8
0
 10
379.13386219415872
 20
215.18892696729949
 30
0.0
 11
377.66478215574989
 21
222.24299931511101
 31
0.0
  0
ARC
  5
10BD
  8
0
 10
376.68578737412571
 20
222.03911401021509
 30
0.0
 40
1.0
 50
11.764253641804171
 51
90.0
  0
LINE
  5
10BE
  8
0
 10
379.13806323783388
 20
215.1481499063203
 30
0.0
 11
379.13806323783399
 21
202.0850124397835
 31
0.0
  0
ARC
  5
10BF
  8
0
 10
372.1159507030211
 20
224.69793736208129
 30
0.0
 40
3.0
 50
269.66099929890152
 51
299.63458235356808
  0
LINE
  5
10C0
  8
0
 10
373.59935045140043
 20
222.0903474429206
 30
0.0
 11
375.49727093116462
 21
222.88420936651181
 31
0.0
  0
ARC
  5
10C1
  8
0
 10
376.26903716920071
 20
221.0391140102152
 30
0.0
 40
2.0
 50
90.0
 51
112.69857631690989
  0
ARC
  5
10C2
  8
0
 10
372.08045083974213
 20
224.69793736208129
 30
0.0
 40
3.0
 50
240.36541764643189
 51
270.33900070109848
  0
LINE
  5
10C3
  8
0
 10
370.5970510913628
 20
222.0903474429206
 30
0.0
 11
368.69913061159838
 21
222.88420936651181
 31
0.0
  0
ARC
  5
10C4
  8
0
 10
367.92736437356251
 20
221.0391140102152
 30
0.0
 40
2.0
 50
67.30142368309005
 51
90.0
  0
ARC
  5
10C5
  8
0
 10
372.10877782138988
 20
218.50022899679149
 30
0.0
 40
0.8
 50
41.037685178419068
 51
138.96231482158089
  0
ARC
  5
10C6
  8
0
 10
352.4442443657469
 20
196.9073817940814
 30
0.0
 40
30.0
 50
33.602711735221362
 51
47.49935354968013
  0
ARC
  5
10C7
  8
0
 10
376.59820077138158
 20
212.95687991566459
 30
0.0
 40
1.0
 50
0.0
 51
33.602711735221362
  0
LINE
  5
10C8
  8
0
 10
377.59820077138158
 20
222.44838383870001
 30
0.0
 11
377.59820077138158
 21
212.9782252516691
 31
0.0
  0
LINE
  5
10C9
  8
0
 10
377.59820077138158
 20
212.95687991566459
 30
0.0
 11
377.82653923205743
 21
210.5991140102152
 31
0.0
  0
LINE
  5
10CA
  8
0
 10
366.61935487139829
 20
222.44838383870001
 30
0.0
 11
366.61935487139829
 21
212.9782252516691
 31
0.0
  0
ARC
  5
10CB
  8
0
 10
367.61935487139829
 20
212.95687991566459
 30
0.0
 40
1.0
 50
146.39728826477861
 51
180.0
  0
LINE
  5
10CC
  8
0
 10
366.61935487139829
 20
212.95687991566459
 30
0.0
 11
366.39101641072261
 21
210.5991140102152
 31
0.0
  0
ARC
  5
10CD
  8
0
 10
391.77331127703297
 20
196.9073817940814
 30
0.0
 40
30.0
 50
132.50064645031981
 51
146.39728826477861
  0
LINE
  5
10CE
  8
0
 10
378.21712950605729
 20
210.5991140102152
 30
0.0
 11
378.29889595138673
 21
210.29587314134059
 31
0.0
  0
ARC
  5
10CF
  8
0
 10
392.25622621078088
 20
217.381278930702
 30
0.0
 40
15.0
 50
209.00892254597429
 51
229.35444282771439
  0
ARC
  5
10D0
  8
0
 10
351.94017533198212
 20
217.381278930702
 30
0.0
 40
15.0
 50
310.64555717228558
 51
330.9910774540258
  0
ARC
  5
10D1
  8
0
 10
389.51644353074443
 20
198.272865812238
 30
0.0
 40
11.0
 50
161.4773883406954
 51
211.41614743140761
  0
ARC
  5
10D2
  8
0
 10
378.13806323783399
 20
202.08501243978341
 30
0.0
 40
1.0
 50
341.47738834069543
 51
0.0
  0
ARC
  5
10D3
  8
0
 10
354.67995801201869
 20
198.272865812238
 30
0.0
 40
11.0
 50
328.58385256859248
 51
18.522611659304619
  0
LINE
  5
10D4
  8
0
 10
365.05833830492918
 20
215.1481499063203
 30
0.0
 11
365.05833830492918
 21
202.0850124397835
 31
0.0
  0
ARC
  5
10D5
  8
0
 10
366.05833830492918
 20
202.08501243978341
 30
0.0
 40
1.0
 50
179.9999999999992
 51
198.5226116593046
  0
LINE
  5
10D6
  8
0
 10
361.09820077138158
 20
204.58154405521779
 30
0.0
 11
361.59820077138158
 21
178.53911401021509
 31
0.0
  0
LINE
  5
10D7
  8
0
 10
383.09820077138158
 20
204.58154405521779
 30
0.0
 11
382.59820077138158
 21
178.53911401021509
 31
0.0
  0
LINE
  5
10F2
  8
0
 10
112.6601439068061
 20
223.0391140102152
 30
0.0
 11
112.6368371849522
 21
223.03892556126601
 31
0.0
  0
LINE
  5
10F3
  8
0
 10
112.6368371849522
 20
223.03892556126601
 30
0.0
 11
112.59064433969429
 21
223.0373906700095
 31
0.0
  0
LINE
  5
10F4
  8
0
 10
112.59064433969429
 20
223.0373906700095
 30
0.0
 11
112.5451051463188
 21
223.03425550175771
 31
0.0
  0
LINE
  5
10F5
  8
0
 10
112.5451051463188
 20
223.03425550175771
 30
0.0
 11
112.5226134685679
 21
223.03206872620649
 31
0.0
  0
LINE
  5
10F6
  8
0
 10
121.186968009075
 20
223.0391140102152
 30
0.0
 11
121.210274730929
 21
223.03892556126601
 31
0.0
  0
LINE
  5
10F7
  8
0
 10
121.210274730929
 20
223.03892556126601
 30
0.0
 11
121.25646757618669
 21
223.0373906700095
 31
0.0
  0
LINE
  5
10F8
  8
0
 10
121.25646757618669
 20
223.0373906700095
 30
0.0
 11
121.3020067695623
 21
223.03425550175771
 31
0.0
  0
LINE
  5
10F9
  8
0
 10
121.3020067695623
 20
223.03425550175771
 30
0.0
 11
121.3244984473133
 21
223.03206872620649
 31
0.0
  0
LINE
  5
10FA
  8
0
 10
281.65156653202939
 20
211.18828634530701
 30
0.0
 11
281.55501665088798
 21
211.15627761368469
 31
0.0
  0
LINE
  5
10FB
  8
0
 10
281.55501665088798
 20
211.15627761368469
 30
0.0
 11
281.36107063144482
 21
211.09487847678881
 31
0.0
  0
LINE
  5
10FC
  8
0
 10
281.36107063144482
 20
211.09487847678881
 30
0.0
 11
281.16604887530963
 21
211.03698696529219
 31
0.0
  0
LINE
  5
10FD
  8
0
 10
281.16604887530963
 20
211.03698696529219
 30
0.0
 11
281.06815440530988
 21
211.00936249802189
 31
0.0
  0
LINE
  5
10FE
  8
0
 10
281.06815440530988
 20
211.00936249802189
 30
0.0
 11
280.97001481426332
 21
210.98262190869229
 31
0.0
  0
LINE
  5
10FF
  8
0
 10
280.97001481426332
 20
210.98262190869229
 30
0.0
 11
280.7730322093438
 21
210.93180098949
 31
0.0
  0
LINE
  5
1100
  8
0
 10
280.7730322093438
 20
210.93180098949
 30
0.0
 11
280.57516513010768
 21
210.88454073743799
 31
0.0
  0
LINE
  5
1101
  8
0
 10
280.57516513010768
 20
210.88454073743799
 30
0.0
 11
280.37647793379131
 21
210.84085652416471
 31
0.0
  0
LINE
  5
1102
  8
0
 10
280.37647793379131
 20
210.84085652416471
 30
0.0
 11
280.17703524437758
 21
210.80076255817411
 31
0.0
  0
LINE
  5
1103
  8
0
 10
280.17703524437758
 20
210.80076255817411
 30
0.0
 11
279.97690193157769
 21
210.76427188022529
 31
0.0
  0
LINE
  5
1104
  8
0
 10
279.97690193157769
 20
210.76427188022529
 30
0.0
 11
279.87659662519309
 21
210.74738152914639
 31
0.0
  0
LINE
  5
1105
  8
0
 10
279.87659662519309
 20
210.74738152914639
 30
0.0
 11
279.77614308973142
 21
210.7313963590895
 31
0.0
  0
LINE
  5
1106
  8
0
 10
279.77614308973142
 20
210.7313963590895
 30
0.0
 11
279.57482401663469
 21
210.70214668769111
 31
0.0
  0
LINE
  5
1107
  8
0
 10
279.57482401663469
 20
210.70214668769111
 30
0.0
 11
279.37301019230182
 21
210.67653237962901
 31
0.0
  0
LINE
  5
1108
  8
0
 10
279.37301019230182
 20
210.67653237962901
 30
0.0
 11
279.17076725766668
 21
210.65456176608211
 31
0.0
  0
LINE
  5
1109
  8
0
 10
279.17076725766668
 20
210.65456176608211
 30
0.0
 11
278.96816099323422
 21
210.63624199310021
 31
0.0
  0
LINE
  5
110A
  8
0
 10
278.96816099323422
 20
210.63624199310021
 30
0.0
 11
278.76525729768338
 21
210.6215790192789
 31
0.0
  0
LINE
  5
110B
  8
0
 10
278.76525729768338
 20
210.6215790192789
 30
0.0
 11
278.6637145336154
 21
210.61562036893551
 31
0.0
  0
LINE
  5
110C
  8
0
 10
278.6637145336154
 20
210.61562036893551
 30
0.0
 11
278.56212216643479
 21
210.61057761382239
 31
0.0
  0
LINE
  5
110D
  8
0
 10
278.56212216643479
 20
210.61057761382239
 30
0.0
 11
278.358821670184
 21
210.6032413549917
 31
0.0
  0
LINE
  5
110E
  8
0
 10
278.358821670184
 20
210.6032413549917
 30
0.0
 11
278.15542193341292
 21
210.59957262894071
 31
0.0
  0
LINE
  5
110F
  8
0
 10
278.15542193341292
 20
210.59957262894071
 30
0.0
 11
278.05370552314707
 21
210.5991140102152
 31
0.0
  0
LINE
  5
1110
  8
0
 10
365.05833830492918
 20
202.50572333165471
 30
0.0
 11
365.18833813799091
 21
203.9106084929067
 31
0.0
  0
LINE
  5
1111
  8
0
 10
365.18833813799091
 20
203.9106084929067
 30
0.0
 11
365.46931264373018
 21
206.6911440965504
 31
0.0
  0
LINE
  5
1112
  8
0
 10
365.46931264373018
 20
206.6911440965504
 30
0.0
 11
365.75394732507311
 21
209.17039519790481
 31
0.0
  0
LINE
  5
1113
  8
0
 10
365.75394732507311
 20
209.17039519790481
 30
0.0
 11
365.89750559137627
 21
210.29587314134059
 31
0.0
  0
LINE
  5
1114
  8
0
 10
361.71084121153041
 20
205.99997459990439
 30
0.0
 11
361.69371565967788
 21
205.98159274414689
 31
0.0
  0
LINE
  5
1115
  8
0
 10
361.69371565967788
 20
205.98159274414689
 30
0.0
 11
361.60903382537589
 21
205.8827715840666
 31
0.0
  0
LINE
  5
1116
  8
0
 10
361.60903382537589
 20
205.8827715840666
 30
0.0
 11
361.53145604213449
 21
205.783879586956
 31
0.0
  0
LINE
  5
1117
  8
0
 10
361.53145604213449
 20
205.783879586956
 30
0.0
 11
361.4609035339538
 21
205.6850957961046
 31
0.0
  0
LINE
  5
1118
  8
0
 10
361.4609035339538
 20
205.6850957961046
 30
0.0
 11
361.39724204311722
 21
205.58655558696751
 31
0.0
  0
LINE
  5
1119
  8
0
 10
361.39724204311722
 20
205.58655558696751
 30
0.0
 11
361.3676742324709
 21
205.53694486519109
 31
0.0
  0
LINE
  5
111A
  8
0
 10
361.3676742324709
 20
205.53694486519109
 30
0.0
 11
361.33949247403899
 21
205.48687855612579
 31
0.0
  0
LINE
  5
111B
  8
0
 10
361.33949247403899
 20
205.48687855612579
 30
0.0
 11
361.28741638756401
 21
205.38543997556951
 31
0.0
  0
LINE
  5
111C
  8
0
 10
361.28741638756401
 20
205.38543997556951
 30
0.0
 11
361.24125720955527
 21
205.28236429645901
 31
0.0
  0
LINE
  5
111D
  8
0
 10
361.24125720955527
 20
205.28236429645901
 30
0.0
 11
361.20123374928028
 21
205.17777988164991
 31
0.0
  0
LINE
  5
111E
  8
0
 10
361.20123374928028
 20
205.17777988164991
 30
0.0
 11
361.16753984404107
 21
205.07181805143981
 31
0.0
  0
LINE
  5
111F
  8
0
 10
361.16753984404107
 20
205.07181805143981
 30
0.0
 11
361.14034432711162
 21
204.964612088954
 31
0.0
  0
LINE
  5
1120
  8
0
 10
361.14034432711162
 20
204.964612088954
 30
0.0
 11
361.12922945220549
 21
204.91058448957949
 31
0.0
  0
LINE
  5
1121
  8
0
 10
361.12922945220549
 20
204.91058448957949
 30
0.0
 11
361.11979131837711
 21
204.85629620108739
 31
0.0
  0
LINE
  5
1122
  8
0
 10
361.11979131837711
 20
204.85629620108739
 30
0.0
 11
361.1060009278487
 21
204.7470053495268
 31
0.0
  0
LINE
  5
1123
  8
0
 10
361.1060009278487
 20
204.7470053495268
 30
0.0
 11
361.09907002636129
 21
204.63687761770021
 31
0.0
  0
LINE
  5
1124
  8
0
 10
361.09907002636129
 20
204.63687761770021
 30
0.0
 11
361.09820077138158
 21
204.58154405521779
 31
0.0
  0
LINE
  5
1125
  8
0
 10
365.04413336675537
 20
202.29229801695641
 30
0.0
 11
365.04427672189729
 21
202.31161227929911
 31
0.0
  0
LINE
  5
1126
  8
0
 10
365.04427672189729
 20
202.31161227929911
 30
0.0
 11
365.04542965442158
 21
202.35033488401129
 31
0.0
  0
LINE
  5
1127
  8
0
 10
365.04542965442158
 20
202.35033488401129
 30
0.0
 11
365.04775062456002
 21
202.3891720776131
 31
0.0
  0
LINE
  5
1128
  8
0
 10
365.04775062456002
 20
202.3891720776131
 30
0.0
 11
365.04935381961121
 21
202.40862959078359
 31
0.0
  0
LINE
  5
1129
  8
0
 10
379.13806323783399
 20
202.50572333165471
 30
0.0
 11
379.00806340477232
 21
203.9106084929067
 31
0.0
  0
LINE
  5
112A
  8
0
 10
379.00806340477232
 20
203.9106084929067
 30
0.0
 11
378.72708889903299
 21
206.6911440965504
 31
0.0
  0
LINE
  5
112B
  8
0
 10
378.72708889903299
 20
206.6911440965504
 30
0.0
 11
378.44245421769011
 21
209.17039519790481
 31
0.0
  0
LINE
  5
112C
  8
0
 10
378.44245421769011
 20
209.17039519790481
 30
0.0
 11
378.29889595138673
 21
210.29587314134059
 31
0.0
  0
LINE
  5
112D
  8
0
 10
379.15226817600762
 20
202.29229801695641
 30
0.0
 11
379.15212482086588
 21
202.31161227929911
 31
0.0
  0
LINE
  5
112E
  8
0
 10
379.15212482086588
 20
202.31161227929911
 30
0.0
 11
379.15097188834159
 21
202.35033488401129
 31
0.0
  0
LINE
  5
112F
  8
0
 10
379.15097188834159
 20
202.35033488401129
 30
0.0
 11
379.1486509182032
 21
202.3891720776131
 31
0.0
  0
LINE
  5
1130
  8
0
 10
379.1486509182032
 20
202.3891720776131
 30
0.0
 11
379.14704772315179
 21
202.40862959078359
 31
0.0
  0
LINE
  5
1131
  8
0
 10
291.89038095782871
 20
219.10515899295629
 30
0.0
 11
291.89037841523509
 21
219.10513857979569
 31
0.0
  0
LINE
  5
1132
  8
0
 10
291.89037841523509
 20
219.10513857979569
 30
0.0
 11
291.8903580745008
 21
219.10497527462479
 31
0.0
  0
LINE
  5
1133
  8
0
 10
291.8903580745008
 20
219.10497527462479
 30
0.0
 11
291.89031739310752
 21
219.10464866488709
 31
0.0
  0
LINE
  5
1134
  8
0
 10
291.89031739310752
 20
219.10464866488709
 30
0.0
 11
291.8902894247077
 21
219.1044241211595
 31
0.0
  0
LINE
  5
1135
  8
0
 10
291.8902894247077
 20
219.1044241211595
 30
0.0
 11
291.89025637120551
 21
219.10415875179029
 31
0.0
  0
LINE
  5
1136
  8
0
 10
291.89025637120551
 20
219.10415875179029
 30
0.0
 11
291.8901750090206
 21
219.1035055371465
 31
0.0
  0
LINE
  5
1137
  8
0
 10
291.8901750090206
 20
219.1035055371465
 30
0.0
 11
291.89007330685359
 21
219.10268902337131
 31
0.0
  0
LINE
  5
1138
  8
0
 10
291.89007330685359
 20
219.10268902337131
 30
0.0
 11
291.88995126508081
 21
219.1017092134845
 31
0.0
  0
LINE
  5
1139
  8
0
 10
291.88995126508081
 20
219.1017092134845
 30
0.0
 11
291.88980888415352
 21
219.1005661111096
 31
0.0
  0
LINE
  5
113A
  8
0
 10
291.88980888415352
 20
219.1005661111096
 30
0.0
 11
291.8896461645981
 21
219.09925972047441
 31
0.0
  0
LINE
  5
113B
  8
0
 10
291.8896461645981
 20
219.09925972047441
 30
0.0
 11
291.88955717802003
 21
219.09854529354541
 31
0.0
  0
LINE
  5
113C
  8
0
 10
291.88955717802003
 20
219.09854529354541
 30
0.0
 11
291.88946310701658
 21
219.0977900464103
 31
0.0
  0
LINE
  5
113D
  8
0
 10
291.88946310701658
 20
219.0977900464103
 30
0.0
 11
291.88925971208579
 21
219.09615709435241
 31
0.0
  0
LINE
  5
113E
  8
0
 10
291.88925971208579
 20
219.09615709435241
 30
0.0
 11
291.88903598055811
 21
219.0943608703401
 31
0.0
  0
LINE
  5
113F
  8
0
 10
291.88903598055811
 20
219.0943608703401
 30
0.0
 11
291.88879191326077
 21
219.0924013810164
 31
0.0
  0
LINE
  5
1140
  8
0
 10
291.88879191326077
 20
219.0924013810164
 30
0.0
 11
291.88852751109658
 21
219.090278633628
 31
0.0
  0
LINE
  5
1141
  8
0
 10
291.88852751109658
 20
219.090278633628
 30
0.0
 11
291.88824277504341
 21
219.08799263602549
 31
0.0
  0
LINE
  5
1142
  8
0
 10
291.88824277504341
 20
219.08799263602549
 30
0.0
 11
291.88809278213461
 21
219.08678842101239
 31
0.0
  0
LINE
  5
1143
  8
0
 10
291.88809278213461
 20
219.08678842101239
 30
0.0
 11
291.8879377061541
 21
219.0855433966633
 31
0.0
  0
LINE
  5
1144
  8
0
 10
291.8879377061541
 20
219.0855433966633
 30
0.0
 11
291.88761230555713
 21
219.08293092459951
 31
0.0
  0
LINE
  5
1145
  8
0
 10
291.88761230555713
 20
219.08293092459951
 30
0.0
 11
291.88726657445579
 21
219.08015522949569
 31
0.0
  0
LINE
  5
1146
  8
0
 10
291.88726657445579
 20
219.08015522949569
 30
0.0
 11
291.88708608536263
 21
219.07870617648831
 31
0.0
  0
LINE
  5
1147
  8
0
 10
382.48556033123282
 20
205.99997459990439
 30
0.0
 11
382.50268588308518
 21
205.98159274414689
 31
0.0
  0
LINE
  5
1148
  8
0
 10
382.50268588308518
 20
205.98159274414689
 30
0.0
 11
382.58736771738722
 21
205.8827715840666
 31
0.0
  0
LINE
  5
1149
  8
0
 10
382.58736771738722
 20
205.8827715840666
 30
0.0
 11
382.66494550062851
 21
205.783879586956
 31
0.0
  0
LINE
  5
114A
  8
0
 10
382.66494550062851
 20
205.783879586956
 30
0.0
 11
382.73549800880937
 21
205.6850957961046
 31
0.0
  0
LINE
  5
114B
  8
0
 10
382.73549800880937
 20
205.6850957961046
 30
0.0
 11
382.79915949964578
 21
205.58655558696751
 31
0.0
  0
LINE
  5
114C
  8
0
 10
382.79915949964578
 20
205.58655558696751
 30
0.0
 11
382.82872731029232
 21
205.53694486519109
 31
0.0
  0
LINE
  5
114D
  8
0
 10
382.82872731029232
 20
205.53694486519109
 30
0.0
 11
382.85690906872418
 21
205.48687855612579
 31
0.0
  0
LINE
  5
114E
  8
0
 10
382.85690906872418
 20
205.48687855612579
 30
0.0
 11
382.90898515519899
 21
205.38543997556951
 31
0.0
  0
LINE
  5
114F
  8
0
 10
382.90898515519899
 20
205.38543997556951
 30
0.0
 11
382.95514433320778
 21
205.28236429645901
 31
0.0
  0
LINE
  5
1150
  8
0
 10
382.95514433320778
 20
205.28236429645901
 30
0.0
 11
382.99516779348278
 21
205.17777988164991
 31
0.0
  0
LINE
  5
1151
  8
0
 10
382.99516779348278
 20
205.17777988164991
 30
0.0
 11
383.02886169872198
 21
205.07181805143981
 31
0.0
  0
LINE
  5
1152
  8
0
 10
383.02886169872198
 20
205.07181805143981
 30
0.0
 11
383.05605721565161
 21
204.964612088954
 31
0.0
  0
LINE
  5
1153
  8
0
 10
383.05605721565161
 20
204.964612088954
 30
0.0
 11
383.06717209055762
 21
204.91058448957949
 31
0.0
  0
LINE
  5
1154
  8
0
 10
383.06717209055762
 20
204.91058448957949
 30
0.0
 11
383.07661022438612
 21
204.85629620108739
 31
0.0
  0
LINE
  5
1155
  8
0
 10
383.07661022438612
 20
204.85629620108739
 30
0.0
 11
383.09040061491447
 21
204.7470053495268
 31
0.0
  0
LINE
  5
1156
  8
0
 10
383.09040061491447
 20
204.7470053495268
 30
0.0
 11
383.09733151640182
 21
204.63687761770021
 31
0.0
  0
LINE
  5
1157
  8
0
 10
383.09733151640182
 20
204.63687761770021
 30
0.0
 11
383.09820077138158
 21
204.58154405521779
 31
0.0
  0
LINE
  5
1165
  8
0
 10
215.39038095782871
 20
138.53911401021509
 30
0.0
 11
208.3903809578286
 21
138.5391140102152
 31
0.0
  0
LINE
  5
1166
  8
0
 10
206.89038095782871
 20
168.53911401021509
 30
0.0
 11
206.89038095782871
 21
140.0391140102152
 31
0.0
  0
LINE
  5
1167
  8
3
 10
207.7023809578285
 20
164.5391140102152
 30
0.0
 11
207.70238095782869
 21
139.2271140102151
 31
0.0
  0
LINE
  5
1168
  8
3
 10
216.0783809578287
 20
164.53911401021509
 30
0.0
 11
216.0783809578287
 21
139.22711401021519
 31
0.0
  0
LINE
  5
1169
  8
0
 10
216.8903809578286
 20
168.53911401021509
 30
0.0
 11
216.8903809578286
 21
140.03911401021509
 31
0.0
  0
LINE
  5
116A
  8
0
 10
216.8903809578286
 20
140.03911401021509
 30
0.0
 11
215.39038095782871
 21
138.53911401021509
 31
0.0
  0
LINE
  5
116B
  8
0
 10
208.3903809578286
 20
138.5391140102152
 30
0.0
 11
206.89038095782871
 21
140.0391140102152
 31
0.0
  0
LINE
  5
116C
  8
0
 10
216.89038095782871
 20
164.53911401021509
 30
0.0
 11
206.89038095782871
 21
164.5391140102152
 31
0.0
  0
LINE
  5
116D
  8
3
 10
216.07838095782881
 20
164.53911401021509
 30
0.0
 11
216.89038095782871
 21
165.9455392659608
 31
0.0
  0
LINE
  5
116E
  8
3
 10
207.70238095782861
 20
164.53911401021509
 30
0.0
 11
206.89038095782871
 21
165.9455392659608
 31
0.0
  0
LINE
  5
116F
  8
0
 10
216.8903809578286
 20
140.03911401021509
 30
0.0
 11
206.89038095782871
 21
140.0391140102152
 31
0.0
  0
LINE
  5
1173
  8
3
 10
121.1215559579406
 20
164.53911401021509
 30
0.0
 11
121.1215559579406
 21
139.22711401021519
 31
0.0
  0
LINE
  5
1174
  8
0
 10
121.9335559579405
 20
168.53911401021509
 30
0.0
 11
121.9335559579406
 21
140.0391140102152
 31
0.0
  0
LINE
  5
1175
  8
0
 10
121.9335559579405
 20
140.03911401021509
 30
0.0
 11
111.9335559579405
 21
140.0391140102152
 31
0.0
  0
LINE
  5
1176
  8
0
 10
120.4335559579405
 20
138.53911401021509
 30
0.0
 11
113.4335559579405
 21
138.5391140102152
 31
0.0
  0
LINE
  5
1177
  8
0
 10
121.9335559579405
 20
140.03911401021509
 30
0.0
 11
120.4335559579405
 21
138.53911401021509
 31
0.0
  0
LINE
  5
1178
  8
0
 10
121.9335559579406
 20
164.53911401021509
 30
0.0
 11
111.9335559579405
 21
164.5391140102152
 31
0.0
  0
LINE
  5
1179
  8
3
 10
121.1215559579407
 20
164.53911401021509
 30
0.0
 11
121.9335559579406
 21
165.9455392659608
 31
0.0
  0
LINE
  5
117A
  8
3
 10
112.7455559579404
 20
164.5391140102152
 30
0.0
 11
112.7455559579405
 21
139.22711401021519
 31
0.0
  0
LINE
  5
117B
  8
0
 10
111.9335559579405
 20
168.53911401021509
 30
0.0
 11
111.9335559579405
 21
140.0391140102152
 31
0.0
  0
LINE
  5
117C
  8
0
 10
113.4335559579405
 20
138.5391140102152
 30
0.0
 11
111.9335559579405
 21
140.0391140102152
 31
0.0
  0
LINE
  5
117D
  8
3
 10
112.7455559579405
 20
164.53911401021509
 30
0.0
 11
111.9335559579406
 21
165.9455392659608
 31
0.0
  0
LINE
  5
117F
  8
3
 10
376.29620077138168
 20
164.53911401021509
 30
0.0
 11
376.29620077138168
 21
139.2271140102153
 31
0.0
  0
LINE
  5
1180
  8
3
 10
367.92020077138147
 20
164.5391140102152
 30
0.0
 11
367.92020077138147
 21
139.22711401021539
 31
0.0
  0
LINE
  5
1181
  8
0
 10
367.10820077138158
 20
168.53911401021509
 30
0.0
 11
367.10820077138169
 21
140.0391140102152
 31
0.0
  0
LINE
  5
1182
  8
0
 10
377.10820077138158
 20
168.53911401021509
 30
0.0
 11
377.10820077138152
 21
140.03911401021509
 31
0.0
  0
LINE
  5
1183
  8
0
 10
368.60820077138158
 20
138.5391140102152
 30
0.0
 11
367.10820077138158
 21
140.0391140102152
 31
0.0
  0
LINE
  5
1184
  8
0
 10
377.10820077138158
 20
140.03911401021509
 30
0.0
 11
367.10820077138158
 21
140.0391140102152
 31
0.0
  0
LINE
  5
1185
  8
0
 10
375.60820077138158
 20
138.53911401021509
 30
0.0
 11
368.60820077138158
 21
138.5391140102152
 31
0.0
  0
LINE
  5
1186
  8
0
 10
377.10820077138158
 20
140.03911401021509
 30
0.0
 11
375.60820077138158
 21
138.53911401021509
 31
0.0
  0
LINE
  5
1187
  8
0
 10
377.10820077138158
 20
164.53911401021509
 30
0.0
 11
367.10820077138158
 21
164.5391140102152
 31
0.0
  0
LINE
  5
1188
  8
3
 10
367.92020077138147
 20
164.53911401021509
 30
0.0
 11
367.10820077138158
 21
165.9455392659608
 31
0.0
  0
LINE
  5
1189
  8
3
 10
376.29620077138168
 20
164.53911401021509
 30
0.0
 11
377.10820077138158
 21
165.9455392659608
 31
0.0
  0
LINE
  5
1236
  8
0
 10
213.2795978586947
 20
293.92937346845463
 30
0.0
 11
214.64038095782871
 21
293.92937346845463
 31
0.0
  0
LINE
  5
1237
  8
0
 10
213.2795978586949
 20
294.97937346845458
 30
0.0
 11
214.64038095782871
 21
294.97937346845458
 31
0.0
  0
LINE
  5
1238
  8
0
 10
209.14038095782871
 20
294.9793734684547
 30
0.0
 11
210.50116405696269
 21
294.9793734684547
 31
0.0
  0
LINE
  5
1239
  8
0
 10
209.14038095782871
 20
293.92937346845463
 30
0.0
 11
210.50116405696281
 21
293.92937346845463
 31
0.0
  0
ARC
  5
123A
  8
0
 10
213.72104286384069
 20
295.51130661268593
 30
0.0
 40
0.6912500000000011
 50
163.3417582272229
 51
230.3111220593475
  0
ARC
  5
123B
  8
0
 10
213.72104286384069
 20
293.39744032422351
 30
0.0
 40
0.6912500000000003
 50
129.6888779406687
 51
196.65824177277699
  0
ARC
  5
123C
  8
0
 10
212.6803809578287
 20
293.08605333047518
 30
0.0
 40
0.3949999999999998
 50
223.34175822722349
 51
16.658241772777039
  0
ARC
  5
123D
  8
0
 10
211.89038095782871
 20
292.3405071799923
 30
0.0
 40
0.6912500000000003
 50
43.341758227223458
 51
136.65824177277651
  0
ARC
  5
123E
  8
0
 10
211.1003809578288
 20
293.08605333047518
 30
0.0
 40
0.3950000000000001
 50
163.3417582272229
 51
316.65824177277648
  0
ARC
  5
123F
  8
0
 10
210.05971905181681
 20
293.39744032422351
 30
0.0
 40
0.691250000000001
 50
343.3417582272229
 51
50.311122059331304
  0
ARC
  5
1240
  8
0
 10
212.6803809578287
 20
295.82269360643409
 30
0.0
 40
0.3950000000000002
 50
343.3417582272229
 51
136.65824177277651
  0
ARC
  5
1241
  8
0
 10
211.89038095782871
 20
296.56823975691708
 30
0.0
 40
0.6912499999999989
 50
223.34175822722349
 51
316.65824177277648
  0
ARC
  5
1242
  8
0
 10
211.1003809578288
 20
295.82269360643409
 30
0.0
 40
0.3949999999999998
 50
43.341758227223458
 51
196.65824177277699
  0
ARC
  5
1243
  8
0
 10
210.05971905181681
 20
295.51130661268593
 30
0.0
 40
0.6912500000000005
 50
309.68887794065239
 51
16.658241772777039
  0
CIRCLE
  5
1248
  8
0
 10
211.89038095782871
 20
294.45437346845461
 30
0.0
 40
5.0
  0
LINE
  5
1249
  8
0
 10
121.92355595794059
 20
204.8758108408372
 30
0.0
 11
121.92355595794059
 21
203.44840676743189
 31
0.0
  0
LINE
  5
124A
  8
0
 10
111.92355595794059
 20
204.8758108408372
 30
0.0
 11
111.92355595794059
 21
203.26871951085801
 31
0.0
  0
LINE
  5
124B
  8
0
 10
119.6091471405297
 20
205.53911401021509
 30
0.0
 11
114.2379647753515
 21
205.53911401021509
 31
0.0
  0
ARC
  5
124C
  8
0
 10
116.92355595794059
 20
191.79911401021511
 30
0.0
 40
14.0
 50
69.075167572360144
 51
78.940519963796405
  0
ARC
  5
124D
  8
0
 10
116.92355595794059
 20
191.79911401021511
 30
0.0
 40
14.0
 50
101.0594800362036
 51
110.9248324276398
  0
LINE
  5
124E
  8
0
 10
121.92355595794059
 20
204.8758108408372
 30
0.0
 11
111.92355595794059
 21
204.87581084083709
 31
0.0
  0
ARC
  5
1252
  8
0
 10
211.89038095782871
 20
294.45437346845461
 30
0.0
 40
2.6855911825890351
 50
11.273214125907071
 51
168.72678587409291
  0
LINE
  5
1253
  8
0
 10
214.64038095782871
 20
294.97937346845458
 30
0.0
 11
214.64038095782871
 21
293.92937346845463
 31
0.0
  0
LINE
  5
1254
  8
0
 10
209.14038095782871
 20
294.9793734684547
 30
0.0
 11
209.14038095782871
 21
293.92937346845463
 31
0.0
  0
ARC
  5
1255
  8
0
 10
211.89038095782871
 20
294.45437346845461
 30
0.0
 40
2.6855911825890351
 50
191.273214125907
 51
348.72678587408973
  0
LINE
  5
125F
  8
0
 10
212.6666144641332
 20
204.8758108408372
 30
0.0
 11
206.88038095782869
 21
204.87581084083709
 31
0.0
  0
ARC
  5
1260
  8
0
 10
211.88038095782869
 20
191.79911401021511
 30
0.0
 40
14.0
 50
101.0594800362036
 51
110.9248324276398
  0
LINE
  5
1261
  8
0
 10
214.34787466136501
 20
205.53911401021509
 30
0.0
 11
209.1947897752396
 21
205.53911401021509
 31
0.0
  0
LINE
  5
1262
  8
0
 10
206.88038095782869
 20
204.8758108408372
 30
0.0
 11
206.88038095782869
 21
202.49250963985651
 31
0.0
  0
TEXT
  5
134E
  8
0
 62
     3
 10
0.0
 20
0.0
 30
0.0
 40
10.0
  1
FKR10X30L-SV
  7
STANDARD1
  0
ENDSEC
  0
EOF
