  0
SECTION
  2
HEADER
  9
$ACADVER
  1
AC1009
  9
$INSBASE
 10
0.0
 20
0.0
 30
0.0
  9
$EXTMIN
 10
0.0
 20
-2.960436562073669
 30
0.0
  9
$EXTMAX
 10
393.09820077138158
 20
330.45437346845461
 30
0.0
  9
$LIMMIN
 10
0.0
 20
0.0
  9
$LIMMAX
 10
187.5
 20
135.0
  9
$ORTHOMODE
 70
     0
  9
$REGENMODE
 70
     1
  9
$FILLMODE
 70
     1
  9
$QTEXTMODE
 70
     0
  9
$MIRRTEXT
 70
     0
  9
$DRAGMODE
 70
     2
  9
$LTSCALE
 40
10.0
  9
$OSMODE
 70
    55
  9
$ATTMODE
 70
     1
  9
$TEXTSIZE
 40
4.0
  9
$TRACEWID
 40
0.05
  9
$TEXTSTYLE
  7
STANDARD
  9
$CLAYER
  8
0
  9
$CELTYPE
  6
BYLAYER
  9
$CECOLOR
 62
   256
  9
$DIMSCALE
 40
0.5
  9
$DIMASZ
 40
3.0
  9
$DIMEXO
 40
2.0
  9
$DIMDLI
 40
0.38
  9
$DIMRND
 40
0.0
  9
$DIMDLE
 40
0.0
  9
$DIMEXE
 40
2.0
  9
$DIMTP
 40
0.0
  9
$DIMTM
 40
0.0
  9
$DIMTXT
 40
3.0
  9
$DIMCEN
 40
0.0
  9
$DIMTSZ
 40
0.0
  9
$DIMTOL
 70
     0
  9
$DIMLIM
 70
     0
  9
$DIMTIH
 70
     0
  9
$DIMTOH
 70
     0
  9
$DIMSE1
 70
     0
  9
$DIMSE2
 70
     0
  9
$DIMTAD
 70
     1
  9
$DIMZIN
 70
     0
  9
$DIMBLK
  1

  9
$DIMASO
 70
     0
  9
$DIMSHO
 70
     0
  9
$DIMPOST
  1

  9
$DIMAPOST
  1

  9
$DIMALT
 70
     0
  9
$DIMALTD
 70
     2
  9
$DIMALTF
 40
25.399999999999999
  9
$DIMLFAC
 40
1.0
  9
$DIMTOFL
 70
     0
  9
$DIMTVP
 40
1.6000000000000001
  9
$DIMTIX
 70
     1
  9
$DIMSOXD
 70
     0
  9
$DIMSAH
 70
     0
  9
$DIMBLK1
  1

  9
$DIMBLK2
  1

  9
$DIMSTYLE
  2
STANDARD
  9
$DIMCLRD
 70
     0
  9
$DIMCLRE
 70
     0
  9
$DIMCLRT
 70
     0
  9
$DIMTFAC
 40
1.0
  9
$DIMGAP
 40
0.09
  9
$LUNITS
 70
     2
  9
$LUPREC
 70
     4
  9
$SKETCHINC
 40
0.1
  9
$FILLETRAD
 40
1.25
  9
$AUNITS
 70
     0
  9
$AUPREC
 70
     0
  9
$MENU
  1
E:\r13\win\SUPPORT\ACAD
  9
$ELEVATION
 40
0.0
  9
$PELEVATION
 40
0.0
  9
$THICKNESS
 40
0.0
  9
$LIMCHECK
 70
     0
  9
$BLIPMODE
 70
     0
  9
$CHAMFERA
 40
0.0
  9
$CHAMFERB
 40
0.0
  9
$SKPOLY
 70
     0
  9
$TDCREATE
 40
2449840.6143865739
  9
$TDUPDATE
 40
2456598.6554745948
  9
$TDINDWG
 40
0.2665940972
  9
$TDUSRTIMER
 40
0.2665940972
  9
$USRTIMER
 70
     1
  9
$ANGBASE
 50
0.0
  9
$ANGDIR
 70
     0
  9
$PDMODE
 70
     0
  9
$PDSIZE
 40
0.0
  9
$PLINEWID
 40
0.0
  9
$COORDS
 70
     1
  9
$SPLFRAME
 70
     0
  9
$SPLINETYPE
 70
     6
  9
$SPLINESEGS
 70
     8
  9
$ATTDIA
 70
     0
  9
$ATTREQ
 70
     1
  9
$HANDLING
 70
     1
  9
$HANDSEED
  5
149A
  9
$SURFTAB1
 70
     6
  9
$SURFTAB2
 70
     6
  9
$SURFTYPE
 70
     6
  9
$SURFU
 70
     6
  9
$SURFV
 70
     6
  9
$UCSNAME
  2

  9
$UCSORG
 10
0.0
 20
0.0
 30
0.0
  9
$UCSXDIR
 10
1.0
 20
0.0
 30
0.0
  9
$UCSYDIR
 10
0.0
 20
1.0
 30
0.0
  9
$PUCSNAME
  2

  9
$PUCSORG
 10
0.0
 20
0.0
 30
0.0
  9
$PUCSXDIR
 10
1.0
 20
0.0
 30
0.0
  9
$PUCSYDIR
 10
0.0
 20
1.0
 30
0.0
  9
$USERI1
 70
     0
  9
$USERI2
 70
     1
  9
$USERI3
 70
     1
  9
$USERI4
 70
     0
  9
$USERI5
 70
     0
  9
$USERR1
 40
0.0
  9
$USERR2
 40
0.0
  9
$USERR3
 40
0.0
  9
$USERR4
 40
0.0
  9
$USERR5
 40
0.0
  9
$WORLDVIEW
 70
     1
  9
$SHADEDGE
 70
     3
  9
$SHADEDIF
 70
    70
  9
$TILEMODE
 70
     1
  9
$MAXACTVP
 70
    16
  9
$PLIMCHECK
 70
     0
  9
$PEXTMIN
 10
1.0000000000000000E+020
 20
1.0000000000000000E+020
 30
1.0000000000000000E+020
  9
$PEXTMAX
 10
-1.0000000000000000E+020
 20
-1.0000000000000000E+020
 30
-1.0000000000000000E+020
  9
$PLIMMIN
 10
0.0
 20
0.0
  9
$PLIMMAX
 10
12.0
 20
9.0
  9
$UNITMODE
 70
     0
  9
$VISRETAIN
 70
     0
  9
$PLINEGEN
 70
     0
  9
$PSLTSCALE
 70
     0
  0
ENDSEC
  0
SECTION
  2
TABLES
  0
TABLE
  2
VPORT
 70
     1
  0
VPORT
  2
*ACTIVE
 70
     0
 10
0.0
 20
0.0
 11
1.0
 21
1.0
 12
196.5491013009437
 22
214.3164268464885
 13
0.0
 23
0.0
 14
5.0
 24
5.0
 15
5.0
 25
5.0
 16
0.0
 26
0.0
 36
1.0
 17
0.0
 27
0.0
 37
0.0
 40
438.4357282183588
 41
1.7807262569832401
 42
50.0
 43
0.0
 44
0.0
 50
0.0
 51
0.0
 71
     0
 72
   100
 73
     1
 74
     0
 75
     0
 76
     0
 77
     0
 78
     0
  0
ENDTAB
  0
TABLE
  2
LTYPE
 70
     3
  0
LTYPE
  2
CONTINUOUS
 70
     0
  3
Solid Line
 72
    65
 73
     0
 40
0.0
  0
LTYPE
  2
CENTER
 70
     0
  3
____ _ ____ _ ____ _ ____ _ ____ _ ____ _ ____
 72
    65
 73
     4
 40
2.0
 49
1.25
 49
-0.25
 49
0.25
 49
-0.25
  0
LTYPE
  2
PHANTOM2
 70
     0
  3
___ _ _ ___ _ _ ___ _ _ ___ _ _
 72
    65
 73
     6
 40
1.25
 49
0.625
 49
-0.125
 49
0.125
 49
-0.125
 49
0.125
 49
-0.125
  0
ENDTAB
  0
TABLE
  2
LAYER
 70
     3
  0
LAYER
  2
0
 70
     0
 62
     7
  6
CONTINUOUS
  0
LAYER
  2
1
 70
     0
 62
     1
  6
CENTER
  0
LAYER
  2
3
 70
     0
 62
     3
  6
CONTINUOUS
  0
ENDTAB
  0
TABLE
  2
STYLE
 70
     2
  0
STYLE
  2
STANDARD
 70
     0
 40
0.0
 41
1.0
 50
0.0
 71
     0
 42
4.0
  3
TXT
  4
BIGFONT
  0
STYLE
  2
STANDARD1
 70
     0
 40
0.0
 41
1.0
 50
0.0
 71
     0
 42
3.0
  3
txt
  4

  0
ENDTAB
  0
TABLE
  2
VIEW
 70
     1
  0
VIEW
  2
ALL
 70
     0
 40
179.66152299999999
 10
141.903918
 20
89.830760999999995
 41
0.0
 11
0.0
 21
0.0
 31
1.0
 12
0.0
 22
0.0
 32
0.0
 42
0.0
 43
0.0
 44
0.0
 50
0.0
 71
     0
  0
ENDTAB
  0
TABLE
  2
UCS
 70
     0
  0
ENDTAB
  0
TABLE
  2
APPID
 70
     4
  0
APPID
  2
ACAD
 70
     0
  0
APPID
  2
DCO15
 70
     0
  0
APPID
  2
ACAD_MLEADERVER
 70
     0
  0
APPID
  2
ACAD_NAV_VCDISPLAY
 70
     0
  0
ENDTAB
  0
TABLE
  2
DIMSTYLE
 70
     1
  0
DIMSTYLE
  2
STANDARD
 70
     0
  3

  4

  5

  6

  7

 40
1.0
 41
0.18
 42
0.0625
 43
0.38
 44
0.18
 45
0.0
 46
0.0
 47
0.0
 48
0.0
140
0.18
141
0.09
142
0.0
143
25.399999999999999
144
1.0
145
0.0
146
1.0
147
0.09
 71
     0
 72
     0
 73
     1
 74
     1
 75
     0
 76
     0
 77
     0
 78
     0
170
     0
171
     2
172
     0
173
     0
174
     0
175
     0
176
     0
177
     0
178
     0
  0
ENDTAB
  0
ENDSEC
  0
SECTION
  2
BLOCKS
  0
BLOCK
  8
0
  2
$MODEL_SPACE
 70
     0
 10
0.0
 20
0.0
 30
0.0
  3
$MODEL_SPACE
  1

  0
ENDBLK
  5
1BD
  8
0
  0
BLOCK
 67
     1
  8
0
  2
$PAPER_SPACE
 70
     0
 10
0.0
 20
0.0
 30
0.0
  3
$PAPER_SPACE
  1

  0
ENDBLK
  5
1BB
 67
     1
  8
0
  0
ENDSEC
  0
SECTION
  2
ENTITIES
  0
LINE
  5
104A
  8
0
 10
211.38038095782861
 20
217.15802084652171
 30
0.0
 11
211.38038095782869
 21
198.53911401021509
 31
0.0
  0
LINE
  5
104B
  8
0
 10
232.38038095782869
 20
198.53911401021509
 30
0.0
 11
232.38038095782861
 21
212.5391140102152
 31
0.0
  0
LINE
  5
104C
  8
0
 10
288.26331356166111
 20
230.5991140102152
 30
0.0
 11
278.22486311217227
 21
230.5991140102152
 31
0.0
  0
LINE
  5
104D
  8
0
 10
296.64992728769408
 20
232.87042058549901
 30
0.0
 11
291.65156653203047
 21
231.18828634530749
 31
0.0
  0
LINE
  5
104E
  8
0
 10
232.38038095782869
 20
198.53911401021509
 30
0.0
 11
211.38038095782869
 21
198.53911401021509
 31
0.0
  0
LINE
  5
104F
  8
1
 10
221.88038095782861
 20
230.53911401021509
 30
0.0
 11
221.88038095782861
 21
143.53911401021509
 31
0.0
  0
LINE
  5
1051
  8
0
 10
229.89038095782871
 20
188.53911401021509
 30
0.0
 11
229.89038095782871
 21
198.53911401021509
 31
0.0
  0
LINE
  5
1052
  8
0
 10
213.89038095782871
 20
198.53911401021509
 30
0.0
 11
213.89038095782871
 21
188.53911401021509
 31
0.0
  0
LINE
  5
1054
  8
0
 10
213.89038095782871
 20
188.53911401021509
 30
0.0
 11
229.89038095782871
 21
188.53911401021509
 31
0.0
  0
ARC
  5
1062
  8
0
 10
322.59613456847961
 20
-25.951003937238401
 30
0.0
 40
270.0
 50
94.957086921350097
 51
113.6996745048306
  0
LINE
  5
1063
  8
0
 10
299.26554420700211
 20
243.03911401021509
 30
0.0
 11
299.89038095782871
 21
243.03911401021509
 31
0.0
  0
LINE
  5
1064
  8
0
 10
301.89038095782871
 20
241.03911401021509
 30
0.0
 11
301.89038095782871
 21
239.00422616844119
 31
0.0
  0
ARC
  5
1065
  8
0
 10
299.89038095782871
 20
241.03911401021509
 30
0.0
 40
2.0
 50
0.0
 51
90.0
  0
ARC
  5
1066
  8
0
 10
215.88038095782869
 20
217.15802084652171
 30
0.0
 40
4.5
 50
113.6996745048306
 51
180.0
  0
ARC
  5
1067
  8
0
 10
349.17803782013669
 20
-14.12082049432513
 30
0.0
 40
255.0
 50
106.4878909565075
 51
117.2600616186912
  0
ARC
  5
1068
  8
0
 10
278.22486311217227
 20
225.5991140102152
 30
0.0
 40
5.0
 50
90.0
 51
106.48789095650569
  0
ARC
  5
1069
  8
0
 10
294.46286976045252
 20
240.0444556685284
 30
0.0
 40
7.5
 50
286.95422943661129
 51
352.02753029962417
  0
LINE
  5
106A
  8
0
 10
211.38038095782861
 20
311.2078522533692
 30
0.0
 11
211.38038095782861
 21
317.70089468354013
 31
0.0
  0
CIRCLE
  5
1078
  8
0
 10
222.84196971627961
 20
314.45437346845461
 30
0.0
 40
6.5992762682978654
  0
LINE
  5
1079
  8
1
 10
221.89038095782871
 20
330.45437346845461
 30
0.0
 11
221.89038095782871
 21
298.45437346845461
 31
0.0
  0
LINE
  5
107A
  8
1
 10
306.89038095782871
 20
314.45437346845461
 30
0.0
 11
206.38038095782869
 21
314.45437346845461
 31
0.0
  0
ARC
  5
107B
  8
0
 10
221.89038095782871
 20
314.45437346845461
 30
0.0
 40
11.0
 50
197.16583016485521
 51
297.66428518543768
  0
ARC
  5
107C
  8
0
 10
296.39038095782871
 20
314.45437346845461
 30
0.0
 40
5.5
 50
270.0
 51
90.0
  0
ARC
  5
107D
  8
0
 10
244.95944424969551
 20
370.859198276835
 30
0.0
 40
50.0
 50
248.9466271382876
 51
278.79596523459998
  0
LINE
  5
107E
  8
0
 10
296.39038095782871
 20
319.95437346845461
 30
0.0
 11
253.5504400032531
 21
321.50278212006231
 31
0.0
  0
ARC
  5
107F
  8
0
 10
253.36983772033301
 20
316.50604490309718
 30
0.0
 40
5.0
 50
87.929999999999524
 51
98.795965234600004
  0
LINE
  5
1080
  8
0
 10
296.39038095782871
 20
308.95437346845461
 30
0.0
 11
253.5504400032531
 21
307.40596481684702
 31
0.0
  0
ARC
  5
1081
  8
0
 10
244.95944424969551
 20
258.04954866007432
 30
0.0
 40
50.0
 50
81.204034765399996
 51
111.0533728617124
  0
ARC
  5
1082
  8
0
 10
253.36983772033301
 20
312.40270203381198
 30
0.0
 40
5.0
 50
261.20403476540002
 51
272.0700000000005
  0
ARC
  5
1083
  8
0
 10
221.89038095782871
 20
314.45437346845461
 30
0.0
 40
11.0
 50
62.335714814562287
 51
162.83416983514471
  0
LINE
  5
1084
  8
0
 10
296.39038095782871
 20
81.804376337580166
 30
0.0
 11
253.5504400032531
 21
83.352784989187853
 31
0.0
  0
LINE
  5
1085
  8
0
 10
296.39038095782871
 20
70.804376337580152
 30
0.0
 11
253.5504400032531
 21
69.255967685972564
 31
0.0
  0
LINE
  5
1086
  8
1
 10
306.89038095782871
 20
76.304376337580152
 30
0.0
 11
206.38038095782869
 21
76.304376337580152
 31
0.0
  0
ARC
  5
1087
  8
0
 10
244.95944424969551
 20
132.70920114596049
 30
0.0
 40
50.0
 50
248.9466271382876
 51
278.79596523459998
  0
ARC
  5
1088
  8
0
 10
244.95944424969551
 20
19.899551529199869
 30
0.0
 40
50.0
 50
81.204034765399996
 51
111.0533728617124
  0
LINE
  5
1089
  8
1
 10
221.89038095782871
 20
92.304376337580152
 30
0.0
 11
221.89038095782871
 21
60.304376337580152
 31
0.0
  0
ARC
  5
108A
  8
0
 10
221.89038095782871
 20
76.304376337580152
 30
0.0
 40
11.0
 50
62.335714814562287
 51
162.83416983514471
  0
ARC
  5
108B
  8
0
 10
221.89038095782871
 20
76.304376337580152
 30
0.0
 40
11.0
 50
197.16583016485521
 51
297.66428518543768
  0
LINE
  5
108C
  8
0
 10
211.38038095782869
 20
73.057855122494743
 30
0.0
 11
211.38038095782869
 21
79.550897552665617
 31
0.0
  0
ARC
  5
108D
  8
0
 10
253.36983772033301
 20
74.25270490293758
 30
0.0
 40
5.0
 50
261.20403476540002
 51
272.0700000000005
  0
ARC
  5
108E
  8
0
 10
253.36983772033301
 20
78.356047772222723
 30
0.0
 40
5.0
 50
87.929999999999524
 51
98.795965234600004
  0
ARC
  5
108F
  8
0
 10
296.39038095782871
 20
76.304376337580152
 30
0.0
 40
5.5
 50
270.0
 51
90.0
  0
CIRCLE
  5
1090
  8
0
 10
221.89038095782871
 20
76.304376337580152
 30
0.0
 40
8.0
  0
CIRCLE
  5
1091
  8
0
 10
221.89038095782871
 20
76.304376337580152
 30
0.0
 40
10.5
  0
CIRCLE
  5
1092
  8
3
 10
221.89038095782871
 20
76.304376337580152
 30
0.0
 40
4.0
  0
CIRCLE
  5
1093
  8
0
 10
221.89038095782871
 20
76.304376337580152
 30
0.0
 40
5.0
  0
LINE
  5
1096
  8
0
 10
134.92355595794061
 20
188.53911401021509
 30
0.0
 11
134.92355595794061
 21
198.53911401021509
 31
0.0
  0
LINE
  5
1097
  8
0
 10
118.92355595794049
 20
198.53911401021509
 30
0.0
 11
118.92355595794049
 21
188.53911401021509
 31
0.0
  0
LINE
  5
1099
  8
0
 10
121.6235559579405
 20
221.2891140102152
 30
0.0
 11
132.2235559579405
 21
221.2891140102152
 31
0.0
  0
LINE
  5
109A
  8
0
 10
118.92355595794049
 20
188.53911401021509
 30
0.0
 11
134.92355595794061
 21
188.53911401021509
 31
0.0
  0
LINE
  5
109B
  8
1
 10
126.92355595794059
 20
248.0391140102152
 30
0.0
 11
126.92355595794059
 21
143.53911401021509
 31
0.0
  0
LINE
  5
109C
  8
0
 10
131.5111425606847
 20
243.03911401021509
 30
0.0
 11
122.3359693551964
 21
243.03911401021509
 31
0.0
  0
LINE
  5
109D
  8
0
 10
137.42355595794061
 20
198.53911401021509
 30
0.0
 11
116.42355595794059
 21
198.53911401021509
 31
0.0
  0
LINE
  5
109E
  8
0
 10
121.6235559579405
 20
221.2891140102152
 30
0.0
 11
132.2235559579405
 21
221.2891140102152
 31
0.0
  0
POLYLINE
  5
109F
  8
0
 10
120.36160671722347
 20
224.83842350192086
 30
0.0
 66
     1
 70
     8
  0
VERTEX
  8
0
  5
1396
 10
120.362
 20
224.838
 30
0.000000
  70
    32
  0
VERTEX
  8
0
  5
1397
 10
120.372
 20
224.716
 30
0.000000
  70
    32
  0
VERTEX
  8
0
  5
1398
 10
120.398
 20
224.594
 30
0.000000
  70
    32
  0
VERTEX
  8
0
  5
1399
 10
120.440
 20
224.474
 30
0.000000
  70
    32
  0
VERTEX
  8
0
  5
139A
 10
120.498
 20
224.354
 30
0.000000
  70
    32
  0
VERTEX
  8
0
  5
139B
 10
120.571
 20
224.236
 30
0.000000
  70
    32
  0
VERTEX
  8
0
  5
139C
 10
120.659
 20
224.120
 30
0.000000
  70
    32
  0
VERTEX
  8
0
  5
139D
 10
120.763
 20
224.005
 30
0.000000
  70
    32
  0
VERTEX
  8
0
  5
139E
 10
120.881
 20
223.893
 30
0.000000
  70
    32
  0
VERTEX
  8
0
  5
139F
 10
121.014
 20
223.784
 30
0.000000
  70
    32
  0
VERTEX
  8
0
  5
13A0
 10
121.161
 20
223.678
 30
0.000000
  70
    32
  0
VERTEX
  8
0
  5
13A1
 10
121.322
 20
223.574
 30
0.000000
  70
    32
  0
VERTEX
  8
0
  5
13A2
 10
121.497
 20
223.474
 30
0.000000
  70
    32
  0
VERTEX
  8
0
  5
13A3
 10
121.684
 20
223.378
 30
0.000000
  70
    32
  0
VERTEX
  8
0
  5
13A4
 10
121.884
 20
223.286
 30
0.000000
  70
    32
  0
VERTEX
  8
0
  5
13A5
 10
122.097
 20
223.197
 30
0.000000
  70
    32
  0
VERTEX
  8
0
  5
13A6
 10
122.321
 20
223.113
 30
0.000000
  70
    32
  0
VERTEX
  8
0
  5
13A7
 10
122.556
 20
223.034
 30
0.000000
  70
    32
  0
VERTEX
  8
0
  5
13A8
 10
122.801
 20
222.959
 30
0.000000
  70
    32
  0
VERTEX
  8
0
  5
13A9
 10
123.057
 20
222.889
 30
0.000000
  70
    32
  0
VERTEX
  8
0
  5
13AA
 10
123.322
 20
222.824
 30
0.000000
  70
    32
  0
VERTEX
  8
0
  5
13AB
 10
123.595
 20
222.764
 30
0.000000
  70
    32
  0
VERTEX
  8
0
  5
13AC
 10
123.877
 20
222.709
 30
0.000000
  70
    32
  0
VERTEX
  8
0
  5
13AD
 10
124.165
 20
222.660
 30
0.000000
  70
    32
  0
VERTEX
  8
0
  5
13AE
 10
124.461
 20
222.617
 30
0.000000
  70
    32
  0
VERTEX
  8
0
  5
13AF
 10
124.762
 20
222.579
 30
0.000000
  70
    32
  0
VERTEX
  8
0
  5
13B0
 10
125.069
 20
222.547
 30
0.000000
  70
    32
  0
VERTEX
  8
0
  5
13B1
 10
125.380
 20
222.521
 30
0.000000
  70
    32
  0
VERTEX
  8
0
  5
13B2
 10
125.695
 20
222.501
 30
0.000000
  70
    32
  0
VERTEX
  8
0
  5
13B3
 10
126.013
 20
222.486
 30
0.000000
  70
    32
  0
VERTEX
  8
0
  5
13B4
 10
126.333
 20
222.478
 30
0.000000
  70
    32
  0
VERTEX
  8
0
  5
13B5
 10
126.654
 20
222.476
 30
0.000000
  70
    32
  0
VERTEX
  8
0
  5
13B6
 10
126.976
 20
222.479
 30
0.000000
  70
    32
  0
VERTEX
  8
0
  5
13B7
 10
127.298
 20
222.489
 30
0.000000
  70
    32
  0
VERTEX
  8
0
  5
13B8
 10
127.619
 20
222.505
 30
0.000000
  70
    32
  0
VERTEX
  8
0
  5
13B9
 10
127.938
 20
222.527
 30
0.000000
  70
    32
  0
VERTEX
  8
0
  5
13BA
 10
128.255
 20
222.554
 30
0.000000
  70
    32
  0
VERTEX
  8
0
  5
13BB
 10
128.569
 20
222.588
 30
0.000000
  70
    32
  0
VERTEX
  8
0
  5
13BC
 10
128.879
 20
222.627
 30
0.000000
  70
    32
  0
VERTEX
  8
0
  5
13BD
 10
129.184
 20
222.672
 30
0.000000
  70
    32
  0
VERTEX
  8
0
  5
13BE
 10
129.483
 20
222.722
 30
0.000000
  70
    32
  0
VERTEX
  8
0
  5
13BF
 10
129.777
 20
222.778
 30
0.000000
  70
    32
  0
VERTEX
  8
0
  5
13C0
 10
130.063
 20
222.839
 30
0.000000
  70
    32
  0
VERTEX
  8
0
  5
13C1
 10
130.342
 20
222.906
 30
0.000000
  70
    32
  0
VERTEX
  8
0
  5
13C2
 10
130.613
 20
222.977
 30
0.000000
  70
    32
  0
VERTEX
  8
0
  5
13C3
 10
130.875
 20
223.053
 30
0.000000
  70
    32
  0
VERTEX
  8
0
  5
13C4
 10
131.127
 20
223.134
 30
0.000000
  70
    32
  0
VERTEX
  8
0
  5
13C5
 10
131.369
 20
223.219
 30
0.000000
  70
    32
  0
VERTEX
  8
0
  5
13C6
 10
131.601
 20
223.308
 30
0.000000
  70
    32
  0
VERTEX
  8
0
  5
13C7
 10
131.821
 20
223.402
 30
0.000000
  70
    32
  0
VERTEX
  8
0
  5
13C8
 10
132.029
 20
223.499
 30
0.000000
  70
    32
  0
VERTEX
  8
0
  5
13C9
 10
132.225
 20
223.600
 30
0.000000
  70
    32
  0
VERTEX
  8
0
  5
13CA
 10
132.409
 20
223.704
 30
0.000000
  70
    32
  0
VERTEX
  8
0
  5
13CB
 10
132.579
 20
223.811
 30
0.000000
  70
    32
  0
VERTEX
  8
0
  5
13CC
 10
132.735
 20
223.921
 30
0.000000
  70
    32
  0
VERTEX
  8
0
  5
13CD
 10
132.878
 20
224.033
 30
0.000000
  70
    32
  0
VERTEX
  8
0
  5
13CE
 10
133.006
 20
224.148
 30
0.000000
  70
    32
  0
VERTEX
  8
0
  5
13CF
 10
133.120
 20
224.265
 30
0.000000
  70
    32
  0
VERTEX
  8
0
  5
13D0
 10
133.218
 20
224.383
 30
0.000000
  70
    32
  0
VERTEX
  8
0
  5
13D1
 10
133.302
 20
224.503
 30
0.000000
  70
    32
  0
VERTEX
  8
0
  5
13D2
 10
133.370
 20
224.624
 30
0.000000
  70
    32
  0
VERTEX
  8
0
  5
13D3
 10
133.422
 20
224.746
 30
0.000000
  70
    32
  0
VERTEX
  8
0
  5
13D4
 10
133.459
 20
224.869
 30
0.000000
  70
    32
  0
VERTEX
  8
0
  5
13D5
 10
133.480
 20
224.992
 30
0.000000
  70
    32
  0
VERTEX
  8
0
  5
13D6
 10
133.486
 20
225.114
 30
0.000000
  70
    32
  0
VERTEX
  8
0
  5
13D7
 10
133.475
 20
225.237
 30
0.000000
  70
    32
  0
VERTEX
  8
0
  5
13D8
 10
133.449
 20
225.358
 30
0.000000
  70
    32
  0
VERTEX
  8
0
  5
13D9
 10
133.407
 20
225.479
 30
0.000000
  70
    32
  0
VERTEX
  8
0
  5
13DA
 10
133.349
 20
225.599
 30
0.000000
  70
    32
  0
VERTEX
  8
0
  5
13DB
 10
133.276
 20
225.717
 30
0.000000
  70
    32
  0
VERTEX
  8
0
  5
13DC
 10
133.188
 20
225.833
 30
0.000000
  70
    32
  0
VERTEX
  8
0
  5
13DD
 10
133.084
 20
225.947
 30
0.000000
  70
    32
  0
VERTEX
  8
0
  5
13DE
 10
132.966
 20
226.059
 30
0.000000
  70
    32
  0
VERTEX
  8
0
  5
13DF
 10
132.833
 20
226.168
 30
0.000000
  70
    32
  0
VERTEX
  8
0
  5
13E0
 10
132.686
 20
226.275
 30
0.000000
  70
    32
  0
VERTEX
  8
0
  5
13E1
 10
132.525
 20
226.378
 30
0.000000
  70
    32
  0
VERTEX
  8
0
  5
13E2
 10
132.350
 20
226.478
 30
0.000000
  70
    32
  0
VERTEX
  8
0
  5
13E3
 10
132.163
 20
226.574
 30
0.000000
  70
    32
  0
VERTEX
  8
0
  5
13E4
 10
131.963
 20
226.667
 30
0.000000
  70
    32
  0
VERTEX
  8
0
  5
13E5
 10
131.750
 20
226.755
 30
0.000000
  70
    32
  0
VERTEX
  8
0
  5
13E6
 10
131.526
 20
226.839
 30
0.000000
  70
    32
  0
VERTEX
  8
0
  5
13E7
 10
131.291
 20
226.919
 30
0.000000
  70
    32
  0
VERTEX
  8
0
  5
13E8
 10
131.046
 20
226.994
 30
0.000000
  70
    32
  0
VERTEX
  8
0
  5
13E9
 10
130.790
 20
227.064
 30
0.000000
  70
    32
  0
VERTEX
  8
0
  5
13EA
 10
130.526
 20
227.129
 30
0.000000
  70
    32
  0
VERTEX
  8
0
  5
13EB
 10
130.252
 20
227.189
 30
0.000000
  70
    32
  0
VERTEX
  8
0
  5
13EC
 10
129.971
 20
227.243
 30
0.000000
  70
    32
  0
VERTEX
  8
0
  5
13ED
 10
129.682
 20
227.292
 30
0.000000
  70
    32
  0
VERTEX
  8
0
  5
13EE
 10
129.386
 20
227.336
 30
0.000000
  70
    32
  0
VERTEX
  8
0
  5
13EF
 10
129.085
 20
227.374
 30
0.000000
  70
    32
  0
VERTEX
  8
0
  5
13F0
 10
128.778
 20
227.406
 30
0.000000
  70
    32
  0
VERTEX
  8
0
  5
13F1
 10
128.467
 20
227.432
 30
0.000000
  70
    32
  0
VERTEX
  8
0
  5
13F2
 10
128.152
 20
227.452
 30
0.000000
  70
    32
  0
VERTEX
  8
0
  5
13F3
 10
127.834
 20
227.466
 30
0.000000
  70
    32
  0
VERTEX
  8
0
  5
13F4
 10
127.515
 20
227.475
 30
0.000000
  70
    32
  0
VERTEX
  8
0
  5
13F5
 10
127.193
 20
227.477
 30
0.000000
  70
    32
  0
VERTEX
  8
0
  5
13F6
 10
126.871
 20
227.473
 30
0.000000
  70
    32
  0
VERTEX
  8
0
  5
13F7
 10
126.549
 20
227.463
 30
0.000000
  70
    32
  0
VERTEX
  8
0
  5
13F8
 10
126.228
 20
227.448
 30
0.000000
  70
    32
  0
VERTEX
  8
0
  5
13F9
 10
125.909
 20
227.426
 30
0.000000
  70
    32
  0
VERTEX
  8
0
  5
13FA
 10
125.592
 20
227.398
 30
0.000000
  70
    32
  0
VERTEX
  8
0
  5
13FB
 10
125.278
 20
227.365
 30
0.000000
  70
    32
  0
VERTEX
  8
0
  5
13FC
 10
124.969
 20
227.326
 30
0.000000
  70
    32
  0
VERTEX
  8
0
  5
13FD
 10
124.664
 20
227.281
 30
0.000000
  70
    32
  0
VERTEX
  8
0
  5
13FE
 10
124.364
 20
227.230
 30
0.000000
  70
    32
  0
VERTEX
  8
0
  5
13FF
 10
124.071
 20
227.174
 30
0.000000
  70
    32
  0
VERTEX
  8
0
  5
1400
 10
123.784
 20
227.113
 30
0.000000
  70
    32
  0
VERTEX
  8
0
  5
1401
 10
123.505
 20
227.047
 30
0.000000
  70
    32
  0
VERTEX
  8
0
  5
1402
 10
123.234
 20
226.976
 30
0.000000
  70
    32
  0
VERTEX
  8
0
  5
1403
 10
122.972
 20
226.900
 30
0.000000
  70
    32
  0
VERTEX
  8
0
  5
1404
 10
122.720
 20
226.819
 30
0.000000
  70
    32
  0
VERTEX
  8
0
  5
1405
 10
122.478
 20
226.734
 30
0.000000
  70
    32
  0
VERTEX
  8
0
  5
1406
 10
122.246
 20
226.644
 30
0.000000
  70
    32
  0
VERTEX
  8
0
  5
1407
 10
122.026
 20
226.551
 30
0.000000
  70
    32
  0
VERTEX
  8
0
  5
1408
 10
121.818
 20
226.454
 30
0.000000
  70
    32
  0
VERTEX
  8
0
  5
1409
 10
121.622
 20
226.353
 30
0.000000
  70
    32
  0
VERTEX
  8
0
  5
140A
 10
121.438
 20
226.249
 30
0.000000
  70
    32
  0
VERTEX
  8
0
  5
140B
 10
121.268
 20
226.142
 30
0.000000
  70
    32
  0
VERTEX
  8
0
  5
140C
 10
121.112
 20
226.032
 30
0.000000
  70
    32
  0
VERTEX
  8
0
  5
140D
 10
120.969
 20
225.919
 30
0.000000
  70
    32
  0
VERTEX
  8
0
  5
140E
 10
120.841
 20
225.804
 30
0.000000
  70
    32
  0
VERTEX
  8
0
  5
140F
 10
120.728
 20
225.688
 30
0.000000
  70
    32
  0
VERTEX
  8
0
  5
1410
 10
120.629
 20
225.569
 30
0.000000
  70
    32
  0
VERTEX
  8
0
  5
1411
 10
120.546
 20
225.449
 30
0.000000
  70
    32
  0
VERTEX
  8
0
  5
1412
 10
120.477
 20
225.328
 30
0.000000
  70
    32
  0
VERTEX
  8
0
  5
1413
 10
120.425
 20
225.206
 30
0.000000
  70
    32
  0
VERTEX
  8
0
  5
1414
 10
120.388
 20
225.084
 30
0.000000
  70
    32
  0
VERTEX
  8
0
  5
1415
 10
120.367
 20
224.961
 30
0.000000
  70
    32
  0
VERTEX
  8
0
  5
1416
 10
120.362
 20
224.838
 30
0.000000
  70
    32
  0
SEQEND
  8
0
  5
1417
  0
LINE
  5
10A0
  8
0
 10
134.08587445006609
 20
221.2785127920092
 30
0.0
 11
119.761237465815
 21
221.2785127920092
 31
0.0
  0
POLYLINE
  5
10A1
  8
0
 10
134.08587445006611
 20
221.27851279200922
 30
0.0
 66
     1
 70
     8
  0
VERTEX
  8
0
  5
1418
 10
134.086
 20
221.279
 30
0.000000
  70
    32
  0
VERTEX
  8
0
  5
1419
 10
134.398
 20
221.390
 30
0.000000
  70
    32
  0
VERTEX
  8
0
  5
141A
 10
134.699
 20
221.507
 30
0.000000
  70
    32
  0
VERTEX
  8
0
  5
141B
 10
134.989
 20
221.628
 30
0.000000
  70
    32
  0
VERTEX
  8
0
  5
141C
 10
135.267
 20
221.754
 30
0.000000
  70
    32
  0
VERTEX
  8
0
  5
141D
 10
135.534
 20
221.883
 30
0.000000
  70
    32
  0
VERTEX
  8
0
  5
141E
 10
135.788
 20
222.017
 30
0.000000
  70
    32
  0
VERTEX
  8
0
  5
141F
 10
136.029
 20
222.154
 30
0.000000
  70
    32
  0
VERTEX
  8
0
  5
1420
 10
136.257
 20
222.295
 30
0.000000
  70
    32
  0
VERTEX
  8
0
  5
1421
 10
136.471
 20
222.440
 30
0.000000
  70
    32
  0
VERTEX
  8
0
  5
1422
 10
136.672
 20
222.587
 30
0.000000
  70
    32
  0
VERTEX
  8
0
  5
1423
 10
136.858
 20
222.738
 30
0.000000
  70
    32
  0
VERTEX
  8
0
  5
1424
 10
137.030
 20
222.891
 30
0.000000
  70
    32
  0
VERTEX
  8
0
  5
1425
 10
137.188
 20
223.047
 30
0.000000
  70
    32
  0
VERTEX
  8
0
  5
1426
 10
137.331
 20
223.205
 30
0.000000
  70
    32
  0
VERTEX
  8
0
  5
1427
 10
137.458
 20
223.365
 30
0.000000
  70
    32
  0
VERTEX
  8
0
  5
1428
 10
137.571
 20
223.527
 30
0.000000
  70
    32
  0
VERTEX
  8
0
  5
1429
 10
137.668
 20
223.690
 30
0.000000
  70
    32
  0
VERTEX
  8
0
  5
142A
 10
137.750
 20
223.855
 30
0.000000
  70
    32
  0
VERTEX
  8
0
  5
142B
 10
137.816
 20
224.021
 30
0.000000
  70
    32
  0
VERTEX
  8
0
  5
142C
 10
137.866
 20
224.188
 30
0.000000
  70
    32
  0
VERTEX
  8
0
  5
142D
 10
137.901
 20
224.356
 30
0.000000
  70
    32
  0
VERTEX
  8
0
  5
142E
 10
137.919
 20
224.524
 30
0.000000
  70
    32
  0
VERTEX
  8
0
  5
142F
 10
137.922
 20
224.692
 30
0.000000
  70
    32
  0
VERTEX
  8
0
  5
1430
 10
137.909
 20
224.860
 30
0.000000
  70
    32
  0
VERTEX
  8
0
  5
1431
 10
137.880
 20
225.028
 30
0.000000
  70
    32
  0
VERTEX
  8
0
  5
1432
 10
137.835
 20
225.195
 30
0.000000
  70
    32
  0
VERTEX
  8
0
  5
1433
 10
137.774
 20
225.362
 30
0.000000
  70
    32
  0
VERTEX
  8
0
  5
1434
 10
137.698
 20
225.527
 30
0.000000
  70
    32
  0
VERTEX
  8
0
  5
1435
 10
137.606
 20
225.691
 30
0.000000
  70
    32
  0
VERTEX
  8
0
  5
1436
 10
137.499
 20
225.854
 30
0.000000
  70
    32
  0
VERTEX
  8
0
  5
1437
 10
137.376
 20
226.014
 30
0.000000
  70
    32
  0
VERTEX
  8
0
  5
1438
 10
137.239
 20
226.173
 30
0.000000
  70
    32
  0
VERTEX
  8
0
  5
1439
 10
137.086
 20
226.330
 30
0.000000
  70
    32
  0
VERTEX
  8
0
  5
143A
 10
136.919
 20
226.484
 30
0.000000
  70
    32
  0
VERTEX
  8
0
  5
143B
 10
136.737
 20
226.635
 30
0.000000
  70
    32
  0
VERTEX
  8
0
  5
143C
 10
136.541
 20
226.784
 30
0.000000
  70
    32
  0
VERTEX
  8
0
  5
143D
 10
136.331
 20
226.929
 30
0.000000
  70
    32
  0
VERTEX
  8
0
  5
143E
 10
136.108
 20
227.072
 30
0.000000
  70
    32
  0
VERTEX
  8
0
  5
143F
 10
135.872
 20
227.210
 30
0.000000
  70
    32
  0
VERTEX
  8
0
  5
1440
 10
135.622
 20
227.345
 30
0.000000
  70
    32
  0
VERTEX
  8
0
  5
1441
 10
135.360
 20
227.476
 30
0.000000
  70
    32
  0
VERTEX
  8
0
  5
1442
 10
135.086
 20
227.603
 30
0.000000
  70
    32
  0
VERTEX
  8
0
  5
1443
 10
134.800
 20
227.726
 30
0.000000
  70
    32
  0
VERTEX
  8
0
  5
1444
 10
134.502
 20
227.844
 30
0.000000
  70
    32
  0
VERTEX
  8
0
  5
1445
 10
134.194
 20
227.957
 30
0.000000
  70
    32
  0
VERTEX
  8
0
  5
1446
 10
133.875
 20
228.066
 30
0.000000
  70
    32
  0
VERTEX
  8
0
  5
1447
 10
133.546
 20
228.170
 30
0.000000
  70
    32
  0
VERTEX
  8
0
  5
1448
 10
133.208
 20
228.269
 30
0.000000
  70
    32
  0
VERTEX
  8
0
  5
1449
 10
132.860
 20
228.362
 30
0.000000
  70
    32
  0
VERTEX
  8
0
  5
144A
 10
132.504
 20
228.450
 30
0.000000
  70
    32
  0
VERTEX
  8
0
  5
144B
 10
132.140
 20
228.533
 30
0.000000
  70
    32
  0
VERTEX
  8
0
  5
144C
 10
131.768
 20
228.610
 30
0.000000
  70
    32
  0
VERTEX
  8
0
  5
144D
 10
131.389
 20
228.681
 30
0.000000
  70
    32
  0
VERTEX
  8
0
  5
144E
 10
131.004
 20
228.746
 30
0.000000
  70
    32
  0
VERTEX
  8
0
  5
144F
 10
130.613
 20
228.806
 30
0.000000
  70
    32
  0
VERTEX
  8
0
  5
1450
 10
130.217
 20
228.859
 30
0.000000
  70
    32
  0
VERTEX
  8
0
  5
1451
 10
129.815
 20
228.906
 30
0.000000
  70
    32
  0
VERTEX
  8
0
  5
1452
 10
129.410
 20
228.947
 30
0.000000
  70
    32
  0
VERTEX
  8
0
  5
1453
 10
129.001
 20
228.982
 30
0.000000
  70
    32
  0
VERTEX
  8
0
  5
1454
 10
128.589
 20
229.011
 30
0.000000
  70
    32
  0
VERTEX
  8
0
  5
1455
 10
128.175
 20
229.033
 30
0.000000
  70
    32
  0
VERTEX
  8
0
  5
1456
 10
127.759
 20
229.049
 30
0.000000
  70
    32
  0
VERTEX
  8
0
  5
1457
 10
127.342
 20
229.059
 30
0.000000
  70
    32
  0
VERTEX
  8
0
  5
1458
 10
126.924
 20
229.062
 30
0.000000
  70
    32
  0
VERTEX
  8
0
  5
1459
 10
126.506
 20
229.059
 30
0.000000
  70
    32
  0
VERTEX
  8
0
  5
145A
 10
126.088
 20
229.049
 30
0.000000
  70
    32
  0
VERTEX
  8
0
  5
145B
 10
125.672
 20
229.033
 30
0.000000
  70
    32
  0
VERTEX
  8
0
  5
145C
 10
125.258
 20
229.011
 30
0.000000
  70
    32
  0
VERTEX
  8
0
  5
145D
 10
124.846
 20
228.982
 30
0.000000
  70
    32
  0
VERTEX
  8
0
  5
145E
 10
124.437
 20
228.947
 30
0.000000
  70
    32
  0
VERTEX
  8
0
  5
145F
 10
124.032
 20
228.906
 30
0.000000
  70
    32
  0
VERTEX
  8
0
  5
1460
 10
123.630
 20
228.859
 30
0.000000
  70
    32
  0
VERTEX
  8
0
  5
1461
 10
123.234
 20
228.806
 30
0.000000
  70
    32
  0
VERTEX
  8
0
  5
1462
 10
122.843
 20
228.746
 30
0.000000
  70
    32
  0
VERTEX
  8
0
  5
1463
 10
122.458
 20
228.681
 30
0.000000
  70
    32
  0
VERTEX
  8
0
  5
1464
 10
122.079
 20
228.610
 30
0.000000
  70
    32
  0
VERTEX
  8
0
  5
1465
 10
121.707
 20
228.533
 30
0.000000
  70
    32
  0
VERTEX
  8
0
  5
1466
 10
121.343
 20
228.450
 30
0.000000
  70
    32
  0
VERTEX
  8
0
  5
1467
 10
120.987
 20
228.362
 30
0.000000
  70
    32
  0
VERTEX
  8
0
  5
1468
 10
120.640
 20
228.269
 30
0.000000
  70
    32
  0
VERTEX
  8
0
  5
1469
 10
120.301
 20
228.170
 30
0.000000
  70
    32
  0
VERTEX
  8
0
  5
146A
 10
119.972
 20
228.066
 30
0.000000
  70
    32
  0
VERTEX
  8
0
  5
146B
 10
119.653
 20
227.957
 30
0.000000
  70
    32
  0
VERTEX
  8
0
  5
146C
 10
119.345
 20
227.844
 30
0.000000
  70
    32
  0
VERTEX
  8
0
  5
146D
 10
119.047
 20
227.726
 30
0.000000
  70
    32
  0
VERTEX
  8
0
  5
146E
 10
118.761
 20
227.603
 30
0.000000
  70
    32
  0
VERTEX
  8
0
  5
146F
 10
118.487
 20
227.476
 30
0.000000
  70
    32
  0
VERTEX
  8
0
  5
1470
 10
118.225
 20
227.345
 30
0.000000
  70
    32
  0
VERTEX
  8
0
  5
1471
 10
117.976
 20
227.210
 30
0.000000
  70
    32
  0
VERTEX
  8
0
  5
1472
 10
117.739
 20
227.072
 30
0.000000
  70
    32
  0
VERTEX
  8
0
  5
1473
 10
117.516
 20
226.929
 30
0.000000
  70
    32
  0
VERTEX
  8
0
  5
1474
 10
117.306
 20
226.784
 30
0.000000
  70
    32
  0
VERTEX
  8
0
  5
1475
 10
117.110
 20
226.635
 30
0.000000
  70
    32
  0
VERTEX
  8
0
  5
1476
 10
116.928
 20
226.484
 30
0.000000
  70
    32
  0
VERTEX
  8
0
  5
1477
 10
116.761
 20
226.330
 30
0.000000
  70
    32
  0
VERTEX
  8
0
  5
1478
 10
116.609
 20
226.173
 30
0.000000
  70
    32
  0
VERTEX
  8
0
  5
1479
 10
116.471
 20
226.014
 30
0.000000
  70
    32
  0
VERTEX
  8
0
  5
147A
 10
116.348
 20
225.854
 30
0.000000
  70
    32
  0
VERTEX
  8
0
  5
147B
 10
116.241
 20
225.691
 30
0.000000
  70
    32
  0
VERTEX
  8
0
  5
147C
 10
116.149
 20
225.527
 30
0.000000
  70
    32
  0
VERTEX
  8
0
  5
147D
 10
116.073
 20
225.362
 30
0.000000
  70
    32
  0
VERTEX
  8
0
  5
147E
 10
116.012
 20
225.195
 30
0.000000
  70
    32
  0
VERTEX
  8
0
  5
147F
 10
115.967
 20
225.028
 30
0.000000
  70
    32
  0
VERTEX
  8
0
  5
1480
 10
115.938
 20
224.860
 30
0.000000
  70
    32
  0
VERTEX
  8
0
  5
1481
 10
115.925
 20
224.692
 30
0.000000
  70
    32
  0
VERTEX
  8
0
  5
1482
 10
115.928
 20
224.524
 30
0.000000
  70
    32
  0
VERTEX
  8
0
  5
1483
 10
115.947
 20
224.356
 30
0.000000
  70
    32
  0
VERTEX
  8
0
  5
1484
 10
115.981
 20
224.188
 30
0.000000
  70
    32
  0
VERTEX
  8
0
  5
1485
 10
116.031
 20
224.021
 30
0.000000
  70
    32
  0
VERTEX
  8
0
  5
1486
 10
116.097
 20
223.855
 30
0.000000
  70
    32
  0
VERTEX
  8
0
  5
1487
 10
116.179
 20
223.690
 30
0.000000
  70
    32
  0
VERTEX
  8
0
  5
1488
 10
116.276
 20
223.527
 30
0.000000
  70
    32
  0
VERTEX
  8
0
  5
1489
 10
116.389
 20
223.365
 30
0.000000
  70
    32
  0
VERTEX
  8
0
  5
148A
 10
116.516
 20
223.205
 30
0.000000
  70
    32
  0
VERTEX
  8
0
  5
148B
 10
116.659
 20
223.047
 30
0.000000
  70
    32
  0
VERTEX
  8
0
  5
148C
 10
116.817
 20
222.891
 30
0.000000
  70
    32
  0
VERTEX
  8
0
  5
148D
 10
116.989
 20
222.738
 30
0.000000
  70
    32
  0
VERTEX
  8
0
  5
148E
 10
117.176
 20
222.587
 30
0.000000
  70
    32
  0
VERTEX
  8
0
  5
148F
 10
117.376
 20
222.440
 30
0.000000
  70
    32
  0
VERTEX
  8
0
  5
1490
 10
117.591
 20
222.295
 30
0.000000
  70
    32
  0
VERTEX
  8
0
  5
1491
 10
117.818
 20
222.154
 30
0.000000
  70
    32
  0
VERTEX
  8
0
  5
1492
 10
118.060
 20
222.017
 30
0.000000
  70
    32
  0
VERTEX
  8
0
  5
1493
 10
118.313
 20
221.883
 30
0.000000
  70
    32
  0
VERTEX
  8
0
  5
1494
 10
118.580
 20
221.754
 30
0.000000
  70
    32
  0
VERTEX
  8
0
  5
1495
 10
118.858
 20
221.628
 30
0.000000
  70
    32
  0
VERTEX
  8
0
  5
1496
 10
119.148
 20
221.507
 30
0.000000
  70
    32
  0
VERTEX
  8
0
  5
1497
 10
119.449
 20
221.390
 30
0.000000
  70
    32
  0
VERTEX
  8
0
  5
1498
 10
119.761
 20
221.279
 30
0.000000
  70
    32
  0
SEQEND
  8
0
  5
1499
  0
LINE
  5
10A2
  8
0
 10
137.92355595794061
 20
224.58154405521779
 30
0.0
 11
137.42355595794061
 21
198.53911401021509
 31
0.0
  0
ARC
  5
10A3
  8
0
 10
138.35506143203011
 20
232.70749128815669
 30
0.0
 40
5.0
 50
152.0074062139272
 51
213.9177417789258
  0
LINE
  5
10A4
  8
0
 10
133.95921738071769
 20
235.18892696729949
 30
0.0
 11
132.49013734230891
 21
242.24299931511101
 31
0.0
  0
ARC
  5
10A5
  8
0
 10
131.5111425606847
 20
242.0391140102152
 30
0.0
 40
1.0
 50
11.764253641804171
 51
90.0
  0
ARC
  5
10A6
  8
0
 10
133.76341842439291
 20
235.1481499063203
 30
0.0
 40
0.2
 50
332.00740621392731
 51
11.764253641805761
  0
LINE
  5
10A7
  8
0
 10
133.9634184243929
 20
235.1481499063203
 30
0.0
 11
133.9634184243929
 21
230.3172043402212
 31
0.0
  0
ARC
  5
10A8
  8
0
 10
147.23148612239061
 20
237.35610712392659
 30
0.0
 40
15.0
 50
209.7296705382044
 51
225.69583298831839
  0
LINE
  5
10A9
  8
0
 10
119.8836934914882
 20
235.1481499063203
 30
0.0
 11
119.8836934914882
 21
230.3172043402212
 31
0.0
  0
ARC
  5
10AA
  8
0
 10
115.492050483851
 20
232.70749128815669
 30
0.0
 40
5.0
 50
326.0822582210742
 51
27.992593786072749
  0
LINE
  5
10AB
  8
0
 10
119.8878945351633
 20
235.18892696729949
 30
0.0
 11
121.3569745735722
 21
242.24299931511101
 31
0.0
  0
ARC
  5
10AC
  8
0
 10
120.08369349148821
 20
235.1481499063203
 30
0.0
 40
0.2
 50
168.23574635819421
 51
207.99259378607269
  0
ARC
  5
10AD
  8
0
 10
122.3359693551964
 20
242.0391140102152
 30
0.0
 40
1.0
 50
90.0
 51
168.2357463581958
  0
ARC
  5
10AE
  8
0
 10
106.61562579349049
 20
237.35610712392659
 30
0.0
 40
15.0
 50
314.30416701168161
 51
330.2703294617956
  0
LINE
  5
10AF
  8
0
 10
115.92355595794049
 20
224.58154405521779
 30
0.0
 11
116.42355595794059
 21
198.53911401021509
 31
0.0
  0
LINE
  5
10B0
  8
0
 10
390.09820077138158
 20
188.53911401021509
 30
0.0
 11
390.09820077138158
 21
198.53911401021509
 31
0.0
  0
LINE
  5
10B1
  8
0
 10
374.09820077138158
 20
198.53911401021509
 30
0.0
 11
374.09820077138158
 21
188.53911401021509
 31
0.0
  0
LINE
  5
10B2
  8
0
 10
374.09820077138158
 20
188.53911401021509
 30
0.0
 11
390.09820077138158
 21
188.53911401021509
 31
0.0
  0
LINE
  5
10B3
  8
0
 10
376.63664948647568
 20
233.14205584942459
 30
0.0
 11
387.58090615630431
 21
233.14205584942459
 31
0.0
  0
LINE
  5
10B4
  8
0
 10
376.42692086081752
 20
231.18828634530701
 30
0.0
 11
387.76948068194571
 21
231.18828634530701
 31
0.0
  0
LINE
  5
10B5
  8
0
 10
388.21712950605729
 20
230.5991140102152
 30
0.0
 11
375.97927203670588
 21
230.5991140102152
 31
0.0
  0
LINE
  5
10B6
  8
0
 10
392.59820077138158
 20
198.53911401021509
 30
0.0
 11
371.59820077138158
 21
198.53911401021509
 31
0.0
  0
LINE
  5
10B7
  8
0
 10
375.89750559137627
 20
230.29587314134059
 30
0.0
 11
388.29889595138673
 21
230.29587314134059
 31
0.0
  0
LINE
  5
10B8
  8
1
 10
382.09820077138158
 20
248.03911401021529
 30
0.0
 11
382.0982007713817
 21
143.53911401021509
 31
0.0
  0
LINE
  5
10B9
  8
0
 10
386.68578737412571
 20
243.03911401021509
 30
0.0
 11
377.5106141686374
 21
243.0391140102154
 31
0.0
  0
LINE
  5
10BA
  8
0
 10
375.06253934860428
 20
235.18892696729949
 30
0.0
 11
376.53161938701322
 21
242.24299931511101
 31
0.0
  0
ARC
  5
10BB
  8
0
 10
377.5106141686374
 20
242.0391140102152
 30
0.0
 40
1.0
 50
90.0
 51
168.2357463581958
  0
LINE
  5
10BC
  8
0
 10
389.13386219415872
 20
235.18892696729949
 30
0.0
 11
387.66478215574989
 21
242.24299931511101
 31
0.0
  0
ARC
  5
10BD
  8
0
 10
386.68578737412571
 20
242.0391140102152
 30
0.0
 40
1.0
 50
11.764253641804171
 51
90.0
  0
LINE
  5
10BE
  8
0
 10
389.13806323783388
 20
235.1481499063203
 30
0.0
 11
389.13806323783399
 21
222.0850124397835
 31
0.0
  0
ARC
  5
10BF
  8
0
 10
382.1159507030211
 20
244.69793736208121
 30
0.0
 40
3.0
 50
269.66099929890152
 51
299.63458235356808
  0
LINE
  5
10C0
  8
0
 10
383.59935045140043
 20
242.0903474429206
 30
0.0
 11
385.49727093116462
 21
242.8842093665119
 31
0.0
  0
ARC
  5
10C1
  8
0
 10
386.26903716920071
 20
241.03911401021509
 30
0.0
 40
2.0
 50
90.0
 51
112.69857631690989
  0
ARC
  5
10C2
  8
0
 10
382.08045083974213
 20
244.69793736208121
 30
0.0
 40
3.0
 50
240.36541764643189
 51
270.33900070109848
  0
LINE
  5
10C3
  8
0
 10
380.5970510913628
 20
242.0903474429206
 30
0.0
 11
378.69913061159849
 21
242.8842093665119
 31
0.0
  0
ARC
  5
10C4
  8
0
 10
377.92736437356251
 20
241.03911401021509
 30
0.0
 40
2.0
 50
67.30142368309005
 51
90.0
  0
ARC
  5
10C5
  8
0
 10
382.10877782138988
 20
238.50022899679149
 30
0.0
 40
0.8
 50
41.037685178419068
 51
138.96231482158089
  0
ARC
  5
10C6
  8
0
 10
362.44424436574678
 20
216.9073817940814
 30
0.0
 40
30.0
 50
33.602711735221362
 51
47.49935354968013
  0
ARC
  5
10C7
  8
0
 10
386.59820077138158
 20
232.95687991566459
 30
0.0
 40
1.0
 50
0.0
 51
33.602711735221362
  0
LINE
  5
10C8
  8
0
 10
387.59820077138158
 20
242.44838383870001
 30
0.0
 11
387.59820077138158
 21
232.9782252516691
 31
0.0
  0
LINE
  5
10C9
  8
0
 10
387.59820077138158
 20
232.95687991566459
 30
0.0
 11
387.82653923205743
 21
230.5991140102152
 31
0.0
  0
LINE
  5
10CA
  8
0
 10
376.61935487139829
 20
242.44838383870001
 30
0.0
 11
376.61935487139829
 21
232.9782252516691
 31
0.0
  0
ARC
  5
10CB
  8
0
 10
377.61935487139829
 20
232.95687991566459
 30
0.0
 40
1.0
 50
146.39728826477861
 51
180.0
  0
LINE
  5
10CC
  8
0
 10
376.61935487139829
 20
232.95687991566459
 30
0.0
 11
376.39101641072261
 21
230.5991140102152
 31
0.0
  0
ARC
  5
10CD
  8
0
 10
401.77331127703297
 20
216.9073817940814
 30
0.0
 40
30.0
 50
132.50064645031981
 51
146.39728826477861
  0
LINE
  5
10CE
  8
0
 10
388.21712950605729
 20
230.5991140102152
 30
0.0
 11
388.29889595138673
 21
230.29587314134059
 31
0.0
  0
ARC
  5
10CF
  8
0
 10
402.25622621078088
 20
237.381278930702
 30
0.0
 40
15.0
 50
209.00892254597429
 51
229.35444282771439
  0
ARC
  5
10D0
  8
0
 10
361.94017533198212
 20
237.381278930702
 30
0.0
 40
15.0
 50
310.64555717228558
 51
330.9910774540258
  0
ARC
  5
10D1
  8
0
 10
399.51644353074443
 20
218.272865812238
 30
0.0
 40
11.0
 50
161.4773883406954
 51
211.41614743140761
  0
ARC
  5
10D2
  8
0
 10
388.13806323783399
 20
222.08501243978341
 30
0.0
 40
1.0
 50
341.47738834069543
 51
0.0
  0
ARC
  5
10D3
  8
0
 10
364.67995801201869
 20
218.272865812238
 30
0.0
 40
11.0
 50
328.58385256859248
 51
18.522611659304619
  0
LINE
  5
10D4
  8
0
 10
375.05833830492918
 20
235.1481499063203
 30
0.0
 11
375.05833830492918
 21
222.0850124397835
 31
0.0
  0
ARC
  5
10D5
  8
0
 10
376.05833830492918
 20
222.08501243978341
 30
0.0
 40
1.0
 50
179.9999999999992
 51
198.5226116593046
  0
LINE
  5
10D6
  8
0
 10
371.09820077138158
 20
224.58154405521779
 30
0.0
 11
371.59820077138158
 21
198.53911401021509
 31
0.0
  0
LINE
  5
10D7
  8
0
 10
393.09820077138158
 20
224.58154405521779
 30
0.0
 11
392.59820077138158
 21
198.53911401021509
 31
0.0
  0
LINE
  5
10F2
  8
0
 10
122.6601439068061
 20
243.03911401021509
 30
0.0
 11
122.6368371849522
 21
243.0389255612659
 31
0.0
  0
LINE
  5
10F3
  8
0
 10
122.6368371849522
 20
243.0389255612659
 30
0.0
 11
122.59064433969429
 21
243.0373906700095
 31
0.0
  0
LINE
  5
10F4
  8
0
 10
122.59064433969429
 20
243.0373906700095
 30
0.0
 11
122.5451051463188
 21
243.03425550175771
 31
0.0
  0
LINE
  5
10F5
  8
0
 10
122.5451051463188
 20
243.03425550175771
 30
0.0
 11
122.5226134685679
 21
243.03206872620649
 31
0.0
  0
LINE
  5
10F6
  8
0
 10
131.186968009075
 20
243.03911401021509
 30
0.0
 11
131.21027473092889
 21
243.0389255612659
 31
0.0
  0
LINE
  5
10F7
  8
0
 10
131.21027473092889
 20
243.0389255612659
 30
0.0
 11
131.25646757618671
 21
243.0373906700095
 31
0.0
  0
LINE
  5
10F8
  8
0
 10
131.25646757618671
 20
243.0373906700095
 30
0.0
 11
131.3020067695623
 21
243.03425550175771
 31
0.0
  0
LINE
  5
10F9
  8
0
 10
131.3020067695623
 20
243.03425550175771
 30
0.0
 11
131.32449844731329
 21
243.03206872620649
 31
0.0
  0
LINE
  5
10FA
  8
0
 10
291.65156653202939
 20
231.18828634530701
 30
0.0
 11
291.55501665088798
 21
231.15627761368469
 31
0.0
  0
LINE
  5
10FB
  8
0
 10
291.55501665088798
 20
231.15627761368469
 30
0.0
 11
291.36107063144482
 21
231.09487847678881
 31
0.0
  0
LINE
  5
10FC
  8
0
 10
291.36107063144482
 20
231.09487847678881
 30
0.0
 11
291.16604887530963
 21
231.03698696529219
 31
0.0
  0
LINE
  5
10FD
  8
0
 10
291.16604887530963
 20
231.03698696529219
 30
0.0
 11
291.06815440530988
 21
231.00936249802189
 31
0.0
  0
LINE
  5
10FE
  8
0
 10
291.06815440530988
 20
231.00936249802189
 30
0.0
 11
290.97001481426332
 21
230.98262190869229
 31
0.0
  0
LINE
  5
10FF
  8
0
 10
290.97001481426332
 20
230.98262190869229
 30
0.0
 11
290.7730322093438
 21
230.93180098949011
 31
0.0
  0
LINE
  5
1100
  8
0
 10
290.7730322093438
 20
230.93180098949011
 30
0.0
 11
290.57516513010768
 21
230.88454073743799
 31
0.0
  0
LINE
  5
1101
  8
0
 10
290.57516513010768
 20
230.88454073743799
 30
0.0
 11
290.37647793379131
 21
230.84085652416471
 31
0.0
  0
LINE
  5
1102
  8
0
 10
290.37647793379131
 20
230.84085652416471
 30
0.0
 11
290.17703524437758
 21
230.80076255817411
 31
0.0
  0
LINE
  5
1103
  8
0
 10
290.17703524437758
 20
230.80076255817411
 30
0.0
 11
289.97690193157769
 21
230.76427188022521
 31
0.0
  0
LINE
  5
1104
  8
0
 10
289.97690193157769
 20
230.76427188022521
 30
0.0
 11
289.87659662519309
 21
230.74738152914639
 31
0.0
  0
LINE
  5
1105
  8
0
 10
289.87659662519309
 20
230.74738152914639
 30
0.0
 11
289.77614308973142
 21
230.7313963590895
 31
0.0
  0
LINE
  5
1106
  8
0
 10
289.77614308973142
 20
230.7313963590895
 30
0.0
 11
289.57482401663469
 21
230.7021466876912
 31
0.0
  0
LINE
  5
1107
  8
0
 10
289.57482401663469
 20
230.7021466876912
 30
0.0
 11
289.37301019230182
 21
230.67653237962901
 31
0.0
  0
LINE
  5
1108
  8
0
 10
289.37301019230182
 20
230.67653237962901
 30
0.0
 11
289.17076725766668
 21
230.65456176608211
 31
0.0
  0
LINE
  5
1109
  8
0
 10
289.17076725766668
 20
230.65456176608211
 30
0.0
 11
288.96816099323422
 21
230.6362419931001
 31
0.0
  0
LINE
  5
110A
  8
0
 10
288.96816099323422
 20
230.6362419931001
 30
0.0
 11
288.76525729768338
 21
230.6215790192789
 31
0.0
  0
LINE
  5
110B
  8
0
 10
288.76525729768338
 20
230.6215790192789
 30
0.0
 11
288.6637145336154
 21
230.61562036893551
 31
0.0
  0
LINE
  5
110C
  8
0
 10
288.6637145336154
 20
230.61562036893551
 30
0.0
 11
288.56212216643479
 21
230.61057761382239
 31
0.0
  0
LINE
  5
110D
  8
0
 10
288.56212216643479
 20
230.61057761382239
 30
0.0
 11
288.358821670184
 21
230.6032413549917
 31
0.0
  0
LINE
  5
110E
  8
0
 10
288.358821670184
 20
230.6032413549917
 30
0.0
 11
288.15542193341292
 21
230.59957262894071
 31
0.0
  0
LINE
  5
110F
  8
0
 10
288.15542193341292
 20
230.59957262894071
 30
0.0
 11
288.05370552314707
 21
230.5991140102152
 31
0.0
  0
LINE
  5
1110
  8
0
 10
375.05833830492918
 20
222.50572333165471
 30
0.0
 11
375.1883381379908
 21
223.9106084929067
 31
0.0
  0
LINE
  5
1111
  8
0
 10
375.1883381379908
 20
223.9106084929067
 30
0.0
 11
375.46931264373018
 21
226.6911440965504
 31
0.0
  0
LINE
  5
1112
  8
0
 10
375.46931264373018
 20
226.6911440965504
 30
0.0
 11
375.75394732507311
 21
229.17039519790481
 31
0.0
  0
LINE
  5
1113
  8
0
 10
375.75394732507311
 20
229.17039519790481
 30
0.0
 11
375.89750559137627
 21
230.29587314134059
 31
0.0
  0
LINE
  5
1114
  8
0
 10
371.71084121153041
 20
225.99997459990431
 30
0.0
 11
371.69371565967788
 21
225.98159274414689
 31
0.0
  0
LINE
  5
1115
  8
0
 10
371.69371565967788
 20
225.98159274414689
 30
0.0
 11
371.609033825376
 21
225.8827715840666
 31
0.0
  0
LINE
  5
1116
  8
0
 10
371.609033825376
 20
225.8827715840666
 30
0.0
 11
371.53145604213461
 21
225.783879586956
 31
0.0
  0
LINE
  5
1117
  8
0
 10
371.53145604213461
 20
225.783879586956
 30
0.0
 11
371.4609035339538
 21
225.6850957961046
 31
0.0
  0
LINE
  5
1118
  8
0
 10
371.4609035339538
 20
225.6850957961046
 30
0.0
 11
371.39724204311722
 21
225.58655558696759
 31
0.0
  0
LINE
  5
1119
  8
0
 10
371.39724204311722
 20
225.58655558696759
 30
0.0
 11
371.3676742324709
 21
225.53694486519109
 31
0.0
  0
LINE
  5
111A
  8
0
 10
371.3676742324709
 20
225.53694486519109
 30
0.0
 11
371.33949247403888
 21
225.48687855612579
 31
0.0
  0
LINE
  5
111B
  8
0
 10
371.33949247403888
 20
225.48687855612579
 30
0.0
 11
371.28741638756401
 21
225.38543997556951
 31
0.0
  0
LINE
  5
111C
  8
0
 10
371.28741638756401
 20
225.38543997556951
 30
0.0
 11
371.24125720955527
 21
225.28236429645901
 31
0.0
  0
LINE
  5
111D
  8
0
 10
371.24125720955527
 20
225.28236429645901
 30
0.0
 11
371.20123374928028
 21
225.17777988164991
 31
0.0
  0
LINE
  5
111E
  8
0
 10
371.20123374928028
 20
225.17777988164991
 30
0.0
 11
371.16753984404107
 21
225.07181805143981
 31
0.0
  0
LINE
  5
111F
  8
0
 10
371.16753984404107
 20
225.07181805143981
 30
0.0
 11
371.14034432711162
 21
224.964612088954
 31
0.0
  0
LINE
  5
1120
  8
0
 10
371.14034432711162
 20
224.964612088954
 30
0.0
 11
371.12922945220549
 21
224.91058448957949
 31
0.0
  0
LINE
  5
1121
  8
0
 10
371.12922945220549
 20
224.91058448957949
 30
0.0
 11
371.11979131837711
 21
224.8562962010875
 31
0.0
  0
LINE
  5
1122
  8
0
 10
371.11979131837711
 20
224.8562962010875
 30
0.0
 11
371.1060009278487
 21
224.7470053495268
 31
0.0
  0
LINE
  5
1123
  8
0
 10
371.1060009278487
 20
224.7470053495268
 30
0.0
 11
371.09907002636129
 21
224.63687761770029
 31
0.0
  0
LINE
  5
1124
  8
0
 10
371.09907002636129
 20
224.63687761770029
 30
0.0
 11
371.09820077138158
 21
224.58154405521779
 31
0.0
  0
LINE
  5
1125
  8
0
 10
375.04413336675537
 20
222.29229801695641
 30
0.0
 11
375.04427672189729
 21
222.31161227929911
 31
0.0
  0
LINE
  5
1126
  8
0
 10
375.04427672189729
 20
222.31161227929911
 30
0.0
 11
375.04542965442158
 21
222.35033488401129
 31
0.0
  0
LINE
  5
1127
  8
0
 10
375.04542965442158
 20
222.35033488401129
 30
0.0
 11
375.04775062456002
 21
222.3891720776131
 31
0.0
  0
LINE
  5
1128
  8
0
 10
375.04775062456002
 20
222.3891720776131
 30
0.0
 11
375.04935381961133
 21
222.40862959078359
 31
0.0
  0
LINE
  5
1129
  8
0
 10
389.13806323783399
 20
222.50572333165471
 30
0.0
 11
389.00806340477232
 21
223.9106084929067
 31
0.0
  0
LINE
  5
112A
  8
0
 10
389.00806340477232
 20
223.9106084929067
 30
0.0
 11
388.72708889903299
 21
226.6911440965504
 31
0.0
  0
LINE
  5
112B
  8
0
 10
388.72708889903299
 20
226.6911440965504
 30
0.0
 11
388.44245421769011
 21
229.17039519790481
 31
0.0
  0
LINE
  5
112C
  8
0
 10
388.44245421769011
 20
229.17039519790481
 30
0.0
 11
388.29889595138673
 21
230.29587314134059
 31
0.0
  0
LINE
  5
112D
  8
0
 10
389.15226817600762
 20
222.29229801695641
 30
0.0
 11
389.15212482086588
 21
222.31161227929911
 31
0.0
  0
LINE
  5
112E
  8
0
 10
389.15212482086588
 20
222.31161227929911
 30
0.0
 11
389.15097188834159
 21
222.35033488401129
 31
0.0
  0
LINE
  5
112F
  8
0
 10
389.15097188834159
 20
222.35033488401129
 30
0.0
 11
389.1486509182032
 21
222.3891720776131
 31
0.0
  0
LINE
  5
1130
  8
0
 10
389.1486509182032
 20
222.3891720776131
 30
0.0
 11
389.14704772315179
 21
222.40862959078359
 31
0.0
  0
LINE
  5
1131
  8
0
 10
301.89038095782871
 20
239.10515899295629
 30
0.0
 11
301.89037841523509
 21
239.10513857979569
 31
0.0
  0
LINE
  5
1132
  8
0
 10
301.89037841523509
 20
239.10513857979569
 30
0.0
 11
301.8903580745008
 21
239.10497527462491
 31
0.0
  0
LINE
  5
1133
  8
0
 10
301.8903580745008
 20
239.10497527462491
 30
0.0
 11
301.89031739310752
 21
239.10464866488709
 31
0.0
  0
LINE
  5
1134
  8
0
 10
301.89031739310752
 20
239.10464866488709
 30
0.0
 11
301.8902894247077
 21
239.1044241211595
 31
0.0
  0
LINE
  5
1135
  8
0
 10
301.8902894247077
 20
239.1044241211595
 30
0.0
 11
301.89025637120551
 21
239.10415875179041
 31
0.0
  0
LINE
  5
1136
  8
0
 10
301.89025637120551
 20
239.10415875179041
 30
0.0
 11
301.8901750090206
 21
239.1035055371465
 31
0.0
  0
LINE
  5
1137
  8
0
 10
301.8901750090206
 20
239.1035055371465
 30
0.0
 11
301.89007330685359
 21
239.10268902337131
 31
0.0
  0
LINE
  5
1138
  8
0
 10
301.89007330685359
 20
239.10268902337131
 30
0.0
 11
301.88995126508092
 21
239.1017092134845
 31
0.0
  0
LINE
  5
1139
  8
0
 10
301.88995126508092
 20
239.1017092134845
 30
0.0
 11
301.88980888415352
 21
239.1005661111096
 31
0.0
  0
LINE
  5
113A
  8
0
 10
301.88980888415352
 20
239.1005661111096
 30
0.0
 11
301.8896461645981
 21
239.09925972047441
 31
0.0
  0
LINE
  5
113B
  8
0
 10
301.8896461645981
 20
239.09925972047441
 30
0.0
 11
301.88955717802003
 21
239.09854529354541
 31
0.0
  0
LINE
  5
113C
  8
0
 10
301.88955717802003
 20
239.09854529354541
 30
0.0
 11
301.88946310701658
 21
239.0977900464103
 31
0.0
  0
LINE
  5
113D
  8
0
 10
301.88946310701658
 20
239.0977900464103
 30
0.0
 11
301.88925971208579
 21
239.09615709435241
 31
0.0
  0
LINE
  5
113E
  8
0
 10
301.88925971208579
 20
239.09615709435241
 30
0.0
 11
301.88903598055811
 21
239.0943608703401
 31
0.0
  0
LINE
  5
113F
  8
0
 10
301.88903598055811
 20
239.0943608703401
 30
0.0
 11
301.88879191326077
 21
239.0924013810164
 31
0.0
  0
LINE
  5
1140
  8
0
 10
301.88879191326077
 20
239.0924013810164
 30
0.0
 11
301.88852751109658
 21
239.090278633628
 31
0.0
  0
LINE
  5
1141
  8
0
 10
301.88852751109658
 20
239.090278633628
 30
0.0
 11
301.88824277504341
 21
239.08799263602549
 31
0.0
  0
LINE
  5
1142
  8
0
 10
301.88824277504341
 20
239.08799263602549
 30
0.0
 11
301.88809278213461
 21
239.08678842101239
 31
0.0
  0
LINE
  5
1143
  8
0
 10
301.88809278213461
 20
239.08678842101239
 30
0.0
 11
301.88793770615422
 21
239.0855433966633
 31
0.0
  0
LINE
  5
1144
  8
0
 10
301.88793770615422
 20
239.0855433966633
 30
0.0
 11
301.88761230555713
 21
239.08293092459951
 31
0.0
  0
LINE
  5
1145
  8
0
 10
301.88761230555713
 20
239.08293092459951
 30
0.0
 11
301.88726657445579
 21
239.08015522949569
 31
0.0
  0
LINE
  5
1146
  8
0
 10
301.88726657445579
 20
239.08015522949569
 30
0.0
 11
301.88708608536263
 21
239.0787061764882
 31
0.0
  0
LINE
  5
1147
  8
0
 10
392.48556033123282
 20
225.99997459990431
 30
0.0
 11
392.50268588308518
 21
225.98159274414689
 31
0.0
  0
LINE
  5
1148
  8
0
 10
392.50268588308518
 20
225.98159274414689
 30
0.0
 11
392.58736771738722
 21
225.8827715840666
 31
0.0
  0
LINE
  5
1149
  8
0
 10
392.58736771738722
 20
225.8827715840666
 30
0.0
 11
392.66494550062851
 21
225.783879586956
 31
0.0
  0
LINE
  5
114A
  8
0
 10
392.66494550062851
 20
225.783879586956
 30
0.0
 11
392.73549800880937
 21
225.6850957961046
 31
0.0
  0
LINE
  5
114B
  8
0
 10
392.73549800880937
 20
225.6850957961046
 30
0.0
 11
392.79915949964578
 21
225.58655558696759
 31
0.0
  0
LINE
  5
114C
  8
0
 10
392.79915949964578
 20
225.58655558696759
 30
0.0
 11
392.82872731029221
 21
225.53694486519109
 31
0.0
  0
LINE
  5
114D
  8
0
 10
392.82872731029221
 20
225.53694486519109
 30
0.0
 11
392.85690906872429
 21
225.48687855612579
 31
0.0
  0
LINE
  5
114E
  8
0
 10
392.85690906872429
 20
225.48687855612579
 30
0.0
 11
392.90898515519899
 21
225.38543997556951
 31
0.0
  0
LINE
  5
114F
  8
0
 10
392.90898515519899
 20
225.38543997556951
 30
0.0
 11
392.95514433320778
 21
225.28236429645901
 31
0.0
  0
LINE
  5
1150
  8
0
 10
392.95514433320778
 20
225.28236429645901
 30
0.0
 11
392.99516779348278
 21
225.17777988164991
 31
0.0
  0
LINE
  5
1151
  8
0
 10
392.99516779348278
 20
225.17777988164991
 30
0.0
 11
393.02886169872198
 21
225.07181805143981
 31
0.0
  0
LINE
  5
1152
  8
0
 10
393.02886169872198
 20
225.07181805143981
 30
0.0
 11
393.05605721565161
 21
224.964612088954
 31
0.0
  0
LINE
  5
1153
  8
0
 10
393.05605721565161
 20
224.964612088954
 30
0.0
 11
393.06717209055762
 21
224.91058448957949
 31
0.0
  0
LINE
  5
1154
  8
0
 10
393.06717209055762
 20
224.91058448957949
 30
0.0
 11
393.07661022438612
 21
224.8562962010875
 31
0.0
  0
LINE
  5
1155
  8
0
 10
393.07661022438612
 20
224.8562962010875
 30
0.0
 11
393.09040061491459
 21
224.7470053495268
 31
0.0
  0
LINE
  5
1156
  8
0
 10
393.09040061491459
 20
224.7470053495268
 30
0.0
 11
393.09733151640182
 21
224.63687761770029
 31
0.0
  0
LINE
  5
1157
  8
0
 10
393.09733151640182
 20
224.63687761770029
 30
0.0
 11
393.09820077138158
 21
224.58154405521779
 31
0.0
  0
LINE
  5
1165
  8
0
 10
225.3903809578286
 20
148.53911401021509
 30
0.0
 11
218.39038095782871
 21
148.5391140102152
 31
0.0
  0
LINE
  5
1166
  8
0
 10
216.8903809578286
 20
188.53911401021509
 30
0.0
 11
216.8903809578286
 21
150.0391140102152
 31
0.0
  0
LINE
  5
1167
  8
3
 10
217.7023809578285
 20
184.5391140102152
 30
0.0
 11
217.70238095782869
 21
149.2271140102151
 31
0.0
  0
LINE
  5
1168
  8
3
 10
226.0783809578287
 20
184.53911401021509
 30
0.0
 11
226.0783809578287
 21
149.22711401021519
 31
0.0
  0
LINE
  5
1169
  8
0
 10
226.8903809578286
 20
188.53911401021509
 30
0.0
 11
226.8903809578286
 21
150.03911401021509
 31
0.0
  0
LINE
  5
116A
  8
0
 10
226.8903809578286
 20
150.03911401021509
 30
0.0
 11
225.3903809578286
 21
148.53911401021509
 31
0.0
  0
LINE
  5
116B
  8
0
 10
218.39038095782871
 20
148.5391140102152
 30
0.0
 11
216.8903809578286
 21
150.0391140102152
 31
0.0
  0
LINE
  5
116C
  8
0
 10
226.89038095782871
 20
184.53911401021509
 30
0.0
 11
216.89038095782871
 21
184.5391140102152
 31
0.0
  0
LINE
  5
116D
  8
3
 10
226.07838095782881
 20
184.53911401021509
 30
0.0
 11
226.89038095782871
 21
185.9455392659608
 31
0.0
  0
LINE
  5
116E
  8
3
 10
217.70238095782861
 20
184.53911401021509
 30
0.0
 11
216.89038095782871
 21
185.9455392659608
 31
0.0
  0
LINE
  5
116F
  8
0
 10
226.8903809578286
 20
150.03911401021509
 30
0.0
 11
216.8903809578286
 21
150.0391140102152
 31
0.0
  0
LINE
  5
1173
  8
3
 10
131.12155595794059
 20
184.53911401021509
 30
0.0
 11
131.1215559579407
 21
149.2271140102153
 31
0.0
  0
LINE
  5
1174
  8
0
 10
131.93355595794051
 20
188.53911401021509
 30
0.0
 11
131.9335559579406
 21
150.0391140102152
 31
0.0
  0
LINE
  5
1175
  8
0
 10
131.93355595794051
 20
150.03911401021509
 30
0.0
 11
121.9335559579405
 21
150.0391140102152
 31
0.0
  0
LINE
  5
1176
  8
0
 10
130.43355595794051
 20
148.53911401021509
 30
0.0
 11
123.4335559579405
 21
148.5391140102152
 31
0.0
  0
LINE
  5
1177
  8
0
 10
131.93355595794051
 20
150.03911401021509
 30
0.0
 11
130.43355595794051
 21
148.53911401021509
 31
0.0
  0
LINE
  5
1178
  8
0
 10
131.9335559579406
 20
184.53911401021509
 30
0.0
 11
121.9335559579405
 21
184.5391140102152
 31
0.0
  0
LINE
  5
1179
  8
3
 10
131.1215559579407
 20
184.53911401021509
 30
0.0
 11
131.9335559579406
 21
185.9455392659608
 31
0.0
  0
LINE
  5
117A
  8
3
 10
122.7455559579404
 20
184.5391140102152
 30
0.0
 11
122.7455559579406
 21
149.22711401021519
 31
0.0
  0
LINE
  5
117B
  8
0
 10
121.9335559579405
 20
188.53911401021509
 30
0.0
 11
121.9335559579405
 21
150.0391140102152
 31
0.0
  0
LINE
  5
117C
  8
0
 10
123.4335559579405
 20
148.5391140102152
 30
0.0
 11
121.9335559579405
 21
150.0391140102152
 31
0.0
  0
LINE
  5
117D
  8
3
 10
122.7455559579405
 20
184.53911401021509
 30
0.0
 11
121.9335559579406
 21
185.9455392659608
 31
0.0
  0
LINE
  5
117F
  8
3
 10
386.29620077138168
 20
184.53911401021509
 30
0.0
 11
386.29620077138179
 21
149.2271140102153
 31
0.0
  0
LINE
  5
1180
  8
3
 10
377.92020077138147
 20
184.5391140102152
 30
0.0
 11
377.92020077138147
 21
149.2271140102153
 31
0.0
  0
LINE
  5
1181
  8
0
 10
377.10820077138158
 20
188.53911401021509
 30
0.0
 11
377.10820077138192
 21
150.03911401021509
 31
0.0
  0
LINE
  5
1182
  8
0
 10
387.10820077138158
 20
188.53911401021509
 30
0.0
 11
387.10820077138152
 21
150.03911401021509
 31
0.0
  0
LINE
  5
1183
  8
0
 10
378.60820077138158
 20
148.5391140102152
 30
0.0
 11
377.10820077138158
 21
150.0391140102152
 31
0.0
  0
LINE
  5
1184
  8
0
 10
387.10820077138158
 20
150.03911401021509
 30
0.0
 11
377.10820077138158
 21
150.0391140102152
 31
0.0
  0
LINE
  5
1185
  8
0
 10
385.60820077138158
 20
148.53911401021509
 30
0.0
 11
378.60820077138158
 21
148.5391140102152
 31
0.0
  0
LINE
  5
1186
  8
0
 10
387.10820077138158
 20
150.03911401021509
 30
0.0
 11
385.60820077138158
 21
148.53911401021509
 31
0.0
  0
LINE
  5
1187
  8
0
 10
387.10820077138158
 20
184.53911401021509
 30
0.0
 11
377.10820077138158
 21
184.5391140102152
 31
0.0
  0
LINE
  5
1188
  8
3
 10
377.92020077138147
 20
184.53911401021509
 30
0.0
 11
377.10820077138158
 21
185.9455392659608
 31
0.0
  0
LINE
  5
1189
  8
3
 10
386.29620077138168
 20
184.53911401021509
 30
0.0
 11
387.10820077138158
 21
185.9455392659608
 31
0.0
  0
LINE
  5
11E1
  8
0
 10
223.2795978586947
 20
313.92937346845463
 30
0.0
 11
224.64038095782871
 21
313.92937346845463
 31
0.0
  0
LINE
  5
11E2
  8
0
 10
223.2795978586949
 20
314.97937346845458
 30
0.0
 11
224.64038095782871
 21
314.97937346845458
 31
0.0
  0
LINE
  5
11E3
  8
0
 10
219.14038095782871
 20
314.97937346845458
 30
0.0
 11
220.50116405696269
 21
314.97937346845458
 31
0.0
  0
LINE
  5
11E4
  8
0
 10
219.14038095782871
 20
313.92937346845463
 30
0.0
 11
220.50116405696281
 21
313.92937346845463
 31
0.0
  0
ARC
  5
11E5
  8
0
 10
223.72104286384069
 20
315.51130661268593
 30
0.0
 40
0.6912500000000011
 50
163.3417582272229
 51
230.3111220593475
  0
ARC
  5
11E6
  8
0
 10
223.72104286384069
 20
313.3974403242234
 30
0.0
 40
0.6912500000000003
 50
129.6888779406687
 51
196.65824177277699
  0
ARC
  5
11E7
  8
0
 10
222.6803809578287
 20
313.08605333047529
 30
0.0
 40
0.3949999999999998
 50
223.34175822722349
 51
16.658241772777039
  0
ARC
  5
11E8
  8
0
 10
221.89038095782871
 20
312.34050717999219
 30
0.0
 40
0.6912500000000003
 50
43.341758227223458
 51
136.65824177277651
  0
ARC
  5
11E9
  8
0
 10
221.10038095782869
 20
313.08605333047529
 30
0.0
 40
0.3950000000000001
 50
163.3417582272229
 51
316.65824177277648
  0
ARC
  5
11EA
  8
0
 10
220.05971905181681
 20
313.3974403242234
 30
0.0
 40
0.691250000000001
 50
343.3417582272229
 51
50.311122059331304
  0
ARC
  5
11EB
  8
0
 10
222.6803809578287
 20
315.82269360643409
 30
0.0
 40
0.3950000000000002
 50
343.3417582272229
 51
136.65824177277651
  0
ARC
  5
11EC
  8
0
 10
221.89038095782871
 20
316.56823975691708
 30
0.0
 40
0.6912499999999989
 50
223.34175822722349
 51
316.65824177277648
  0
ARC
  5
11ED
  8
0
 10
221.10038095782869
 20
315.82269360643409
 30
0.0
 40
0.3949999999999998
 50
43.341758227223458
 51
196.65824177277699
  0
ARC
  5
11EE
  8
0
 10
220.05971905181681
 20
315.51130661268593
 30
0.0
 40
0.6912500000000005
 50
309.68887794065239
 51
16.658241772777039
  0
CIRCLE
  5
11F3
  8
0
 10
221.89038095782871
 20
314.45437346845461
 30
0.0
 40
5.0
  0
ARC
  5
11FD
  8
0
 10
221.89038095782871
 20
314.45437346845461
 30
0.0
 40
2.6855911825890351
 50
11.273214125907071
 51
168.72678587409291
  0
LINE
  5
11FE
  8
0
 10
224.64038095782871
 20
314.97937346845458
 30
0.0
 11
224.64038095782871
 21
313.92937346845463
 31
0.0
  0
LINE
  5
11FF
  8
0
 10
219.14038095782871
 20
314.97937346845458
 30
0.0
 11
219.14038095782871
 21
313.92937346845463
 31
0.0
  0
ARC
  5
1200
  8
0
 10
221.89038095782871
 20
314.45437346845461
 30
0.0
 40
2.6855911825890351
 50
191.273214125907
 51
348.72678587408973
  0
LINE
  5
120A
  8
0
 10
222.6666144641332
 20
224.8758108408372
 30
0.0
 11
216.88038095782869
 21
224.87581084083709
 31
0.0
  0
ARC
  5
120B
  8
0
 10
221.88038095782861
 20
211.79911401021511
 30
0.0
 40
14.0
 50
101.0594800362036
 51
110.9248324276398
  0
LINE
  5
120C
  8
0
 10
224.34787466136501
 20
225.53911401021509
 30
0.0
 11
219.1947897752396
 21
225.5391140102152
 31
0.0
  0
LINE
  5
120D
  8
0
 10
216.88038095782869
 20
224.8758108408372
 30
0.0
 11
216.88038095782869
 21
222.49250963985651
 31
0.0
  0
LINE
  5
120F
  8
0
 10
131.92355595794061
 20
224.8758108408372
 30
0.0
 11
121.92355595794059
 21
224.8758108408372
 31
0.0
  0
ARC
  5
1210
  8
0
 10
126.92355595794059
 20
211.79911401021519
 30
0.0
 40
14.0
 50
69.075167572360144
 51
78.940519963796405
  0
LINE
  5
1211
  8
0
 10
129.60914714052959
 20
225.5391140102152
 30
0.0
 11
124.2379647753515
 21
225.5391140102152
 31
0.0
  0
LINE
  5
1212
  8
0
 10
131.92355595794061
 20
224.8758108408372
 30
0.0
 11
131.92355595794061
 21
223.44840676743189
 31
0.0
  0
ARC
  5
1213
  8
0
 10
126.92355595794059
 20
211.79911401021519
 30
0.0
 40
14.0
 50
101.0594800362036
 51
110.9248324276398
  0
LINE
  5
1214
  8
0
 10
121.92355595794059
 20
224.8758108408372
 30
0.0
 11
121.92355595794059
 21
223.26871951085801
 31
0.0
  0
TEXT
  5
1305
  8
0
 62
     3
 10
0.0
 20
0.0
 30
0.0
 40
10.0
  1
FKR10X40L-OG
  7
STANDARD1
  0
ENDSEC
  0
EOF
