  0
SECTION
  2
HEADER
  9
$ACADVER
  1
AC1009
  9
$INSBASE
 10
0.0
 20
0.0
 30
0.0
  9
$EXTMIN
 10
0.0
 20
-2.960436562073669
 30
0.0
  9
$EXTMAX
 10
403.09820077138158
 20
340.45437346845461
 30
0.0
  9
$LIMMIN
 10
0.0
 20
0.0
  9
$LIMMAX
 10
187.5
 20
135.0
  9
$ORTHOMODE
 70
     0
  9
$REGENMODE
 70
     1
  9
$FILLMODE
 70
     1
  9
$QTEXTMODE
 70
     0
  9
$MIRRTEXT
 70
     0
  9
$DRAGMODE
 70
     2
  9
$LTSCALE
 40
10.0
  9
$OSMODE
 70
    55
  9
$ATTMODE
 70
     1
  9
$TEXTSIZE
 40
4.0
  9
$TRACEWID
 40
0.05
  9
$TEXTSTYLE
  7
STANDARD
  9
$CLAYER
  8
0
  9
$CELTYPE
  6
BYLAYER
  9
$CECOLOR
 62
   256
  9
$DIMSCALE
 40
0.5
  9
$DIMASZ
 40
3.0
  9
$DIMEXO
 40
2.0
  9
$DIMDLI
 40
0.38
  9
$DIMRND
 40
0.0
  9
$DIMDLE
 40
0.0
  9
$DIMEXE
 40
2.0
  9
$DIMTP
 40
0.0
  9
$DIMTM
 40
0.0
  9
$DIMTXT
 40
3.0
  9
$DIMCEN
 40
0.0
  9
$DIMTSZ
 40
0.0
  9
$DIMTOL
 70
     0
  9
$DIMLIM
 70
     0
  9
$DIMTIH
 70
     0
  9
$DIMTOH
 70
     0
  9
$DIMSE1
 70
     0
  9
$DIMSE2
 70
     0
  9
$DIMTAD
 70
     1
  9
$DIMZIN
 70
     0
  9
$DIMBLK
  1

  9
$DIMASO
 70
     0
  9
$DIMSHO
 70
     0
  9
$DIMPOST
  1

  9
$DIMAPOST
  1

  9
$DIMALT
 70
     0
  9
$DIMALTD
 70
     2
  9
$DIMALTF
 40
25.399999999999999
  9
$DIMLFAC
 40
1.0
  9
$DIMTOFL
 70
     0
  9
$DIMTVP
 40
1.6000000000000001
  9
$DIMTIX
 70
     1
  9
$DIMSOXD
 70
     0
  9
$DIMSAH
 70
     0
  9
$DIMBLK1
  1

  9
$DIMBLK2
  1

  9
$DIMSTYLE
  2
STANDARD
  9
$DIMCLRD
 70
     0
  9
$DIMCLRE
 70
     0
  9
$DIMCLRT
 70
     0
  9
$DIMTFAC
 40
1.0
  9
$DIMGAP
 40
0.09
  9
$LUNITS
 70
     2
  9
$LUPREC
 70
     4
  9
$SKETCHINC
 40
0.1
  9
$FILLETRAD
 40
1.25
  9
$AUNITS
 70
     0
  9
$AUPREC
 70
     0
  9
$MENU
  1
E:\r13\win\SUPPORT\ACAD
  9
$ELEVATION
 40
0.0
  9
$PELEVATION
 40
0.0
  9
$THICKNESS
 40
0.0
  9
$LIMCHECK
 70
     0
  9
$BLIPMODE
 70
     0
  9
$CHAMFERA
 40
0.0
  9
$CHAMFERB
 40
0.0
  9
$SKPOLY
 70
     0
  9
$TDCREATE
 40
2449840.6143865739
  9
$TDUPDATE
 40
2456598.6556009841
  9
$TDINDWG
 40
0.2401950579
  9
$TDUSRTIMER
 40
0.2401950579
  9
$USRTIMER
 70
     1
  9
$ANGBASE
 50
0.0
  9
$ANGDIR
 70
     0
  9
$PDMODE
 70
     0
  9
$PDSIZE
 40
0.0
  9
$PLINEWID
 40
0.0
  9
$COORDS
 70
     1
  9
$SPLFRAME
 70
     0
  9
$SPLINETYPE
 70
     6
  9
$SPLINESEGS
 70
     8
  9
$ATTDIA
 70
     0
  9
$ATTREQ
 70
     1
  9
$HANDLING
 70
     1
  9
$HANDSEED
  5
1491
  9
$SURFTAB1
 70
     6
  9
$SURFTAB2
 70
     6
  9
$SURFTYPE
 70
     6
  9
$SURFU
 70
     6
  9
$SURFV
 70
     6
  9
$UCSNAME
  2

  9
$UCSORG
 10
0.0
 20
0.0
 30
0.0
  9
$UCSXDIR
 10
1.0
 20
0.0
 30
0.0
  9
$UCSYDIR
 10
0.0
 20
1.0
 30
0.0
  9
$PUCSNAME
  2

  9
$PUCSORG
 10
0.0
 20
0.0
 30
0.0
  9
$PUCSXDIR
 10
1.0
 20
0.0
 30
0.0
  9
$PUCSYDIR
 10
0.0
 20
1.0
 30
0.0
  9
$USERI1
 70
     0
  9
$USERI2
 70
     1
  9
$USERI3
 70
     1
  9
$USERI4
 70
     0
  9
$USERI5
 70
     0
  9
$USERR1
 40
0.0
  9
$USERR2
 40
0.0
  9
$USERR3
 40
0.0
  9
$USERR4
 40
0.0
  9
$USERR5
 40
0.0
  9
$WORLDVIEW
 70
     1
  9
$SHADEDGE
 70
     3
  9
$SHADEDIF
 70
    70
  9
$TILEMODE
 70
     1
  9
$MAXACTVP
 70
    16
  9
$PLIMCHECK
 70
     0
  9
$PEXTMIN
 10
1.0000000000000000E+020
 20
1.0000000000000000E+020
 30
1.0000000000000000E+020
  9
$PEXTMAX
 10
-1.0000000000000000E+020
 20
-1.0000000000000000E+020
 30
-1.0000000000000000E+020
  9
$PLIMMIN
 10
0.0
 20
0.0
  9
$PLIMMAX
 10
12.0
 20
9.0
  9
$UNITMODE
 70
     0
  9
$VISRETAIN
 70
     0
  9
$PLINEGEN
 70
     0
  9
$PSLTSCALE
 70
     0
  0
ENDSEC
  0
SECTION
  2
TABLES
  0
TABLE
  2
VPORT
 70
     1
  0
VPORT
  2
*ACTIVE
 70
     0
 10
0.0
 20
0.0
 11
1.0
 21
1.0
 12
201.549101324227
 22
220.83812437795021
 13
0.0
 23
0.0
 14
5.0
 24
5.0
 15
5.0
 25
5.0
 16
0.0
 26
0.0
 36
1.0
 17
0.0
 27
0.0
 37
0.0
 40
451.56678053927021
 41
1.7807262569832401
 42
50.0
 43
0.0
 44
0.0
 50
0.0
 51
0.0
 71
     0
 72
   100
 73
     1
 74
     0
 75
     0
 76
     0
 77
     0
 78
     0
  0
ENDTAB
  0
TABLE
  2
LTYPE
 70
     3
  0
LTYPE
  2
CONTINUOUS
 70
     0
  3
Solid Line
 72
    65
 73
     0
 40
0.0
  0
LTYPE
  2
CENTER
 70
     0
  3
____ _ ____ _ ____ _ ____ _ ____ _ ____ _ ____
 72
    65
 73
     4
 40
2.0
 49
1.25
 49
-0.25
 49
0.25
 49
-0.25
  0
LTYPE
  2
PHANTOM2
 70
     0
  3
___ _ _ ___ _ _ ___ _ _ ___ _ _
 72
    65
 73
     6
 40
1.25
 49
0.625
 49
-0.125
 49
0.125
 49
-0.125
 49
0.125
 49
-0.125
  0
ENDTAB
  0
TABLE
  2
LAYER
 70
     3
  0
LAYER
  2
0
 70
     0
 62
     7
  6
CONTINUOUS
  0
LAYER
  2
1
 70
     0
 62
     1
  6
CENTER
  0
LAYER
  2
3
 70
     0
 62
     3
  6
CONTINUOUS
  0
ENDTAB
  0
TABLE
  2
STYLE
 70
     2
  0
STYLE
  2
STANDARD
 70
     0
 40
0.0
 41
1.0
 50
0.0
 71
     0
 42
4.0
  3
TXT
  4
BIGFONT
  0
STYLE
  2
STANDARD1
 70
     0
 40
0.0
 41
1.0
 50
0.0
 71
     0
 42
3.0
  3
txt
  4

  0
ENDTAB
  0
TABLE
  2
VIEW
 70
     1
  0
VIEW
  2
ALL
 70
     0
 40
179.66152299999999
 10
141.903918
 20
89.830760999999995
 41
0.0
 11
0.0
 21
0.0
 31
1.0
 12
0.0
 22
0.0
 32
0.0
 42
0.0
 43
0.0
 44
0.0
 50
0.0
 71
     0
  0
ENDTAB
  0
TABLE
  2
UCS
 70
     0
  0
ENDTAB
  0
TABLE
  2
APPID
 70
     4
  0
APPID
  2
ACAD
 70
     0
  0
APPID
  2
DCO15
 70
     0
  0
APPID
  2
ACAD_MLEADERVER
 70
     0
  0
APPID
  2
ACAD_NAV_VCDISPLAY
 70
     0
  0
ENDTAB
  0
TABLE
  2
DIMSTYLE
 70
     1
  0
DIMSTYLE
  2
STANDARD
 70
     0
  3

  4

  5

  6

  7

 40
1.0
 41
0.18
 42
0.0625
 43
0.38
 44
0.18
 45
0.0
 46
0.0
 47
0.0
 48
0.0
140
0.18
141
0.09
142
0.0
143
25.399999999999999
144
1.0
145
0.0
146
1.0
147
0.09
 71
     0
 72
     0
 73
     1
 74
     1
 75
     0
 76
     0
 77
     0
 78
     0
170
     0
171
     2
172
     0
173
     0
174
     0
175
     0
176
     0
177
     0
178
     0
  0
ENDTAB
  0
ENDSEC
  0
SECTION
  2
BLOCKS
  0
BLOCK
  8
0
  2
$MODEL_SPACE
 70
     0
 10
0.0
 20
0.0
 30
0.0
  3
$MODEL_SPACE
  1

  0
ENDBLK
  5
1BD
  8
0
  0
BLOCK
 67
     1
  8
0
  2
$PAPER_SPACE
 70
     0
 10
0.0
 20
0.0
 30
0.0
  3
$PAPER_SPACE
  1

  0
ENDBLK
  5
1BB
 67
     1
  8
0
  0
ENDSEC
  0
SECTION
  2
ENTITIES
  0
LINE
  5
104A
  8
0
 10
221.38038095782869
 20
227.15802084652171
 30
0.0
 11
221.38038095782869
 21
208.5391140102152
 31
0.0
  0
LINE
  5
104B
  8
0
 10
242.38038095782869
 20
208.5391140102152
 30
0.0
 11
242.38038095782869
 21
222.53911401021509
 31
0.0
  0
LINE
  5
104C
  8
0
 10
298.26331356166111
 20
240.5991140102152
 30
0.0
 11
288.22486311217239
 21
240.5991140102152
 31
0.0
  0
LINE
  5
104D
  8
0
 10
306.64992728769408
 20
242.87042058549901
 30
0.0
 11
301.65156653203059
 21
241.18828634530749
 31
0.0
  0
LINE
  5
104E
  8
0
 10
242.38038095782869
 20
208.5391140102152
 30
0.0
 11
221.38038095782869
 21
208.5391140102152
 31
0.0
  0
LINE
  5
104F
  8
1
 10
231.88038095782869
 20
240.53911401021509
 30
0.0
 11
231.88038095782861
 21
143.53911401021509
 31
0.0
  0
LINE
  5
1051
  8
0
 10
239.89038095782871
 20
198.53911401021509
 30
0.0
 11
239.89038095782871
 21
208.5391140102152
 31
0.0
  0
LINE
  5
1052
  8
0
 10
223.89038095782871
 20
208.5391140102152
 30
0.0
 11
223.89038095782871
 21
198.53911401021509
 31
0.0
  0
LINE
  5
1054
  8
0
 10
223.89038095782871
 20
198.53911401021509
 30
0.0
 11
239.89038095782871
 21
198.53911401021509
 31
0.0
  0
ARC
  5
1062
  8
0
 10
332.59613456847961
 20
-15.95100393723839
 30
0.0
 40
270.0
 50
94.957086921350097
 51
113.6996745048306
  0
LINE
  5
1063
  8
0
 10
309.26554420700211
 20
253.03911401021509
 30
0.0
 11
309.89038095782871
 21
253.03911401021509
 31
0.0
  0
LINE
  5
1064
  8
0
 10
311.89038095782871
 20
251.03911401021509
 30
0.0
 11
311.89038095782871
 21
249.00422616844119
 31
0.0
  0
ARC
  5
1065
  8
0
 10
309.89038095782871
 20
251.03911401021509
 30
0.0
 40
2.0
 50
0.0
 51
90.0
  0
ARC
  5
1066
  8
0
 10
225.88038095782869
 20
227.15802084652171
 30
0.0
 40
4.5
 50
113.6996745048306
 51
180.0
  0
ARC
  5
1067
  8
0
 10
359.17803782013669
 20
-4.1208204943251303
 30
0.0
 40
255.0
 50
106.4878909565075
 51
117.2600616186912
  0
ARC
  5
1068
  8
0
 10
288.22486311217239
 20
235.5991140102152
 30
0.0
 40
5.0
 50
90.0
 51
106.48789095650569
  0
ARC
  5
1069
  8
0
 10
304.46286976045252
 20
250.0444556685284
 30
0.0
 40
7.5
 50
286.95422943661129
 51
352.02753029962417
  0
LINE
  5
106A
  8
0
 10
221.38038095782869
 20
321.2078522533692
 30
0.0
 11
221.38038095782869
 21
327.70089468354013
 31
0.0
  0
CIRCLE
  5
1078
  8
0
 10
232.84196971627961
 20
324.45437346845461
 30
0.0
 40
6.5992762682978654
  0
LINE
  5
1079
  8
1
 10
231.89038095782871
 20
340.45437346845461
 30
0.0
 11
231.89038095782871
 21
308.45437346845461
 31
0.0
  0
LINE
  5
107A
  8
1
 10
316.89038095782871
 20
324.45437346845461
 30
0.0
 11
216.38038095782869
 21
324.45437346845461
 31
0.0
  0
ARC
  5
107B
  8
0
 10
231.89038095782871
 20
324.45437346845461
 30
0.0
 40
11.0
 50
197.16583016485521
 51
297.66428518543768
  0
ARC
  5
107C
  8
0
 10
306.39038095782871
 20
324.45437346845461
 30
0.0
 40
5.5
 50
270.0
 51
90.0
  0
ARC
  5
107D
  8
0
 10
254.95944424969551
 20
380.859198276835
 30
0.0
 40
50.0
 50
248.9466271382876
 51
278.79596523459998
  0
LINE
  5
107E
  8
0
 10
306.39038095782871
 20
329.95437346845461
 30
0.0
 11
263.55044000325307
 21
331.50278212006231
 31
0.0
  0
ARC
  5
107F
  8
0
 10
263.36983772033301
 20
326.50604490309718
 30
0.0
 40
5.0
 50
87.929999999999524
 51
98.795965234600004
  0
LINE
  5
1080
  8
0
 10
306.39038095782871
 20
318.95437346845461
 30
0.0
 11
263.55044000325307
 21
317.40596481684702
 31
0.0
  0
ARC
  5
1081
  8
0
 10
254.95944424969551
 20
268.04954866007432
 30
0.0
 40
50.0
 50
81.204034765399996
 51
111.0533728617124
  0
ARC
  5
1082
  8
0
 10
263.36983772033301
 20
322.40270203381198
 30
0.0
 40
5.0
 50
261.20403476540002
 51
272.0700000000005
  0
ARC
  5
1083
  8
0
 10
231.89038095782871
 20
324.45437346845461
 30
0.0
 40
11.0
 50
62.335714814562287
 51
162.83416983514471
  0
LINE
  5
1084
  8
0
 10
306.39038095782871
 20
81.804376337580166
 30
0.0
 11
263.55044000325307
 21
83.352784989187853
 31
0.0
  0
LINE
  5
1085
  8
0
 10
306.39038095782871
 20
70.804376337580152
 30
0.0
 11
263.55044000325307
 21
69.255967685972564
 31
0.0
  0
LINE
  5
1086
  8
1
 10
316.89038095782871
 20
76.304376337580152
 30
0.0
 11
216.38038095782869
 21
76.304376337580152
 31
0.0
  0
ARC
  5
1087
  8
0
 10
254.95944424969551
 20
132.70920114596049
 30
0.0
 40
50.0
 50
248.9466271382876
 51
278.79596523459998
  0
ARC
  5
1088
  8
0
 10
254.95944424969551
 20
19.899551529199869
 30
0.0
 40
50.0
 50
81.204034765399996
 51
111.0533728617124
  0
LINE
  5
1089
  8
1
 10
231.89038095782871
 20
92.304376337580152
 30
0.0
 11
231.89038095782871
 21
60.304376337580152
 31
0.0
  0
ARC
  5
108A
  8
0
 10
231.89038095782871
 20
76.304376337580152
 30
0.0
 40
11.0
 50
62.335714814562287
 51
162.83416983514471
  0
ARC
  5
108B
  8
0
 10
231.89038095782871
 20
76.304376337580152
 30
0.0
 40
11.0
 50
197.16583016485521
 51
297.66428518543768
  0
LINE
  5
108C
  8
0
 10
221.38038095782869
 20
73.057855122494743
 30
0.0
 11
221.38038095782869
 21
79.550897552665617
 31
0.0
  0
ARC
  5
108D
  8
0
 10
263.36983772033301
 20
74.25270490293758
 30
0.0
 40
5.0
 50
261.20403476540002
 51
272.0700000000005
  0
ARC
  5
108E
  8
0
 10
263.36983772033301
 20
78.356047772222723
 30
0.0
 40
5.0
 50
87.929999999999524
 51
98.795965234600004
  0
ARC
  5
108F
  8
0
 10
306.39038095782871
 20
76.304376337580152
 30
0.0
 40
5.5
 50
270.0
 51
90.0
  0
CIRCLE
  5
1090
  8
0
 10
231.89038095782871
 20
76.304376337580152
 30
0.0
 40
8.0
  0
CIRCLE
  5
1091
  8
0
 10
231.89038095782871
 20
76.304376337580152
 30
0.0
 40
10.5
  0
CIRCLE
  5
1092
  8
3
 10
231.89038095782871
 20
76.304376337580152
 30
0.0
 40
4.0
  0
CIRCLE
  5
1093
  8
0
 10
231.89038095782871
 20
76.304376337580152
 30
0.0
 40
5.0
  0
LINE
  5
1096
  8
0
 10
144.92355595794061
 20
198.53911401021509
 30
0.0
 11
144.92355595794061
 21
208.5391140102152
 31
0.0
  0
LINE
  5
1097
  8
0
 10
128.92355595794061
 20
208.5391140102152
 30
0.0
 11
128.92355595794061
 21
198.53911401021509
 31
0.0
  0
LINE
  5
1099
  8
0
 10
131.62355595794051
 20
231.2891140102152
 30
0.0
 11
142.2235559579405
 21
231.2891140102152
 31
0.0
  0
LINE
  5
109A
  8
0
 10
128.92355595794061
 20
198.53911401021509
 30
0.0
 11
144.92355595794061
 21
198.53911401021509
 31
0.0
  0
LINE
  5
109B
  8
1
 10
136.92355595794061
 20
258.03911401021509
 30
0.0
 11
136.92355595794061
 21
143.53911401021509
 31
0.0
  0
LINE
  5
109C
  8
0
 10
141.5111425606847
 20
253.03911401021509
 30
0.0
 11
132.3359693551964
 21
253.03911401021509
 31
0.0
  0
LINE
  5
109D
  8
0
 10
147.42355595794061
 20
208.5391140102152
 30
0.0
 11
126.42355595794059
 21
208.5391140102152
 31
0.0
  0
LINE
  5
109E
  8
0
 10
131.62355595794051
 20
231.2891140102152
 30
0.0
 11
142.2235559579405
 21
231.2891140102152
 31
0.0
  0
POLYLINE
  5
109F
  8
0
 10
130.36160671722348
 20
234.83842350192086
 30
0.0
 66
     1
 70
     8
  0
VERTEX
  8
0
  5
138D
 10
130.362
 20
234.838
 30
0.000000
  70
    32
  0
VERTEX
  8
0
  5
138E
 10
130.372
 20
234.716
 30
0.000000
  70
    32
  0
VERTEX
  8
0
  5
138F
 10
130.398
 20
234.594
 30
0.000000
  70
    32
  0
VERTEX
  8
0
  5
1390
 10
130.440
 20
234.474
 30
0.000000
  70
    32
  0
VERTEX
  8
0
  5
1391
 10
130.498
 20
234.354
 30
0.000000
  70
    32
  0
VERTEX
  8
0
  5
1392
 10
130.571
 20
234.236
 30
0.000000
  70
    32
  0
VERTEX
  8
0
  5
1393
 10
130.659
 20
234.120
 30
0.000000
  70
    32
  0
VERTEX
  8
0
  5
1394
 10
130.763
 20
234.005
 30
0.000000
  70
    32
  0
VERTEX
  8
0
  5
1395
 10
130.881
 20
233.893
 30
0.000000
  70
    32
  0
VERTEX
  8
0
  5
1396
 10
131.014
 20
233.784
 30
0.000000
  70
    32
  0
VERTEX
  8
0
  5
1397
 10
131.161
 20
233.678
 30
0.000000
  70
    32
  0
VERTEX
  8
0
  5
1398
 10
131.322
 20
233.574
 30
0.000000
  70
    32
  0
VERTEX
  8
0
  5
1399
 10
131.497
 20
233.474
 30
0.000000
  70
    32
  0
VERTEX
  8
0
  5
139A
 10
131.684
 20
233.378
 30
0.000000
  70
    32
  0
VERTEX
  8
0
  5
139B
 10
131.884
 20
233.286
 30
0.000000
  70
    32
  0
VERTEX
  8
0
  5
139C
 10
132.097
 20
233.197
 30
0.000000
  70
    32
  0
VERTEX
  8
0
  5
139D
 10
132.321
 20
233.113
 30
0.000000
  70
    32
  0
VERTEX
  8
0
  5
139E
 10
132.556
 20
233.034
 30
0.000000
  70
    32
  0
VERTEX
  8
0
  5
139F
 10
132.801
 20
232.959
 30
0.000000
  70
    32
  0
VERTEX
  8
0
  5
13A0
 10
133.057
 20
232.889
 30
0.000000
  70
    32
  0
VERTEX
  8
0
  5
13A1
 10
133.322
 20
232.824
 30
0.000000
  70
    32
  0
VERTEX
  8
0
  5
13A2
 10
133.595
 20
232.764
 30
0.000000
  70
    32
  0
VERTEX
  8
0
  5
13A3
 10
133.877
 20
232.709
 30
0.000000
  70
    32
  0
VERTEX
  8
0
  5
13A4
 10
134.165
 20
232.660
 30
0.000000
  70
    32
  0
VERTEX
  8
0
  5
13A5
 10
134.461
 20
232.617
 30
0.000000
  70
    32
  0
VERTEX
  8
0
  5
13A6
 10
134.762
 20
232.579
 30
0.000000
  70
    32
  0
VERTEX
  8
0
  5
13A7
 10
135.069
 20
232.547
 30
0.000000
  70
    32
  0
VERTEX
  8
0
  5
13A8
 10
135.380
 20
232.521
 30
0.000000
  70
    32
  0
VERTEX
  8
0
  5
13A9
 10
135.695
 20
232.501
 30
0.000000
  70
    32
  0
VERTEX
  8
0
  5
13AA
 10
136.013
 20
232.486
 30
0.000000
  70
    32
  0
VERTEX
  8
0
  5
13AB
 10
136.333
 20
232.478
 30
0.000000
  70
    32
  0
VERTEX
  8
0
  5
13AC
 10
136.654
 20
232.476
 30
0.000000
  70
    32
  0
VERTEX
  8
0
  5
13AD
 10
136.976
 20
232.479
 30
0.000000
  70
    32
  0
VERTEX
  8
0
  5
13AE
 10
137.298
 20
232.489
 30
0.000000
  70
    32
  0
VERTEX
  8
0
  5
13AF
 10
137.619
 20
232.505
 30
0.000000
  70
    32
  0
VERTEX
  8
0
  5
13B0
 10
137.938
 20
232.527
 30
0.000000
  70
    32
  0
VERTEX
  8
0
  5
13B1
 10
138.255
 20
232.554
 30
0.000000
  70
    32
  0
VERTEX
  8
0
  5
13B2
 10
138.569
 20
232.588
 30
0.000000
  70
    32
  0
VERTEX
  8
0
  5
13B3
 10
138.879
 20
232.627
 30
0.000000
  70
    32
  0
VERTEX
  8
0
  5
13B4
 10
139.184
 20
232.672
 30
0.000000
  70
    32
  0
VERTEX
  8
0
  5
13B5
 10
139.483
 20
232.722
 30
0.000000
  70
    32
  0
VERTEX
  8
0
  5
13B6
 10
139.777
 20
232.778
 30
0.000000
  70
    32
  0
VERTEX
  8
0
  5
13B7
 10
140.063
 20
232.839
 30
0.000000
  70
    32
  0
VERTEX
  8
0
  5
13B8
 10
140.342
 20
232.906
 30
0.000000
  70
    32
  0
VERTEX
  8
0
  5
13B9
 10
140.613
 20
232.977
 30
0.000000
  70
    32
  0
VERTEX
  8
0
  5
13BA
 10
140.875
 20
233.053
 30
0.000000
  70
    32
  0
VERTEX
  8
0
  5
13BB
 10
141.127
 20
233.134
 30
0.000000
  70
    32
  0
VERTEX
  8
0
  5
13BC
 10
141.369
 20
233.219
 30
0.000000
  70
    32
  0
VERTEX
  8
0
  5
13BD
 10
141.601
 20
233.308
 30
0.000000
  70
    32
  0
VERTEX
  8
0
  5
13BE
 10
141.821
 20
233.402
 30
0.000000
  70
    32
  0
VERTEX
  8
0
  5
13BF
 10
142.029
 20
233.499
 30
0.000000
  70
    32
  0
VERTEX
  8
0
  5
13C0
 10
142.225
 20
233.600
 30
0.000000
  70
    32
  0
VERTEX
  8
0
  5
13C1
 10
142.409
 20
233.704
 30
0.000000
  70
    32
  0
VERTEX
  8
0
  5
13C2
 10
142.579
 20
233.811
 30
0.000000
  70
    32
  0
VERTEX
  8
0
  5
13C3
 10
142.735
 20
233.921
 30
0.000000
  70
    32
  0
VERTEX
  8
0
  5
13C4
 10
142.878
 20
234.033
 30
0.000000
  70
    32
  0
VERTEX
  8
0
  5
13C5
 10
143.006
 20
234.148
 30
0.000000
  70
    32
  0
VERTEX
  8
0
  5
13C6
 10
143.120
 20
234.265
 30
0.000000
  70
    32
  0
VERTEX
  8
0
  5
13C7
 10
143.218
 20
234.383
 30
0.000000
  70
    32
  0
VERTEX
  8
0
  5
13C8
 10
143.302
 20
234.503
 30
0.000000
  70
    32
  0
VERTEX
  8
0
  5
13C9
 10
143.370
 20
234.624
 30
0.000000
  70
    32
  0
VERTEX
  8
0
  5
13CA
 10
143.422
 20
234.746
 30
0.000000
  70
    32
  0
VERTEX
  8
0
  5
13CB
 10
143.459
 20
234.869
 30
0.000000
  70
    32
  0
VERTEX
  8
0
  5
13CC
 10
143.480
 20
234.992
 30
0.000000
  70
    32
  0
VERTEX
  8
0
  5
13CD
 10
143.486
 20
235.114
 30
0.000000
  70
    32
  0
VERTEX
  8
0
  5
13CE
 10
143.475
 20
235.237
 30
0.000000
  70
    32
  0
VERTEX
  8
0
  5
13CF
 10
143.449
 20
235.358
 30
0.000000
  70
    32
  0
VERTEX
  8
0
  5
13D0
 10
143.407
 20
235.479
 30
0.000000
  70
    32
  0
VERTEX
  8
0
  5
13D1
 10
143.349
 20
235.599
 30
0.000000
  70
    32
  0
VERTEX
  8
0
  5
13D2
 10
143.276
 20
235.717
 30
0.000000
  70
    32
  0
VERTEX
  8
0
  5
13D3
 10
143.188
 20
235.833
 30
0.000000
  70
    32
  0
VERTEX
  8
0
  5
13D4
 10
143.084
 20
235.947
 30
0.000000
  70
    32
  0
VERTEX
  8
0
  5
13D5
 10
142.966
 20
236.059
 30
0.000000
  70
    32
  0
VERTEX
  8
0
  5
13D6
 10
142.833
 20
236.168
 30
0.000000
  70
    32
  0
VERTEX
  8
0
  5
13D7
 10
142.686
 20
236.275
 30
0.000000
  70
    32
  0
VERTEX
  8
0
  5
13D8
 10
142.525
 20
236.378
 30
0.000000
  70
    32
  0
VERTEX
  8
0
  5
13D9
 10
142.350
 20
236.478
 30
0.000000
  70
    32
  0
VERTEX
  8
0
  5
13DA
 10
142.163
 20
236.574
 30
0.000000
  70
    32
  0
VERTEX
  8
0
  5
13DB
 10
141.963
 20
236.667
 30
0.000000
  70
    32
  0
VERTEX
  8
0
  5
13DC
 10
141.750
 20
236.755
 30
0.000000
  70
    32
  0
VERTEX
  8
0
  5
13DD
 10
141.526
 20
236.839
 30
0.000000
  70
    32
  0
VERTEX
  8
0
  5
13DE
 10
141.291
 20
236.919
 30
0.000000
  70
    32
  0
VERTEX
  8
0
  5
13DF
 10
141.046
 20
236.994
 30
0.000000
  70
    32
  0
VERTEX
  8
0
  5
13E0
 10
140.790
 20
237.064
 30
0.000000
  70
    32
  0
VERTEX
  8
0
  5
13E1
 10
140.526
 20
237.129
 30
0.000000
  70
    32
  0
VERTEX
  8
0
  5
13E2
 10
140.252
 20
237.189
 30
0.000000
  70
    32
  0
VERTEX
  8
0
  5
13E3
 10
139.971
 20
237.243
 30
0.000000
  70
    32
  0
VERTEX
  8
0
  5
13E4
 10
139.682
 20
237.292
 30
0.000000
  70
    32
  0
VERTEX
  8
0
  5
13E5
 10
139.386
 20
237.336
 30
0.000000
  70
    32
  0
VERTEX
  8
0
  5
13E6
 10
139.085
 20
237.374
 30
0.000000
  70
    32
  0
VERTEX
  8
0
  5
13E7
 10
138.778
 20
237.406
 30
0.000000
  70
    32
  0
VERTEX
  8
0
  5
13E8
 10
138.467
 20
237.432
 30
0.000000
  70
    32
  0
VERTEX
  8
0
  5
13E9
 10
138.152
 20
237.452
 30
0.000000
  70
    32
  0
VERTEX
  8
0
  5
13EA
 10
137.834
 20
237.466
 30
0.000000
  70
    32
  0
VERTEX
  8
0
  5
13EB
 10
137.515
 20
237.475
 30
0.000000
  70
    32
  0
VERTEX
  8
0
  5
13EC
 10
137.193
 20
237.477
 30
0.000000
  70
    32
  0
VERTEX
  8
0
  5
13ED
 10
136.871
 20
237.473
 30
0.000000
  70
    32
  0
VERTEX
  8
0
  5
13EE
 10
136.549
 20
237.463
 30
0.000000
  70
    32
  0
VERTEX
  8
0
  5
13EF
 10
136.228
 20
237.448
 30
0.000000
  70
    32
  0
VERTEX
  8
0
  5
13F0
 10
135.909
 20
237.426
 30
0.000000
  70
    32
  0
VERTEX
  8
0
  5
13F1
 10
135.592
 20
237.398
 30
0.000000
  70
    32
  0
VERTEX
  8
0
  5
13F2
 10
135.278
 20
237.365
 30
0.000000
  70
    32
  0
VERTEX
  8
0
  5
13F3
 10
134.969
 20
237.326
 30
0.000000
  70
    32
  0
VERTEX
  8
0
  5
13F4
 10
134.664
 20
237.281
 30
0.000000
  70
    32
  0
VERTEX
  8
0
  5
13F5
 10
134.364
 20
237.230
 30
0.000000
  70
    32
  0
VERTEX
  8
0
  5
13F6
 10
134.071
 20
237.174
 30
0.000000
  70
    32
  0
VERTEX
  8
0
  5
13F7
 10
133.784
 20
237.113
 30
0.000000
  70
    32
  0
VERTEX
  8
0
  5
13F8
 10
133.505
 20
237.047
 30
0.000000
  70
    32
  0
VERTEX
  8
0
  5
13F9
 10
133.234
 20
236.976
 30
0.000000
  70
    32
  0
VERTEX
  8
0
  5
13FA
 10
132.972
 20
236.900
 30
0.000000
  70
    32
  0
VERTEX
  8
0
  5
13FB
 10
132.720
 20
236.819
 30
0.000000
  70
    32
  0
VERTEX
  8
0
  5
13FC
 10
132.478
 20
236.734
 30
0.000000
  70
    32
  0
VERTEX
  8
0
  5
13FD
 10
132.246
 20
236.644
 30
0.000000
  70
    32
  0
VERTEX
  8
0
  5
13FE
 10
132.026
 20
236.551
 30
0.000000
  70
    32
  0
VERTEX
  8
0
  5
13FF
 10
131.818
 20
236.454
 30
0.000000
  70
    32
  0
VERTEX
  8
0
  5
1400
 10
131.622
 20
236.353
 30
0.000000
  70
    32
  0
VERTEX
  8
0
  5
1401
 10
131.438
 20
236.249
 30
0.000000
  70
    32
  0
VERTEX
  8
0
  5
1402
 10
131.268
 20
236.142
 30
0.000000
  70
    32
  0
VERTEX
  8
0
  5
1403
 10
131.112
 20
236.032
 30
0.000000
  70
    32
  0
VERTEX
  8
0
  5
1404
 10
130.969
 20
235.919
 30
0.000000
  70
    32
  0
VERTEX
  8
0
  5
1405
 10
130.841
 20
235.804
 30
0.000000
  70
    32
  0
VERTEX
  8
0
  5
1406
 10
130.728
 20
235.688
 30
0.000000
  70
    32
  0
VERTEX
  8
0
  5
1407
 10
130.629
 20
235.569
 30
0.000000
  70
    32
  0
VERTEX
  8
0
  5
1408
 10
130.546
 20
235.449
 30
0.000000
  70
    32
  0
VERTEX
  8
0
  5
1409
 10
130.477
 20
235.328
 30
0.000000
  70
    32
  0
VERTEX
  8
0
  5
140A
 10
130.425
 20
235.206
 30
0.000000
  70
    32
  0
VERTEX
  8
0
  5
140B
 10
130.388
 20
235.084
 30
0.000000
  70
    32
  0
VERTEX
  8
0
  5
140C
 10
130.367
 20
234.961
 30
0.000000
  70
    32
  0
VERTEX
  8
0
  5
140D
 10
130.362
 20
234.838
 30
0.000000
  70
    32
  0
SEQEND
  8
0
  5
140E
  0
LINE
  5
10A0
  8
0
 10
144.08587445006609
 20
231.2785127920092
 30
0.0
 11
129.76123746581499
 21
231.2785127920092
 31
0.0
  0
POLYLINE
  5
10A1
  8
0
 10
144.08587445006614
 20
231.27851279200914
 30
0.0
 66
     1
 70
     8
  0
VERTEX
  8
0
  5
140F
 10
144.086
 20
231.279
 30
0.000000
  70
    32
  0
VERTEX
  8
0
  5
1410
 10
144.398
 20
231.390
 30
0.000000
  70
    32
  0
VERTEX
  8
0
  5
1411
 10
144.699
 20
231.507
 30
0.000000
  70
    32
  0
VERTEX
  8
0
  5
1412
 10
144.989
 20
231.628
 30
0.000000
  70
    32
  0
VERTEX
  8
0
  5
1413
 10
145.267
 20
231.754
 30
0.000000
  70
    32
  0
VERTEX
  8
0
  5
1414
 10
145.534
 20
231.883
 30
0.000000
  70
    32
  0
VERTEX
  8
0
  5
1415
 10
145.788
 20
232.017
 30
0.000000
  70
    32
  0
VERTEX
  8
0
  5
1416
 10
146.029
 20
232.154
 30
0.000000
  70
    32
  0
VERTEX
  8
0
  5
1417
 10
146.257
 20
232.295
 30
0.000000
  70
    32
  0
VERTEX
  8
0
  5
1418
 10
146.471
 20
232.440
 30
0.000000
  70
    32
  0
VERTEX
  8
0
  5
1419
 10
146.672
 20
232.587
 30
0.000000
  70
    32
  0
VERTEX
  8
0
  5
141A
 10
146.858
 20
232.738
 30
0.000000
  70
    32
  0
VERTEX
  8
0
  5
141B
 10
147.030
 20
232.891
 30
0.000000
  70
    32
  0
VERTEX
  8
0
  5
141C
 10
147.188
 20
233.047
 30
0.000000
  70
    32
  0
VERTEX
  8
0
  5
141D
 10
147.331
 20
233.205
 30
0.000000
  70
    32
  0
VERTEX
  8
0
  5
141E
 10
147.458
 20
233.365
 30
0.000000
  70
    32
  0
VERTEX
  8
0
  5
141F
 10
147.571
 20
233.527
 30
0.000000
  70
    32
  0
VERTEX
  8
0
  5
1420
 10
147.668
 20
233.690
 30
0.000000
  70
    32
  0
VERTEX
  8
0
  5
1421
 10
147.750
 20
233.855
 30
0.000000
  70
    32
  0
VERTEX
  8
0
  5
1422
 10
147.816
 20
234.021
 30
0.000000
  70
    32
  0
VERTEX
  8
0
  5
1423
 10
147.866
 20
234.188
 30
0.000000
  70
    32
  0
VERTEX
  8
0
  5
1424
 10
147.901
 20
234.356
 30
0.000000
  70
    32
  0
VERTEX
  8
0
  5
1425
 10
147.919
 20
234.524
 30
0.000000
  70
    32
  0
VERTEX
  8
0
  5
1426
 10
147.922
 20
234.692
 30
0.000000
  70
    32
  0
VERTEX
  8
0
  5
1427
 10
147.909
 20
234.860
 30
0.000000
  70
    32
  0
VERTEX
  8
0
  5
1428
 10
147.880
 20
235.028
 30
0.000000
  70
    32
  0
VERTEX
  8
0
  5
1429
 10
147.835
 20
235.195
 30
0.000000
  70
    32
  0
VERTEX
  8
0
  5
142A
 10
147.774
 20
235.362
 30
0.000000
  70
    32
  0
VERTEX
  8
0
  5
142B
 10
147.698
 20
235.527
 30
0.000000
  70
    32
  0
VERTEX
  8
0
  5
142C
 10
147.606
 20
235.691
 30
0.000000
  70
    32
  0
VERTEX
  8
0
  5
142D
 10
147.499
 20
235.854
 30
0.000000
  70
    32
  0
VERTEX
  8
0
  5
142E
 10
147.376
 20
236.014
 30
0.000000
  70
    32
  0
VERTEX
  8
0
  5
142F
 10
147.239
 20
236.173
 30
0.000000
  70
    32
  0
VERTEX
  8
0
  5
1430
 10
147.086
 20
236.330
 30
0.000000
  70
    32
  0
VERTEX
  8
0
  5
1431
 10
146.919
 20
236.484
 30
0.000000
  70
    32
  0
VERTEX
  8
0
  5
1432
 10
146.737
 20
236.635
 30
0.000000
  70
    32
  0
VERTEX
  8
0
  5
1433
 10
146.541
 20
236.784
 30
0.000000
  70
    32
  0
VERTEX
  8
0
  5
1434
 10
146.331
 20
236.929
 30
0.000000
  70
    32
  0
VERTEX
  8
0
  5
1435
 10
146.108
 20
237.072
 30
0.000000
  70
    32
  0
VERTEX
  8
0
  5
1436
 10
145.872
 20
237.210
 30
0.000000
  70
    32
  0
VERTEX
  8
0
  5
1437
 10
145.622
 20
237.345
 30
0.000000
  70
    32
  0
VERTEX
  8
0
  5
1438
 10
145.360
 20
237.476
 30
0.000000
  70
    32
  0
VERTEX
  8
0
  5
1439
 10
145.086
 20
237.603
 30
0.000000
  70
    32
  0
VERTEX
  8
0
  5
143A
 10
144.800
 20
237.726
 30
0.000000
  70
    32
  0
VERTEX
  8
0
  5
143B
 10
144.502
 20
237.844
 30
0.000000
  70
    32
  0
VERTEX
  8
0
  5
143C
 10
144.194
 20
237.957
 30
0.000000
  70
    32
  0
VERTEX
  8
0
  5
143D
 10
143.875
 20
238.066
 30
0.000000
  70
    32
  0
VERTEX
  8
0
  5
143E
 10
143.546
 20
238.170
 30
0.000000
  70
    32
  0
VERTEX
  8
0
  5
143F
 10
143.208
 20
238.269
 30
0.000000
  70
    32
  0
VERTEX
  8
0
  5
1440
 10
142.860
 20
238.362
 30
0.000000
  70
    32
  0
VERTEX
  8
0
  5
1441
 10
142.504
 20
238.450
 30
0.000000
  70
    32
  0
VERTEX
  8
0
  5
1442
 10
142.140
 20
238.533
 30
0.000000
  70
    32
  0
VERTEX
  8
0
  5
1443
 10
141.768
 20
238.610
 30
0.000000
  70
    32
  0
VERTEX
  8
0
  5
1444
 10
141.389
 20
238.681
 30
0.000000
  70
    32
  0
VERTEX
  8
0
  5
1445
 10
141.004
 20
238.746
 30
0.000000
  70
    32
  0
VERTEX
  8
0
  5
1446
 10
140.613
 20
238.806
 30
0.000000
  70
    32
  0
VERTEX
  8
0
  5
1447
 10
140.217
 20
238.859
 30
0.000000
  70
    32
  0
VERTEX
  8
0
  5
1448
 10
139.815
 20
238.906
 30
0.000000
  70
    32
  0
VERTEX
  8
0
  5
1449
 10
139.410
 20
238.947
 30
0.000000
  70
    32
  0
VERTEX
  8
0
  5
144A
 10
139.001
 20
238.982
 30
0.000000
  70
    32
  0
VERTEX
  8
0
  5
144B
 10
138.589
 20
239.011
 30
0.000000
  70
    32
  0
VERTEX
  8
0
  5
144C
 10
138.175
 20
239.033
 30
0.000000
  70
    32
  0
VERTEX
  8
0
  5
144D
 10
137.759
 20
239.049
 30
0.000000
  70
    32
  0
VERTEX
  8
0
  5
144E
 10
137.342
 20
239.059
 30
0.000000
  70
    32
  0
VERTEX
  8
0
  5
144F
 10
136.924
 20
239.062
 30
0.000000
  70
    32
  0
VERTEX
  8
0
  5
1450
 10
136.506
 20
239.059
 30
0.000000
  70
    32
  0
VERTEX
  8
0
  5
1451
 10
136.088
 20
239.049
 30
0.000000
  70
    32
  0
VERTEX
  8
0
  5
1452
 10
135.672
 20
239.033
 30
0.000000
  70
    32
  0
VERTEX
  8
0
  5
1453
 10
135.258
 20
239.011
 30
0.000000
  70
    32
  0
VERTEX
  8
0
  5
1454
 10
134.846
 20
238.982
 30
0.000000
  70
    32
  0
VERTEX
  8
0
  5
1455
 10
134.437
 20
238.947
 30
0.000000
  70
    32
  0
VERTEX
  8
0
  5
1456
 10
134.032
 20
238.906
 30
0.000000
  70
    32
  0
VERTEX
  8
0
  5
1457
 10
133.630
 20
238.859
 30
0.000000
  70
    32
  0
VERTEX
  8
0
  5
1458
 10
133.234
 20
238.806
 30
0.000000
  70
    32
  0
VERTEX
  8
0
  5
1459
 10
132.843
 20
238.746
 30
0.000000
  70
    32
  0
VERTEX
  8
0
  5
145A
 10
132.458
 20
238.681
 30
0.000000
  70
    32
  0
VERTEX
  8
0
  5
145B
 10
132.079
 20
238.610
 30
0.000000
  70
    32
  0
VERTEX
  8
0
  5
145C
 10
131.707
 20
238.533
 30
0.000000
  70
    32
  0
VERTEX
  8
0
  5
145D
 10
131.343
 20
238.450
 30
0.000000
  70
    32
  0
VERTEX
  8
0
  5
145E
 10
130.987
 20
238.362
 30
0.000000
  70
    32
  0
VERTEX
  8
0
  5
145F
 10
130.640
 20
238.269
 30
0.000000
  70
    32
  0
VERTEX
  8
0
  5
1460
 10
130.301
 20
238.170
 30
0.000000
  70
    32
  0
VERTEX
  8
0
  5
1461
 10
129.972
 20
238.066
 30
0.000000
  70
    32
  0
VERTEX
  8
0
  5
1462
 10
129.653
 20
237.957
 30
0.000000
  70
    32
  0
VERTEX
  8
0
  5
1463
 10
129.345
 20
237.844
 30
0.000000
  70
    32
  0
VERTEX
  8
0
  5
1464
 10
129.047
 20
237.726
 30
0.000000
  70
    32
  0
VERTEX
  8
0
  5
1465
 10
128.761
 20
237.603
 30
0.000000
  70
    32
  0
VERTEX
  8
0
  5
1466
 10
128.487
 20
237.476
 30
0.000000
  70
    32
  0
VERTEX
  8
0
  5
1467
 10
128.225
 20
237.345
 30
0.000000
  70
    32
  0
VERTEX
  8
0
  5
1468
 10
127.976
 20
237.210
 30
0.000000
  70
    32
  0
VERTEX
  8
0
  5
1469
 10
127.739
 20
237.072
 30
0.000000
  70
    32
  0
VERTEX
  8
0
  5
146A
 10
127.516
 20
236.929
 30
0.000000
  70
    32
  0
VERTEX
  8
0
  5
146B
 10
127.306
 20
236.784
 30
0.000000
  70
    32
  0
VERTEX
  8
0
  5
146C
 10
127.110
 20
236.635
 30
0.000000
  70
    32
  0
VERTEX
  8
0
  5
146D
 10
126.928
 20
236.484
 30
0.000000
  70
    32
  0
VERTEX
  8
0
  5
146E
 10
126.761
 20
236.330
 30
0.000000
  70
    32
  0
VERTEX
  8
0
  5
146F
 10
126.609
 20
236.173
 30
0.000000
  70
    32
  0
VERTEX
  8
0
  5
1470
 10
126.471
 20
236.014
 30
0.000000
  70
    32
  0
VERTEX
  8
0
  5
1471
 10
126.348
 20
235.854
 30
0.000000
  70
    32
  0
VERTEX
  8
0
  5
1472
 10
126.241
 20
235.691
 30
0.000000
  70
    32
  0
VERTEX
  8
0
  5
1473
 10
126.149
 20
235.527
 30
0.000000
  70
    32
  0
VERTEX
  8
0
  5
1474
 10
126.073
 20
235.362
 30
0.000000
  70
    32
  0
VERTEX
  8
0
  5
1475
 10
126.012
 20
235.195
 30
0.000000
  70
    32
  0
VERTEX
  8
0
  5
1476
 10
125.967
 20
235.028
 30
0.000000
  70
    32
  0
VERTEX
  8
0
  5
1477
 10
125.938
 20
234.860
 30
0.000000
  70
    32
  0
VERTEX
  8
0
  5
1478
 10
125.925
 20
234.692
 30
0.000000
  70
    32
  0
VERTEX
  8
0
  5
1479
 10
125.928
 20
234.524
 30
0.000000
  70
    32
  0
VERTEX
  8
0
  5
147A
 10
125.947
 20
234.356
 30
0.000000
  70
    32
  0
VERTEX
  8
0
  5
147B
 10
125.981
 20
234.188
 30
0.000000
  70
    32
  0
VERTEX
  8
0
  5
147C
 10
126.031
 20
234.021
 30
0.000000
  70
    32
  0
VERTEX
  8
0
  5
147D
 10
126.097
 20
233.855
 30
0.000000
  70
    32
  0
VERTEX
  8
0
  5
147E
 10
126.179
 20
233.690
 30
0.000000
  70
    32
  0
VERTEX
  8
0
  5
147F
 10
126.276
 20
233.527
 30
0.000000
  70
    32
  0
VERTEX
  8
0
  5
1480
 10
126.389
 20
233.365
 30
0.000000
  70
    32
  0
VERTEX
  8
0
  5
1481
 10
126.516
 20
233.205
 30
0.000000
  70
    32
  0
VERTEX
  8
0
  5
1482
 10
126.659
 20
233.047
 30
0.000000
  70
    32
  0
VERTEX
  8
0
  5
1483
 10
126.817
 20
232.891
 30
0.000000
  70
    32
  0
VERTEX
  8
0
  5
1484
 10
126.989
 20
232.738
 30
0.000000
  70
    32
  0
VERTEX
  8
0
  5
1485
 10
127.176
 20
232.587
 30
0.000000
  70
    32
  0
VERTEX
  8
0
  5
1486
 10
127.376
 20
232.440
 30
0.000000
  70
    32
  0
VERTEX
  8
0
  5
1487
 10
127.591
 20
232.295
 30
0.000000
  70
    32
  0
VERTEX
  8
0
  5
1488
 10
127.818
 20
232.154
 30
0.000000
  70
    32
  0
VERTEX
  8
0
  5
1489
 10
128.060
 20
232.017
 30
0.000000
  70
    32
  0
VERTEX
  8
0
  5
148A
 10
128.313
 20
231.883
 30
0.000000
  70
    32
  0
VERTEX
  8
0
  5
148B
 10
128.580
 20
231.754
 30
0.000000
  70
    32
  0
VERTEX
  8
0
  5
148C
 10
128.858
 20
231.628
 30
0.000000
  70
    32
  0
VERTEX
  8
0
  5
148D
 10
129.148
 20
231.507
 30
0.000000
  70
    32
  0
VERTEX
  8
0
  5
148E
 10
129.449
 20
231.390
 30
0.000000
  70
    32
  0
VERTEX
  8
0
  5
148F
 10
129.761
 20
231.279
 30
0.000000
  70
    32
  0
SEQEND
  8
0
  5
1490
  0
LINE
  5
10A2
  8
0
 10
147.92355595794061
 20
234.58154405521779
 30
0.0
 11
147.42355595794061
 21
208.5391140102152
 31
0.0
  0
ARC
  5
10A3
  8
0
 10
148.35506143203011
 20
242.70749128815669
 30
0.0
 40
5.0
 50
152.0074062139272
 51
213.9177417789258
  0
LINE
  5
10A4
  8
0
 10
143.95921738071769
 20
245.18892696729949
 30
0.0
 11
142.49013734230891
 21
252.24299931511101
 31
0.0
  0
ARC
  5
10A5
  8
0
 10
141.5111425606847
 20
252.0391140102152
 30
0.0
 40
1.0
 50
11.764253641804171
 51
90.0
  0
ARC
  5
10A6
  8
0
 10
143.76341842439291
 20
245.1481499063203
 30
0.0
 40
0.2
 50
332.00740621392731
 51
11.764253641805761
  0
LINE
  5
10A7
  8
0
 10
143.9634184243929
 20
245.1481499063203
 30
0.0
 11
143.9634184243929
 21
240.3172043402212
 31
0.0
  0
ARC
  5
10A8
  8
0
 10
157.23148612239061
 20
247.35610712392659
 30
0.0
 40
15.0
 50
209.7296705382044
 51
225.69583298831839
  0
LINE
  5
10A9
  8
0
 10
129.8836934914882
 20
245.1481499063203
 30
0.0
 11
129.8836934914882
 21
240.3172043402212
 31
0.0
  0
ARC
  5
10AA
  8
0
 10
125.492050483851
 20
242.70749128815669
 30
0.0
 40
5.0
 50
326.0822582210742
 51
27.992593786072749
  0
LINE
  5
10AB
  8
0
 10
129.88789453516341
 20
245.18892696729949
 30
0.0
 11
131.35697457357219
 21
252.24299931511101
 31
0.0
  0
ARC
  5
10AC
  8
0
 10
130.08369349148819
 20
245.1481499063203
 30
0.0
 40
0.2
 50
168.23574635819421
 51
207.99259378607269
  0
ARC
  5
10AD
  8
0
 10
132.3359693551964
 20
252.0391140102152
 30
0.0
 40
1.0
 50
90.0
 51
168.2357463581958
  0
ARC
  5
10AE
  8
0
 10
116.61562579349049
 20
247.35610712392659
 30
0.0
 40
15.0
 50
314.30416701168161
 51
330.2703294617956
  0
LINE
  5
10AF
  8
0
 10
125.92355595794059
 20
234.58154405521779
 30
0.0
 11
126.42355595794059
 21
208.5391140102152
 31
0.0
  0
LINE
  5
10B0
  8
0
 10
400.09820077138153
 20
198.53911401021509
 30
0.0
 11
400.09820077138153
 21
208.5391140102152
 31
0.0
  0
LINE
  5
10B1
  8
0
 10
384.09820077138158
 20
208.5391140102152
 30
0.0
 11
384.09820077138158
 21
198.53911401021509
 31
0.0
  0
LINE
  5
10B2
  8
0
 10
384.09820077138158
 20
198.53911401021509
 30
0.0
 11
400.09820077138153
 21
198.53911401021509
 31
0.0
  0
LINE
  5
10B3
  8
0
 10
386.63664948647568
 20
243.14205584942459
 30
0.0
 11
397.58090615630431
 21
243.14205584942459
 31
0.0
  0
LINE
  5
10B4
  8
0
 10
386.42692086081752
 20
241.18828634530701
 30
0.0
 11
397.76948068194571
 21
241.18828634530701
 31
0.0
  0
LINE
  5
10B5
  8
0
 10
398.21712950605729
 20
240.5991140102152
 30
0.0
 11
385.97927203670588
 21
240.5991140102152
 31
0.0
  0
LINE
  5
10B6
  8
0
 10
402.59820077138158
 20
208.5391140102152
 30
0.0
 11
381.59820077138158
 21
208.5391140102152
 31
0.0
  0
LINE
  5
10B7
  8
0
 10
385.89750559137627
 20
240.29587314134059
 30
0.0
 11
398.29889595138673
 21
240.29587314134059
 31
0.0
  0
LINE
  5
10B8
  8
1
 10
392.09820077138158
 20
258.03911401021531
 30
0.0
 11
392.0982007713817
 21
143.53911401021509
 31
0.0
  0
LINE
  5
10B9
  8
0
 10
396.68578737412571
 20
253.03911401021509
 30
0.0
 11
387.5106141686374
 21
253.0391140102154
 31
0.0
  0
LINE
  5
10BA
  8
0
 10
385.06253934860428
 20
245.18892696729949
 30
0.0
 11
386.53161938701322
 21
252.24299931511101
 31
0.0
  0
ARC
  5
10BB
  8
0
 10
387.5106141686374
 20
252.0391140102152
 30
0.0
 40
1.0
 50
90.0
 51
168.2357463581958
  0
LINE
  5
10BC
  8
0
 10
399.13386219415872
 20
245.18892696729949
 30
0.0
 11
397.66478215574989
 21
252.24299931511101
 31
0.0
  0
ARC
  5
10BD
  8
0
 10
396.68578737412571
 20
252.0391140102152
 30
0.0
 40
1.0
 50
11.764253641804171
 51
90.0
  0
LINE
  5
10BE
  8
0
 10
399.13806323783388
 20
245.1481499063203
 30
0.0
 11
399.13806323783399
 21
232.0850124397835
 31
0.0
  0
ARC
  5
10BF
  8
0
 10
392.1159507030211
 20
254.69793736208121
 30
0.0
 40
3.0
 50
269.66099929890152
 51
299.63458235356808
  0
LINE
  5
10C0
  8
0
 10
393.59935045140043
 20
252.0903474429206
 30
0.0
 11
395.49727093116462
 21
252.8842093665119
 31
0.0
  0
ARC
  5
10C1
  8
0
 10
396.26903716920071
 20
251.03911401021509
 30
0.0
 40
2.0
 50
90.0
 51
112.69857631690989
  0
ARC
  5
10C2
  8
0
 10
392.08045083974213
 20
254.69793736208121
 30
0.0
 40
3.0
 50
240.36541764643189
 51
270.33900070109848
  0
LINE
  5
10C3
  8
0
 10
390.5970510913628
 20
252.0903474429206
 30
0.0
 11
388.69913061159849
 21
252.8842093665119
 31
0.0
  0
ARC
  5
10C4
  8
0
 10
387.92736437356251
 20
251.03911401021509
 30
0.0
 40
2.0
 50
67.30142368309005
 51
90.0
  0
ARC
  5
10C5
  8
0
 10
392.10877782138999
 20
248.50022899679149
 30
0.0
 40
0.8
 50
41.037685178419068
 51
138.96231482158089
  0
ARC
  5
10C6
  8
0
 10
372.44424436574678
 20
226.9073817940814
 30
0.0
 40
30.0
 50
33.602711735221362
 51
47.49935354968013
  0
ARC
  5
10C7
  8
0
 10
396.59820077138158
 20
242.9568799156645
 30
0.0
 40
1.0
 50
0.0
 51
33.602711735221362
  0
LINE
  5
10C8
  8
0
 10
397.59820077138158
 20
252.4483838386999
 30
0.0
 11
397.59820077138158
 21
242.9782252516691
 31
0.0
  0
LINE
  5
10C9
  8
0
 10
397.59820077138158
 20
242.9568799156645
 30
0.0
 11
397.82653923205743
 21
240.5991140102152
 31
0.0
  0
LINE
  5
10CA
  8
0
 10
386.61935487139829
 20
252.4483838386999
 30
0.0
 11
386.61935487139829
 21
242.9782252516691
 31
0.0
  0
ARC
  5
10CB
  8
0
 10
387.61935487139829
 20
242.9568799156645
 30
0.0
 40
1.0
 50
146.39728826477861
 51
180.0
  0
LINE
  5
10CC
  8
0
 10
386.61935487139829
 20
242.9568799156645
 30
0.0
 11
386.39101641072261
 21
240.5991140102152
 31
0.0
  0
ARC
  5
10CD
  8
0
 10
411.77331127703297
 20
226.9073817940814
 30
0.0
 40
30.0
 50
132.50064645031981
 51
146.39728826477861
  0
LINE
  5
10CE
  8
0
 10
398.21712950605729
 20
240.5991140102152
 30
0.0
 11
398.29889595138673
 21
240.29587314134059
 31
0.0
  0
ARC
  5
10CF
  8
0
 10
412.25622621078088
 20
247.381278930702
 30
0.0
 40
15.0
 50
209.00892254597429
 51
229.35444282771439
  0
ARC
  5
10D0
  8
0
 10
371.94017533198212
 20
247.381278930702
 30
0.0
 40
15.0
 50
310.64555717228558
 51
330.9910774540258
  0
ARC
  5
10D1
  8
0
 10
409.51644353074431
 20
228.272865812238
 30
0.0
 40
11.0
 50
161.4773883406954
 51
211.41614743140761
  0
ARC
  5
10D2
  8
0
 10
398.13806323783399
 20
232.08501243978341
 30
0.0
 40
1.0
 50
341.47738834069543
 51
0.0
  0
ARC
  5
10D3
  8
0
 10
374.67995801201869
 20
228.272865812238
 30
0.0
 40
11.0
 50
328.58385256859248
 51
18.522611659304619
  0
LINE
  5
10D4
  8
0
 10
385.05833830492918
 20
245.1481499063203
 30
0.0
 11
385.05833830492918
 21
232.0850124397835
 31
0.0
  0
ARC
  5
10D5
  8
0
 10
386.05833830492918
 20
232.08501243978341
 30
0.0
 40
1.0
 50
179.9999999999992
 51
198.5226116593046
  0
LINE
  5
10D6
  8
0
 10
381.09820077138158
 20
234.58154405521779
 30
0.0
 11
381.59820077138158
 21
208.5391140102152
 31
0.0
  0
LINE
  5
10D7
  8
0
 10
403.09820077138158
 20
234.58154405521779
 30
0.0
 11
402.59820077138158
 21
208.5391140102152
 31
0.0
  0
LINE
  5
10F2
  8
0
 10
132.6601439068061
 20
253.03911401021509
 30
0.0
 11
132.63683718495221
 21
253.0389255612659
 31
0.0
  0
LINE
  5
10F3
  8
0
 10
132.63683718495221
 20
253.0389255612659
 30
0.0
 11
132.59064433969431
 21
253.0373906700095
 31
0.0
  0
LINE
  5
10F4
  8
0
 10
132.59064433969431
 20
253.0373906700095
 30
0.0
 11
132.5451051463188
 21
253.03425550175771
 31
0.0
  0
LINE
  5
10F5
  8
0
 10
132.5451051463188
 20
253.03425550175771
 30
0.0
 11
132.5226134685679
 21
253.0320687262066
 31
0.0
  0
LINE
  5
10F6
  8
0
 10
141.186968009075
 20
253.03911401021509
 30
0.0
 11
141.21027473092889
 21
253.0389255612659
 31
0.0
  0
LINE
  5
10F7
  8
0
 10
141.21027473092889
 20
253.0389255612659
 30
0.0
 11
141.25646757618671
 21
253.0373906700095
 31
0.0
  0
LINE
  5
10F8
  8
0
 10
141.25646757618671
 20
253.0373906700095
 30
0.0
 11
141.3020067695623
 21
253.03425550175771
 31
0.0
  0
LINE
  5
10F9
  8
0
 10
141.3020067695623
 20
253.03425550175771
 30
0.0
 11
141.32449844731329
 21
253.0320687262066
 31
0.0
  0
LINE
  5
10FA
  8
0
 10
301.65156653202939
 20
241.18828634530701
 30
0.0
 11
301.55501665088798
 21
241.15627761368469
 31
0.0
  0
LINE
  5
10FB
  8
0
 10
301.55501665088798
 20
241.15627761368469
 30
0.0
 11
301.36107063144482
 21
241.09487847678881
 31
0.0
  0
LINE
  5
10FC
  8
0
 10
301.36107063144482
 20
241.09487847678881
 30
0.0
 11
301.16604887530963
 21
241.0369869652921
 31
0.0
  0
LINE
  5
10FD
  8
0
 10
301.16604887530963
 20
241.0369869652921
 30
0.0
 11
301.06815440530988
 21
241.00936249802189
 31
0.0
  0
LINE
  5
10FE
  8
0
 10
301.06815440530988
 20
241.00936249802189
 30
0.0
 11
300.97001481426332
 21
240.98262190869229
 31
0.0
  0
LINE
  5
10FF
  8
0
 10
300.97001481426332
 20
240.98262190869229
 30
0.0
 11
300.7730322093438
 21
240.93180098949011
 31
0.0
  0
LINE
  5
1100
  8
0
 10
300.7730322093438
 20
240.93180098949011
 30
0.0
 11
300.57516513010779
 21
240.88454073743799
 31
0.0
  0
LINE
  5
1101
  8
0
 10
300.57516513010779
 20
240.88454073743799
 30
0.0
 11
300.37647793379131
 21
240.84085652416471
 31
0.0
  0
LINE
  5
1102
  8
0
 10
300.37647793379131
 20
240.84085652416471
 30
0.0
 11
300.17703524437758
 21
240.80076255817411
 31
0.0
  0
LINE
  5
1103
  8
0
 10
300.17703524437758
 20
240.80076255817411
 30
0.0
 11
299.97690193157769
 21
240.76427188022521
 31
0.0
  0
LINE
  5
1104
  8
0
 10
299.97690193157769
 20
240.76427188022521
 30
0.0
 11
299.87659662519309
 21
240.74738152914639
 31
0.0
  0
LINE
  5
1105
  8
0
 10
299.87659662519309
 20
240.74738152914639
 30
0.0
 11
299.77614308973142
 21
240.7313963590895
 31
0.0
  0
LINE
  5
1106
  8
0
 10
299.77614308973142
 20
240.7313963590895
 30
0.0
 11
299.57482401663469
 21
240.7021466876912
 31
0.0
  0
LINE
  5
1107
  8
0
 10
299.57482401663469
 20
240.7021466876912
 30
0.0
 11
299.37301019230182
 21
240.6765323796289
 31
0.0
  0
LINE
  5
1108
  8
0
 10
299.37301019230182
 20
240.6765323796289
 30
0.0
 11
299.17076725766668
 21
240.65456176608211
 31
0.0
  0
LINE
  5
1109
  8
0
 10
299.17076725766668
 20
240.65456176608211
 30
0.0
 11
298.96816099323411
 21
240.63624199310021
 31
0.0
  0
LINE
  5
110A
  8
0
 10
298.96816099323411
 20
240.63624199310021
 30
0.0
 11
298.76525729768338
 21
240.6215790192789
 31
0.0
  0
LINE
  5
110B
  8
0
 10
298.76525729768338
 20
240.6215790192789
 30
0.0
 11
298.6637145336154
 21
240.61562036893551
 31
0.0
  0
LINE
  5
110C
  8
0
 10
298.6637145336154
 20
240.61562036893551
 30
0.0
 11
298.56212216643479
 21
240.61057761382239
 31
0.0
  0
LINE
  5
110D
  8
0
 10
298.56212216643479
 20
240.61057761382239
 30
0.0
 11
298.35882167018411
 21
240.6032413549917
 31
0.0
  0
LINE
  5
110E
  8
0
 10
298.35882167018411
 20
240.6032413549917
 30
0.0
 11
298.15542193341292
 21
240.59957262894079
 31
0.0
  0
LINE
  5
110F
  8
0
 10
298.15542193341292
 20
240.59957262894079
 30
0.0
 11
298.05370552314707
 21
240.5991140102152
 31
0.0
  0
LINE
  5
1110
  8
0
 10
385.05833830492918
 20
232.50572333165479
 30
0.0
 11
385.1883381379908
 21
233.9106084929067
 31
0.0
  0
LINE
  5
1111
  8
0
 10
385.1883381379908
 20
233.9106084929067
 30
0.0
 11
385.46931264373018
 21
236.6911440965504
 31
0.0
  0
LINE
  5
1112
  8
0
 10
385.46931264373018
 20
236.6911440965504
 30
0.0
 11
385.75394732507311
 21
239.1703951979049
 31
0.0
  0
LINE
  5
1113
  8
0
 10
385.75394732507311
 20
239.1703951979049
 30
0.0
 11
385.89750559137627
 21
240.29587314134059
 31
0.0
  0
LINE
  5
1114
  8
0
 10
381.71084121153029
 20
235.99997459990439
 30
0.0
 11
381.69371565967788
 21
235.98159274414689
 31
0.0
  0
LINE
  5
1115
  8
0
 10
381.69371565967788
 20
235.98159274414689
 30
0.0
 11
381.609033825376
 21
235.8827715840666
 31
0.0
  0
LINE
  5
1116
  8
0
 10
381.609033825376
 20
235.8827715840666
 30
0.0
 11
381.53145604213461
 21
235.783879586956
 31
0.0
  0
LINE
  5
1117
  8
0
 10
381.53145604213461
 20
235.783879586956
 30
0.0
 11
381.4609035339538
 21
235.68509579610469
 31
0.0
  0
LINE
  5
1118
  8
0
 10
381.4609035339538
 20
235.68509579610469
 30
0.0
 11
381.39724204311722
 21
235.58655558696759
 31
0.0
  0
LINE
  5
1119
  8
0
 10
381.39724204311722
 20
235.58655558696759
 30
0.0
 11
381.3676742324709
 21
235.53694486519109
 31
0.0
  0
LINE
  5
111A
  8
0
 10
381.3676742324709
 20
235.53694486519109
 30
0.0
 11
381.33949247403888
 21
235.48687855612579
 31
0.0
  0
LINE
  5
111B
  8
0
 10
381.33949247403888
 20
235.48687855612579
 30
0.0
 11
381.28741638756401
 21
235.38543997556951
 31
0.0
  0
LINE
  5
111C
  8
0
 10
381.28741638756401
 20
235.38543997556951
 30
0.0
 11
381.24125720955527
 21
235.28236429645901
 31
0.0
  0
LINE
  5
111D
  8
0
 10
381.24125720955527
 20
235.28236429645901
 30
0.0
 11
381.20123374928028
 21
235.17777988164991
 31
0.0
  0
LINE
  5
111E
  8
0
 10
381.20123374928028
 20
235.17777988164991
 30
0.0
 11
381.16753984404119
 21
235.07181805143981
 31
0.0
  0
LINE
  5
111F
  8
0
 10
381.16753984404119
 20
235.07181805143981
 30
0.0
 11
381.14034432711162
 21
234.964612088954
 31
0.0
  0
LINE
  5
1120
  8
0
 10
381.14034432711162
 20
234.964612088954
 30
0.0
 11
381.12922945220561
 21
234.91058448957949
 31
0.0
  0
LINE
  5
1121
  8
0
 10
381.12922945220561
 20
234.91058448957949
 30
0.0
 11
381.11979131837711
 21
234.85629620108739
 31
0.0
  0
LINE
  5
1122
  8
0
 10
381.11979131837711
 20
234.85629620108739
 30
0.0
 11
381.10600092784858
 21
234.7470053495268
 31
0.0
  0
LINE
  5
1123
  8
0
 10
381.10600092784858
 20
234.7470053495268
 30
0.0
 11
381.0990700263614
 21
234.63687761770021
 31
0.0
  0
LINE
  5
1124
  8
0
 10
381.0990700263614
 20
234.63687761770021
 30
0.0
 11
381.09820077138158
 21
234.58154405521779
 31
0.0
  0
LINE
  5
1125
  8
0
 10
385.04413336675537
 20
232.29229801695641
 30
0.0
 11
385.04427672189729
 21
232.31161227929911
 31
0.0
  0
LINE
  5
1126
  8
0
 10
385.04427672189729
 20
232.31161227929911
 30
0.0
 11
385.04542965442158
 21
232.3503348840112
 31
0.0
  0
LINE
  5
1127
  8
0
 10
385.04542965442158
 20
232.3503348840112
 30
0.0
 11
385.04775062456002
 21
232.3891720776131
 31
0.0
  0
LINE
  5
1128
  8
0
 10
385.04775062456002
 20
232.3891720776131
 30
0.0
 11
385.04935381961133
 21
232.40862959078359
 31
0.0
  0
LINE
  5
1129
  8
0
 10
399.13806323783399
 20
232.50572333165479
 30
0.0
 11
399.00806340477232
 21
233.9106084929067
 31
0.0
  0
LINE
  5
112A
  8
0
 10
399.00806340477232
 20
233.9106084929067
 30
0.0
 11
398.72708889903299
 21
236.6911440965504
 31
0.0
  0
LINE
  5
112B
  8
0
 10
398.72708889903299
 20
236.6911440965504
 30
0.0
 11
398.44245421769
 21
239.1703951979049
 31
0.0
  0
LINE
  5
112C
  8
0
 10
398.44245421769
 20
239.1703951979049
 30
0.0
 11
398.29889595138673
 21
240.29587314134059
 31
0.0
  0
LINE
  5
112D
  8
0
 10
399.15226817600762
 20
232.29229801695641
 30
0.0
 11
399.15212482086588
 21
232.31161227929911
 31
0.0
  0
LINE
  5
112E
  8
0
 10
399.15212482086588
 20
232.31161227929911
 30
0.0
 11
399.15097188834159
 21
232.3503348840112
 31
0.0
  0
LINE
  5
112F
  8
0
 10
399.15097188834159
 20
232.3503348840112
 30
0.0
 11
399.1486509182032
 21
232.3891720776131
 31
0.0
  0
LINE
  5
1130
  8
0
 10
399.1486509182032
 20
232.3891720776131
 30
0.0
 11
399.14704772315179
 21
232.40862959078359
 31
0.0
  0
LINE
  5
1131
  8
0
 10
311.89038095782871
 20
249.10515899295629
 30
0.0
 11
311.89037841523509
 21
249.10513857979569
 31
0.0
  0
LINE
  5
1132
  8
0
 10
311.89037841523509
 20
249.10513857979569
 30
0.0
 11
311.8903580745008
 21
249.10497527462491
 31
0.0
  0
LINE
  5
1133
  8
0
 10
311.8903580745008
 20
249.10497527462491
 30
0.0
 11
311.89031739310752
 21
249.10464866488709
 31
0.0
  0
LINE
  5
1134
  8
0
 10
311.89031739310752
 20
249.10464866488709
 30
0.0
 11
311.8902894247077
 21
249.1044241211595
 31
0.0
  0
LINE
  5
1135
  8
0
 10
311.8902894247077
 20
249.1044241211595
 30
0.0
 11
311.89025637120551
 21
249.10415875179041
 31
0.0
  0
LINE
  5
1136
  8
0
 10
311.89025637120551
 20
249.10415875179041
 30
0.0
 11
311.8901750090206
 21
249.1035055371465
 31
0.0
  0
LINE
  5
1137
  8
0
 10
311.8901750090206
 20
249.1035055371465
 30
0.0
 11
311.89007330685359
 21
249.10268902337131
 31
0.0
  0
LINE
  5
1138
  8
0
 10
311.89007330685359
 20
249.10268902337131
 30
0.0
 11
311.88995126508092
 21
249.1017092134845
 31
0.0
  0
LINE
  5
1139
  8
0
 10
311.88995126508092
 20
249.1017092134845
 30
0.0
 11
311.88980888415352
 21
249.1005661111096
 31
0.0
  0
LINE
  5
113A
  8
0
 10
311.88980888415352
 20
249.1005661111096
 30
0.0
 11
311.8896461645981
 21
249.09925972047441
 31
0.0
  0
LINE
  5
113B
  8
0
 10
311.8896461645981
 20
249.09925972047441
 30
0.0
 11
311.88955717802003
 21
249.09854529354541
 31
0.0
  0
LINE
  5
113C
  8
0
 10
311.88955717802003
 20
249.09854529354541
 30
0.0
 11
311.88946310701658
 21
249.0977900464103
 31
0.0
  0
LINE
  5
113D
  8
0
 10
311.88946310701658
 20
249.0977900464103
 30
0.0
 11
311.88925971208579
 21
249.09615709435241
 31
0.0
  0
LINE
  5
113E
  8
0
 10
311.88925971208579
 20
249.09615709435241
 30
0.0
 11
311.88903598055799
 21
249.0943608703401
 31
0.0
  0
LINE
  5
113F
  8
0
 10
311.88903598055799
 20
249.0943608703401
 30
0.0
 11
311.88879191326077
 21
249.0924013810164
 31
0.0
  0
LINE
  5
1140
  8
0
 10
311.88879191326077
 20
249.0924013810164
 30
0.0
 11
311.8885275110967
 21
249.090278633628
 31
0.0
  0
LINE
  5
1141
  8
0
 10
311.8885275110967
 20
249.090278633628
 30
0.0
 11
311.88824277504341
 21
249.08799263602549
 31
0.0
  0
LINE
  5
1142
  8
0
 10
311.88824277504341
 20
249.08799263602549
 30
0.0
 11
311.88809278213449
 21
249.08678842101239
 31
0.0
  0
LINE
  5
1143
  8
0
 10
311.88809278213449
 20
249.08678842101239
 30
0.0
 11
311.88793770615422
 21
249.0855433966633
 31
0.0
  0
LINE
  5
1144
  8
0
 10
311.88793770615422
 20
249.0855433966633
 30
0.0
 11
311.88761230555713
 21
249.08293092459951
 31
0.0
  0
LINE
  5
1145
  8
0
 10
311.88761230555713
 20
249.08293092459951
 30
0.0
 11
311.88726657445579
 21
249.0801552294958
 31
0.0
  0
LINE
  5
1146
  8
0
 10
311.88726657445579
 20
249.0801552294958
 30
0.0
 11
311.88708608536263
 21
249.07870617648831
 31
0.0
  0
LINE
  5
1147
  8
0
 10
402.48556033123282
 20
235.99997459990439
 30
0.0
 11
402.50268588308518
 21
235.98159274414689
 31
0.0
  0
LINE
  5
1148
  8
0
 10
402.50268588308518
 20
235.98159274414689
 30
0.0
 11
402.58736771738722
 21
235.8827715840666
 31
0.0
  0
LINE
  5
1149
  8
0
 10
402.58736771738722
 20
235.8827715840666
 30
0.0
 11
402.66494550062851
 21
235.783879586956
 31
0.0
  0
LINE
  5
114A
  8
0
 10
402.66494550062851
 20
235.783879586956
 30
0.0
 11
402.73549800880937
 21
235.68509579610469
 31
0.0
  0
LINE
  5
114B
  8
0
 10
402.73549800880937
 20
235.68509579610469
 30
0.0
 11
402.79915949964578
 21
235.58655558696759
 31
0.0
  0
LINE
  5
114C
  8
0
 10
402.79915949964578
 20
235.58655558696759
 30
0.0
 11
402.82872731029232
 21
235.53694486519109
 31
0.0
  0
LINE
  5
114D
  8
0
 10
402.82872731029232
 20
235.53694486519109
 30
0.0
 11
402.85690906872418
 21
235.48687855612579
 31
0.0
  0
LINE
  5
114E
  8
0
 10
402.85690906872418
 20
235.48687855612579
 30
0.0
 11
402.90898515519899
 21
235.38543997556951
 31
0.0
  0
LINE
  5
114F
  8
0
 10
402.90898515519899
 20
235.38543997556951
 30
0.0
 11
402.95514433320778
 21
235.28236429645901
 31
0.0
  0
LINE
  5
1150
  8
0
 10
402.95514433320778
 20
235.28236429645901
 30
0.0
 11
402.99516779348272
 21
235.17777988164991
 31
0.0
  0
LINE
  5
1151
  8
0
 10
402.99516779348272
 20
235.17777988164991
 30
0.0
 11
403.02886169872198
 21
235.07181805143981
 31
0.0
  0
LINE
  5
1152
  8
0
 10
403.02886169872198
 20
235.07181805143981
 30
0.0
 11
403.05605721565149
 21
234.964612088954
 31
0.0
  0
LINE
  5
1153
  8
0
 10
403.05605721565149
 20
234.964612088954
 30
0.0
 11
403.06717209055762
 21
234.91058448957949
 31
0.0
  0
LINE
  5
1154
  8
0
 10
403.06717209055762
 20
234.91058448957949
 30
0.0
 11
403.076610224386
 21
234.85629620108739
 31
0.0
  0
LINE
  5
1155
  8
0
 10
403.076610224386
 20
234.85629620108739
 30
0.0
 11
403.09040061491447
 21
234.7470053495268
 31
0.0
  0
LINE
  5
1156
  8
0
 10
403.09040061491447
 20
234.7470053495268
 30
0.0
 11
403.09733151640171
 21
234.63687761770021
 31
0.0
  0
LINE
  5
1157
  8
0
 10
403.09733151640171
 20
234.63687761770021
 30
0.0
 11
403.09820077138158
 21
234.58154405521779
 31
0.0
  0
LINE
  5
1165
  8
0
 10
235.3903809578286
 20
148.53911401021509
 30
0.0
 11
228.39038095782871
 21
148.5391140102152
 31
0.0
  0
LINE
  5
1166
  8
0
 10
226.8903809578286
 20
198.53911401021509
 30
0.0
 11
226.8903809578286
 21
150.0391140102152
 31
0.0
  0
LINE
  5
1167
  8
3
 10
227.7023809578285
 20
194.5391140102152
 30
0.0
 11
227.70238095782881
 21
149.22711401021499
 31
0.0
  0
LINE
  5
1168
  8
3
 10
236.07838095782881
 20
194.53911401021509
 30
0.0
 11
236.07838095782881
 21
149.22711401021519
 31
0.0
  0
LINE
  5
1169
  8
0
 10
236.89038095782871
 20
198.53911401021509
 30
0.0
 11
236.89038095782871
 21
150.03911401021509
 31
0.0
  0
LINE
  5
116A
  8
0
 10
236.89038095782871
 20
150.03911401021509
 30
0.0
 11
235.3903809578286
 21
148.53911401021509
 31
0.0
  0
LINE
  5
116B
  8
0
 10
228.39038095782871
 20
148.5391140102152
 30
0.0
 11
226.8903809578286
 21
150.0391140102152
 31
0.0
  0
LINE
  5
116C
  8
0
 10
236.89038095782871
 20
194.53911401021509
 30
0.0
 11
226.89038095782871
 21
194.5391140102152
 31
0.0
  0
LINE
  5
116D
  8
3
 10
236.07838095782881
 20
194.53911401021509
 30
0.0
 11
236.89038095782871
 21
195.9455392659608
 31
0.0
  0
LINE
  5
116E
  8
3
 10
227.70238095782861
 20
194.53911401021509
 30
0.0
 11
226.89038095782871
 21
195.9455392659608
 31
0.0
  0
LINE
  5
116F
  8
0
 10
236.89038095782871
 20
150.03911401021509
 30
0.0
 11
226.8903809578286
 21
150.0391140102152
 31
0.0
  0
LINE
  5
1173
  8
3
 10
141.12155595794059
 20
194.53911401021509
 30
0.0
 11
141.12155595794059
 21
149.2271140102153
 31
0.0
  0
LINE
  5
1174
  8
0
 10
141.93355595794051
 20
198.53911401021509
 30
0.0
 11
141.9335559579406
 21
150.0391140102152
 31
0.0
  0
LINE
  5
1175
  8
0
 10
141.93355595794051
 20
150.03911401021509
 30
0.0
 11
131.93355595794051
 21
150.0391140102152
 31
0.0
  0
LINE
  5
1176
  8
0
 10
140.43355595794051
 20
148.53911401021509
 30
0.0
 11
133.43355595794051
 21
148.5391140102152
 31
0.0
  0
LINE
  5
1177
  8
0
 10
141.93355595794051
 20
150.03911401021509
 30
0.0
 11
140.43355595794051
 21
148.53911401021509
 31
0.0
  0
LINE
  5
1178
  8
0
 10
141.9335559579406
 20
194.53911401021509
 30
0.0
 11
131.93355595794051
 21
194.5391140102152
 31
0.0
  0
LINE
  5
1179
  8
3
 10
141.1215559579407
 20
194.53911401021509
 30
0.0
 11
141.9335559579406
 21
195.9455392659608
 31
0.0
  0
LINE
  5
117A
  8
3
 10
132.74555595794041
 20
194.5391140102152
 30
0.0
 11
132.7455559579405
 21
149.22711401021519
 31
0.0
  0
LINE
  5
117B
  8
0
 10
131.93355595794051
 20
198.53911401021509
 30
0.0
 11
131.93355595794051
 21
150.03911401021529
 31
0.0
  0
LINE
  5
117C
  8
0
 10
133.43355595794051
 20
148.5391140102152
 30
0.0
 11
131.93355595794051
 21
150.0391140102152
 31
0.0
  0
LINE
  5
117D
  8
3
 10
132.7455559579405
 20
194.53911401021509
 30
0.0
 11
131.9335559579406
 21
195.9455392659608
 31
0.0
  0
LINE
  5
117F
  8
3
 10
396.29620077138168
 20
194.53911401021509
 30
0.0
 11
396.29620077138179
 21
149.2271140102153
 31
0.0
  0
LINE
  5
1180
  8
3
 10
387.92020077138147
 20
194.5391140102152
 30
0.0
 11
387.92020077138159
 21
149.22711401021519
 31
0.0
  0
LINE
  5
1181
  8
0
 10
387.10820077138158
 20
198.53911401021509
 30
0.0
 11
387.10820077138192
 21
150.039114010215
 31
0.0
  0
LINE
  5
1182
  8
0
 10
397.10820077138158
 20
198.53911401021509
 30
0.0
 11
397.10820077138152
 21
150.039114010215
 31
0.0
  0
LINE
  5
1183
  8
0
 10
388.60820077138158
 20
148.5391140102152
 30
0.0
 11
387.10820077138158
 21
150.0391140102152
 31
0.0
  0
LINE
  5
1184
  8
0
 10
397.10820077138158
 20
150.03911401021509
 30
0.0
 11
387.10820077138158
 21
150.0391140102152
 31
0.0
  0
LINE
  5
1185
  8
0
 10
395.60820077138158
 20
148.53911401021509
 30
0.0
 11
388.60820077138158
 21
148.5391140102152
 31
0.0
  0
LINE
  5
1186
  8
0
 10
397.10820077138158
 20
150.03911401021509
 30
0.0
 11
395.60820077138158
 21
148.53911401021509
 31
0.0
  0
LINE
  5
1187
  8
0
 10
397.10820077138158
 20
194.53911401021509
 30
0.0
 11
387.10820077138158
 21
194.5391140102152
 31
0.0
  0
LINE
  5
1188
  8
3
 10
387.92020077138147
 20
194.53911401021509
 30
0.0
 11
387.10820077138158
 21
195.9455392659608
 31
0.0
  0
LINE
  5
1189
  8
3
 10
396.29620077138168
 20
194.53911401021509
 30
0.0
 11
397.10820077138158
 21
195.9455392659608
 31
0.0
  0
LINE
  5
11E4
  8
0
 10
233.2795978586947
 20
323.92937346845463
 30
0.0
 11
234.64038095782871
 21
323.92937346845463
 31
0.0
  0
LINE
  5
11E5
  8
0
 10
233.27959785869481
 20
324.97937346845458
 30
0.0
 11
234.64038095782871
 21
324.97937346845458
 31
0.0
  0
LINE
  5
11E6
  8
0
 10
229.14038095782871
 20
324.97937346845458
 30
0.0
 11
230.50116405696269
 21
324.97937346845458
 31
0.0
  0
LINE
  5
11E7
  8
0
 10
229.14038095782871
 20
323.92937346845463
 30
0.0
 11
230.50116405696281
 21
323.92937346845463
 31
0.0
  0
ARC
  5
11E8
  8
0
 10
233.72104286384069
 20
325.51130661268593
 30
0.0
 40
0.6912500000000011
 50
163.3417582272229
 51
230.3111220593475
  0
ARC
  5
11E9
  8
0
 10
233.72104286384069
 20
323.39744032422351
 30
0.0
 40
0.6912500000000003
 50
129.6888779406687
 51
196.65824177277699
  0
ARC
  5
11EA
  8
0
 10
232.6803809578287
 20
323.08605333047529
 30
0.0
 40
0.3949999999999998
 50
223.34175822722349
 51
16.658241772777039
  0
ARC
  5
11EB
  8
0
 10
231.89038095782871
 20
322.34050717999219
 30
0.0
 40
0.6912500000000003
 50
43.341758227223458
 51
136.65824177277651
  0
ARC
  5
11EC
  8
0
 10
231.10038095782869
 20
323.08605333047529
 30
0.0
 40
0.3950000000000001
 50
163.3417582272229
 51
316.65824177277648
  0
ARC
  5
11ED
  8
0
 10
230.0597190518169
 20
323.39744032422351
 30
0.0
 40
0.691250000000001
 50
343.3417582272229
 51
50.311122059331304
  0
ARC
  5
11EE
  8
0
 10
232.6803809578287
 20
325.82269360643409
 30
0.0
 40
0.3950000000000002
 50
343.3417582272229
 51
136.65824177277651
  0
ARC
  5
11EF
  8
0
 10
231.89038095782871
 20
326.56823975691708
 30
0.0
 40
0.6912499999999989
 50
223.34175822722349
 51
316.65824177277648
  0
ARC
  5
11F0
  8
0
 10
231.10038095782869
 20
325.82269360643409
 30
0.0
 40
0.3949999999999998
 50
43.341758227223458
 51
196.65824177277699
  0
ARC
  5
11F1
  8
0
 10
230.0597190518169
 20
325.51130661268593
 30
0.0
 40
0.6912500000000005
 50
309.68887794065239
 51
16.658241772777039
  0
CIRCLE
  5
11F6
  8
0
 10
231.89038095782871
 20
324.45437346845461
 30
0.0
 40
5.0
  0
LINE
  5
11F7
  8
0
 10
141.92355595794049
 20
234.8758108408372
 30
0.0
 11
141.92355595794049
 21
233.44840676743189
 31
0.0
  0
LINE
  5
11F8
  8
0
 10
131.92355595794049
 20
234.8758108408372
 30
0.0
 11
131.92355595794049
 21
233.26871951085801
 31
0.0
  0
LINE
  5
11F9
  8
0
 10
139.60914714052959
 20
235.5391140102152
 30
0.0
 11
134.23796477535149
 21
235.5391140102152
 31
0.0
  0
ARC
  5
11FA
  8
0
 10
136.92355595794049
 20
221.79911401021511
 30
0.0
 40
14.0
 50
69.075167572360144
 51
78.940519963796405
  0
ARC
  5
11FB
  8
0
 10
136.92355595794049
 20
221.79911401021511
 30
0.0
 40
14.0
 50
101.0594800362036
 51
110.9248324276398
  0
LINE
  5
11FC
  8
0
 10
141.92355595794049
 20
234.8758108408372
 30
0.0
 11
131.92355595794049
 21
234.87581084083709
 31
0.0
  0
ARC
  5
1200
  8
0
 10
231.89038095782871
 20
324.45437346845461
 30
0.0
 40
2.6855911825890351
 50
11.273214125907071
 51
168.72678587409291
  0
LINE
  5
1201
  8
0
 10
234.64038095782871
 20
324.97937346845458
 30
0.0
 11
234.64038095782871
 21
323.92937346845463
 31
0.0
  0
LINE
  5
1202
  8
0
 10
229.14038095782871
 20
324.97937346845458
 30
0.0
 11
229.14038095782871
 21
323.92937346845463
 31
0.0
  0
ARC
  5
1203
  8
0
 10
231.89038095782871
 20
324.45437346845461
 30
0.0
 40
2.6855911825890351
 50
191.273214125907
 51
348.72678587408973
  0
LINE
  5
120D
  8
0
 10
232.666614464133
 20
234.8758108408372
 30
0.0
 11
226.88038095782869
 21
234.87581084083709
 31
0.0
  0
ARC
  5
120E
  8
0
 10
231.88038095782869
 20
221.79911401021511
 30
0.0
 40
14.0
 50
101.0594800362036
 51
110.9248324276398
  0
LINE
  5
120F
  8
0
 10
234.3478746613651
 20
235.53911401021509
 30
0.0
 11
229.1947897752396
 21
235.5391140102152
 31
0.0
  0
LINE
  5
1210
  8
0
 10
226.88038095782869
 20
234.8758108408372
 30
0.0
 11
226.88038095782869
 21
232.49250963985651
 31
0.0
  0
TEXT
  5
12FC
  8
0
 62
     3
 10
0.0
 20
0.0
 30
0.0
 40
10.0
  1
FKR10X50-OG
  7
STANDARD1
  0
ENDSEC
  0
EOF
