  0
SECTION
  2
HEADER
  9
$ACADVER
  1
AC1009
  9
$INSBASE
 10
0.0
 20
0.0
 30
0.0
  9
$EXTMIN
 10
0.0
 20
-2.960436562073669
 30
0.0
  9
$EXTMAX
 10
413.09820077138153
 20
350.45437346845461
 30
0.0
  9
$LIMMIN
 10
0.0
 20
0.0
  9
$LIMMAX
 10
187.5
 20
135.0
  9
$ORTHOMODE
 70
     0
  9
$REGENMODE
 70
     1
  9
$FILLMODE
 70
     1
  9
$QTEXTMODE
 70
     0
  9
$MIRRTEXT
 70
     0
  9
$DRAGMODE
 70
     2
  9
$LTSCALE
 40
10.0
  9
$OSMODE
 70
    55
  9
$ATTMODE
 70
     1
  9
$TEXTSIZE
 40
4.0
  9
$TRACEWID
 40
0.05
  9
$TEXTSTYLE
  7
STANDARD
  9
$CLAYER
  8
0
  9
$CELTYPE
  6
BYLAYER
  9
$CECOLOR
 62
   256
  9
$DIMSCALE
 40
0.5
  9
$DIMASZ
 40
3.0
  9
$DIMEXO
 40
2.0
  9
$DIMDLI
 40
0.38
  9
$DIMRND
 40
0.0
  9
$DIMDLE
 40
0.0
  9
$DIMEXE
 40
2.0
  9
$DIMTP
 40
0.0
  9
$DIMTM
 40
0.0
  9
$DIMTXT
 40
3.0
  9
$DIMCEN
 40
0.0
  9
$DIMTSZ
 40
0.0
  9
$DIMTOL
 70
     0
  9
$DIMLIM
 70
     0
  9
$DIMTIH
 70
     0
  9
$DIMTOH
 70
     0
  9
$DIMSE1
 70
     0
  9
$DIMSE2
 70
     0
  9
$DIMTAD
 70
     1
  9
$DIMZIN
 70
     0
  9
$DIMBLK
  1

  9
$DIMASO
 70
     0
  9
$DIMSHO
 70
     0
  9
$DIMPOST
  1

  9
$DIMAPOST
  1

  9
$DIMALT
 70
     0
  9
$DIMALTD
 70
     2
  9
$DIMALTF
 40
25.399999999999999
  9
$DIMLFAC
 40
1.0
  9
$DIMTOFL
 70
     0
  9
$DIMTVP
 40
1.6000000000000001
  9
$DIMTIX
 70
     1
  9
$DIMSOXD
 70
     0
  9
$DIMSAH
 70
     0
  9
$DIMBLK1
  1

  9
$DIMBLK2
  1

  9
$DIMSTYLE
  2
STANDARD
  9
$DIMCLRD
 70
     0
  9
$DIMCLRE
 70
     0
  9
$DIMCLRT
 70
     0
  9
$DIMTFAC
 40
1.0
  9
$DIMGAP
 40
0.09
  9
$LUNITS
 70
     2
  9
$LUPREC
 70
     4
  9
$SKETCHINC
 40
0.1
  9
$FILLETRAD
 40
1.25
  9
$AUNITS
 70
     0
  9
$AUPREC
 70
     0
  9
$MENU
  1
E:\r13\win\SUPPORT\ACAD
  9
$ELEVATION
 40
0.0
  9
$PELEVATION
 40
0.0
  9
$THICKNESS
 40
0.0
  9
$LIMCHECK
 70
     0
  9
$BLIPMODE
 70
     0
  9
$CHAMFERA
 40
0.0
  9
$CHAMFERB
 40
0.0
  9
$SKPOLY
 70
     0
  9
$TDCREATE
 40
2449840.6143865739
  9
$TDUPDATE
 40
2456598.6558846412
  9
$TDINDWG
 40
0.2450089468
  9
$TDUSRTIMER
 40
0.2450089468
  9
$USRTIMER
 70
     1
  9
$ANGBASE
 50
0.0
  9
$ANGDIR
 70
     0
  9
$PDMODE
 70
     0
  9
$PDSIZE
 40
0.0
  9
$PLINEWID
 40
0.0
  9
$COORDS
 70
     1
  9
$SPLFRAME
 70
     0
  9
$SPLINETYPE
 70
     6
  9
$SPLINESEGS
 70
     8
  9
$ATTDIA
 70
     0
  9
$ATTREQ
 70
     1
  9
$HANDLING
 70
     1
  9
$HANDSEED
  5
1494
  9
$SURFTAB1
 70
     6
  9
$SURFTAB2
 70
     6
  9
$SURFTYPE
 70
     6
  9
$SURFU
 70
     6
  9
$SURFV
 70
     6
  9
$UCSNAME
  2

  9
$UCSORG
 10
0.0
 20
0.0
 30
0.0
  9
$UCSXDIR
 10
1.0
 20
0.0
 30
0.0
  9
$UCSYDIR
 10
0.0
 20
1.0
 30
0.0
  9
$PUCSNAME
  2

  9
$PUCSORG
 10
0.0
 20
0.0
 30
0.0
  9
$PUCSXDIR
 10
1.0
 20
0.0
 30
0.0
  9
$PUCSYDIR
 10
0.0
 20
1.0
 30
0.0
  9
$USERI1
 70
     0
  9
$USERI2
 70
     1
  9
$USERI3
 70
     1
  9
$USERI4
 70
     0
  9
$USERI5
 70
     0
  9
$USERR1
 40
0.0
  9
$USERR2
 40
0.0
  9
$USERR3
 40
0.0
  9
$USERR4
 40
0.0
  9
$USERR5
 40
0.0
  9
$WORLDVIEW
 70
     1
  9
$SHADEDGE
 70
     3
  9
$SHADEDIF
 70
    70
  9
$TILEMODE
 70
     1
  9
$MAXACTVP
 70
    16
  9
$PLIMCHECK
 70
     0
  9
$PEXTMIN
 10
1.0000000000000000E+020
 20
1.0000000000000000E+020
 30
1.0000000000000000E+020
  9
$PEXTMAX
 10
-1.0000000000000000E+020
 20
-1.0000000000000000E+020
 30
-1.0000000000000000E+020
  9
$PLIMMIN
 10
0.0
 20
0.0
  9
$PLIMMAX
 10
12.0
 20
9.0
  9
$UNITMODE
 70
     0
  9
$VISRETAIN
 70
     0
  9
$PLINEGEN
 70
     0
  9
$PSLTSCALE
 70
     0
  0
ENDSEC
  0
SECTION
  2
TABLES
  0
TABLE
  2
VPORT
 70
     1
  0
VPORT
  2
*ACTIVE
 70
     0
 10
0.0
 20
0.0
 11
1.0
 21
1.0
 12
206.5491013475098
 22
227.35263460825641
 13
0.0
 23
0.0
 14
5.0
 24
5.0
 15
5.0
 25
5.0
 16
0.0
 26
0.0
 36
1.0
 17
0.0
 27
0.0
 37
0.0
 40
464.72496349304879
 41
1.7807262569832401
 42
50.0
 43
0.0
 44
0.0
 50
0.0
 51
0.0
 71
     0
 72
   100
 73
     1
 74
     0
 75
     0
 76
     0
 77
     0
 78
     0
  0
ENDTAB
  0
TABLE
  2
LTYPE
 70
     3
  0
LTYPE
  2
CONTINUOUS
 70
     0
  3
Solid Line
 72
    65
 73
     0
 40
0.0
  0
LTYPE
  2
CENTER
 70
     0
  3
____ _ ____ _ ____ _ ____ _ ____ _ ____ _ ____
 72
    65
 73
     4
 40
2.0
 49
1.25
 49
-0.25
 49
0.25
 49
-0.25
  0
LTYPE
  2
PHANTOM2
 70
     0
  3
___ _ _ ___ _ _ ___ _ _ ___ _ _
 72
    65
 73
     6
 40
1.25
 49
0.625
 49
-0.125
 49
0.125
 49
-0.125
 49
0.125
 49
-0.125
  0
ENDTAB
  0
TABLE
  2
LAYER
 70
     3
  0
LAYER
  2
0
 70
     0
 62
     7
  6
CONTINUOUS
  0
LAYER
  2
1
 70
     0
 62
     1
  6
CENTER
  0
LAYER
  2
3
 70
     0
 62
     3
  6
CONTINUOUS
  0
ENDTAB
  0
TABLE
  2
STYLE
 70
     2
  0
STYLE
  2
STANDARD
 70
     0
 40
0.0
 41
1.0
 50
0.0
 71
     0
 42
4.0
  3
TXT
  4
BIGFONT
  0
STYLE
  2
STANDARD1
 70
     0
 40
0.0
 41
1.0
 50
0.0
 71
     0
 42
3.0
  3
txt
  4

  0
ENDTAB
  0
TABLE
  2
VIEW
 70
     1
  0
VIEW
  2
ALL
 70
     0
 40
179.66152299999999
 10
141.903918
 20
89.830760999999995
 41
0.0
 11
0.0
 21
0.0
 31
1.0
 12
0.0
 22
0.0
 32
0.0
 42
0.0
 43
0.0
 44
0.0
 50
0.0
 71
     0
  0
ENDTAB
  0
TABLE
  2
UCS
 70
     0
  0
ENDTAB
  0
TABLE
  2
APPID
 70
     4
  0
APPID
  2
ACAD
 70
     0
  0
APPID
  2
DCO15
 70
     0
  0
APPID
  2
ACAD_MLEADERVER
 70
     0
  0
APPID
  2
ACAD_NAV_VCDISPLAY
 70
     0
  0
ENDTAB
  0
TABLE
  2
DIMSTYLE
 70
     1
  0
DIMSTYLE
  2
STANDARD
 70
     0
  3

  4

  5

  6

  7

 40
1.0
 41
0.18
 42
0.0625
 43
0.38
 44
0.18
 45
0.0
 46
0.0
 47
0.0
 48
0.0
140
0.18
141
0.09
142
0.0
143
25.399999999999999
144
1.0
145
0.0
146
1.0
147
0.09
 71
     0
 72
     0
 73
     1
 74
     1
 75
     0
 76
     0
 77
     0
 78
     0
170
     0
171
     2
172
     0
173
     0
174
     0
175
     0
176
     0
177
     0
178
     0
  0
ENDTAB
  0
ENDSEC
  0
SECTION
  2
BLOCKS
  0
BLOCK
  8
0
  2
$MODEL_SPACE
 70
     0
 10
0.0
 20
0.0
 30
0.0
  3
$MODEL_SPACE
  1

  0
ENDBLK
  5
1BD
  8
0
  0
BLOCK
 67
     1
  8
0
  2
$PAPER_SPACE
 70
     0
 10
0.0
 20
0.0
 30
0.0
  3
$PAPER_SPACE
  1

  0
ENDBLK
  5
1BB
 67
     1
  8
0
  0
ENDSEC
  0
SECTION
  2
ENTITIES
  0
LINE
  5
104A
  8
0
 10
231.38038095782869
 20
237.15802084652171
 30
0.0
 11
231.38038095782869
 21
218.53911401021509
 31
0.0
  0
LINE
  5
104B
  8
0
 10
252.38038095782869
 20
218.53911401021509
 30
0.0
 11
252.38038095782869
 21
232.53911401021509
 31
0.0
  0
LINE
  5
104C
  8
0
 10
308.26331356166111
 20
250.5991140102152
 30
0.0
 11
298.22486311217239
 21
250.5991140102152
 31
0.0
  0
LINE
  5
104D
  8
0
 10
316.64992728769408
 20
252.87042058549901
 30
0.0
 11
311.65156653203047
 21
251.18828634530749
 31
0.0
  0
LINE
  5
104E
  8
0
 10
252.38038095782869
 20
218.53911401021509
 30
0.0
 11
231.38038095782869
 21
218.53911401021509
 31
0.0
  0
LINE
  5
104F
  8
1
 10
241.88038095782869
 20
250.5391140102152
 30
0.0
 11
241.88038095782849
 21
143.53911401021509
 31
0.0
  0
LINE
  5
1051
  8
0
 10
249.89038095782871
 20
208.5391140102152
 30
0.0
 11
249.89038095782871
 21
218.53911401021509
 31
0.0
  0
LINE
  5
1052
  8
0
 10
233.89038095782871
 20
218.53911401021509
 30
0.0
 11
233.89038095782871
 21
208.5391140102152
 31
0.0
  0
LINE
  5
1054
  8
0
 10
233.89038095782871
 20
208.5391140102152
 30
0.0
 11
249.89038095782871
 21
208.5391140102152
 31
0.0
  0
ARC
  5
1062
  8
0
 10
342.5961345684795
 20
-5.9510039372383972
 30
0.0
 40
270.0
 50
94.957086921350097
 51
113.6996745048306
  0
LINE
  5
1063
  8
0
 10
319.26554420700211
 20
263.0391140102152
 30
0.0
 11
319.89038095782871
 21
263.0391140102152
 31
0.0
  0
LINE
  5
1064
  8
0
 10
321.89038095782871
 20
261.0391140102152
 30
0.0
 11
321.89038095782871
 21
259.00422616844122
 31
0.0
  0
ARC
  5
1065
  8
0
 10
319.89038095782871
 20
261.0391140102152
 30
0.0
 40
2.0
 50
0.0
 51
90.0
  0
ARC
  5
1066
  8
0
 10
235.88038095782869
 20
237.15802084652171
 30
0.0
 40
4.5
 50
113.6996745048306
 51
180.0
  0
ARC
  5
1067
  8
0
 10
369.17803782013681
 20
5.8791795056748688
 30
0.0
 40
255.0
 50
106.4878909565075
 51
117.2600616186912
  0
ARC
  5
1068
  8
0
 10
298.22486311217239
 20
245.5991140102152
 30
0.0
 40
5.0
 50
90.0
 51
106.48789095650569
  0
ARC
  5
1069
  8
0
 10
314.46286976045252
 20
260.04445566852843
 30
0.0
 40
7.5
 50
286.95422943661129
 51
352.02753029962417
  0
LINE
  5
106A
  8
0
 10
231.38038095782869
 20
331.2078522533692
 30
0.0
 11
231.38038095782869
 21
337.70089468354013
 31
0.0
  0
CIRCLE
  5
1078
  8
0
 10
242.84196971627961
 20
334.45437346845461
 30
0.0
 40
6.5992762682978654
  0
LINE
  5
1079
  8
1
 10
241.89038095782871
 20
350.45437346845461
 30
0.0
 11
241.89038095782871
 21
318.45437346845461
 31
0.0
  0
LINE
  5
107A
  8
1
 10
326.89038095782871
 20
334.45437346845461
 30
0.0
 11
226.38038095782869
 21
334.45437346845461
 31
0.0
  0
ARC
  5
107B
  8
0
 10
241.89038095782871
 20
334.45437346845461
 30
0.0
 40
11.0
 50
197.16583016485521
 51
297.66428518543768
  0
ARC
  5
107C
  8
0
 10
316.39038095782871
 20
334.45437346845461
 30
0.0
 40
5.5
 50
270.0
 51
90.0
  0
ARC
  5
107D
  8
0
 10
264.95944424969548
 20
390.859198276835
 30
0.0
 40
50.0
 50
248.9466271382876
 51
278.79596523459998
  0
LINE
  5
107E
  8
0
 10
316.39038095782871
 20
339.95437346845461
 30
0.0
 11
273.55044000325307
 21
341.50278212006231
 31
0.0
  0
ARC
  5
107F
  8
0
 10
273.3698377203329
 20
336.50604490309718
 30
0.0
 40
5.0
 50
87.929999999999524
 51
98.795965234600004
  0
LINE
  5
1080
  8
0
 10
316.39038095782871
 20
328.95437346845461
 30
0.0
 11
273.55044000325307
 21
327.40596481684702
 31
0.0
  0
ARC
  5
1081
  8
0
 10
264.95944424969548
 20
278.04954866007432
 30
0.0
 40
50.0
 50
81.204034765399996
 51
111.0533728617124
  0
ARC
  5
1082
  8
0
 10
273.3698377203329
 20
332.40270203381209
 30
0.0
 40
5.0
 50
261.20403476540002
 51
272.0700000000005
  0
ARC
  5
1083
  8
0
 10
241.89038095782871
 20
334.45437346845461
 30
0.0
 40
11.0
 50
62.335714814562287
 51
162.83416983514471
  0
LINE
  5
1084
  8
0
 10
316.39038095782871
 20
81.804376337580166
 30
0.0
 11
273.55044000325307
 21
83.352784989187853
 31
0.0
  0
LINE
  5
1085
  8
0
 10
316.39038095782871
 20
70.804376337580152
 30
0.0
 11
273.55044000325307
 21
69.255967685972564
 31
0.0
  0
LINE
  5
1086
  8
1
 10
326.89038095782871
 20
76.304376337580152
 30
0.0
 11
226.38038095782869
 21
76.304376337580152
 31
0.0
  0
ARC
  5
1087
  8
0
 10
264.95944424969548
 20
132.70920114596049
 30
0.0
 40
50.0
 50
248.9466271382876
 51
278.79596523459998
  0
ARC
  5
1088
  8
0
 10
264.95944424969548
 20
19.899551529199869
 30
0.0
 40
50.0
 50
81.204034765399996
 51
111.0533728617124
  0
LINE
  5
1089
  8
1
 10
241.89038095782871
 20
92.304376337580152
 30
0.0
 11
241.89038095782871
 21
60.304376337580152
 31
0.0
  0
ARC
  5
108A
  8
0
 10
241.89038095782871
 20
76.304376337580152
 30
0.0
 40
11.0
 50
62.335714814562287
 51
162.83416983514471
  0
ARC
  5
108B
  8
0
 10
241.89038095782871
 20
76.304376337580152
 30
0.0
 40
11.0
 50
197.16583016485521
 51
297.66428518543768
  0
LINE
  5
108C
  8
0
 10
231.38038095782869
 20
73.057855122494743
 30
0.0
 11
231.38038095782869
 21
79.550897552665617
 31
0.0
  0
ARC
  5
108D
  8
0
 10
273.3698377203329
 20
74.25270490293758
 30
0.0
 40
5.0
 50
261.20403476540002
 51
272.0700000000005
  0
ARC
  5
108E
  8
0
 10
273.3698377203329
 20
78.356047772222723
 30
0.0
 40
5.0
 50
87.929999999999524
 51
98.795965234600004
  0
ARC
  5
108F
  8
0
 10
316.39038095782871
 20
76.304376337580152
 30
0.0
 40
5.5
 50
270.0
 51
90.0
  0
CIRCLE
  5
1090
  8
0
 10
241.89038095782871
 20
76.304376337580152
 30
0.0
 40
8.0
  0
CIRCLE
  5
1091
  8
0
 10
241.89038095782871
 20
76.304376337580152
 30
0.0
 40
10.5
  0
CIRCLE
  5
1092
  8
3
 10
241.89038095782871
 20
76.304376337580152
 30
0.0
 40
4.0
  0
CIRCLE
  5
1093
  8
0
 10
241.89038095782871
 20
76.304376337580152
 30
0.0
 40
5.0
  0
LINE
  5
1096
  8
0
 10
154.92355595794061
 20
208.5391140102152
 30
0.0
 11
154.92355595794061
 21
218.53911401021509
 31
0.0
  0
LINE
  5
1097
  8
0
 10
138.92355595794061
 20
218.53911401021509
 30
0.0
 11
138.92355595794061
 21
208.5391140102152
 31
0.0
  0
LINE
  5
1099
  8
0
 10
141.62355595794051
 20
241.28911401021509
 30
0.0
 11
152.2235559579405
 21
241.28911401021509
 31
0.0
  0
LINE
  5
109A
  8
0
 10
138.92355595794061
 20
208.5391140102152
 30
0.0
 11
154.92355595794061
 21
208.5391140102152
 31
0.0
  0
LINE
  5
109B
  8
1
 10
146.92355595794061
 20
268.03911401021509
 30
0.0
 11
146.92355595794061
 21
143.53911401021509
 31
0.0
  0
LINE
  5
109C
  8
0
 10
151.51114256068459
 20
263.0391140102152
 30
0.0
 11
142.3359693551964
 21
263.0391140102152
 31
0.0
  0
LINE
  5
109D
  8
0
 10
157.42355595794061
 20
218.53911401021509
 30
0.0
 11
136.42355595794061
 21
218.53911401021509
 31
0.0
  0
LINE
  5
109E
  8
0
 10
141.62355595794051
 20
241.28911401021509
 30
0.0
 11
152.2235559579405
 21
241.28911401021509
 31
0.0
  0
POLYLINE
  5
109F
  8
0
 10
140.36160671722348
 20
244.83842350192086
 30
0.0
 66
     1
 70
     8
  0
VERTEX
  8
0
  5
1390
 10
140.362
 20
244.838
 30
0.000000
  70
    32
  0
VERTEX
  8
0
  5
1391
 10
140.372
 20
244.716
 30
0.000000
  70
    32
  0
VERTEX
  8
0
  5
1392
 10
140.398
 20
244.594
 30
0.000000
  70
    32
  0
VERTEX
  8
0
  5
1393
 10
140.440
 20
244.474
 30
0.000000
  70
    32
  0
VERTEX
  8
0
  5
1394
 10
140.498
 20
244.354
 30
0.000000
  70
    32
  0
VERTEX
  8
0
  5
1395
 10
140.571
 20
244.236
 30
0.000000
  70
    32
  0
VERTEX
  8
0
  5
1396
 10
140.659
 20
244.120
 30
0.000000
  70
    32
  0
VERTEX
  8
0
  5
1397
 10
140.763
 20
244.005
 30
0.000000
  70
    32
  0
VERTEX
  8
0
  5
1398
 10
140.881
 20
243.893
 30
0.000000
  70
    32
  0
VERTEX
  8
0
  5
1399
 10
141.014
 20
243.784
 30
0.000000
  70
    32
  0
VERTEX
  8
0
  5
139A
 10
141.161
 20
243.678
 30
0.000000
  70
    32
  0
VERTEX
  8
0
  5
139B
 10
141.322
 20
243.574
 30
0.000000
  70
    32
  0
VERTEX
  8
0
  5
139C
 10
141.497
 20
243.474
 30
0.000000
  70
    32
  0
VERTEX
  8
0
  5
139D
 10
141.684
 20
243.378
 30
0.000000
  70
    32
  0
VERTEX
  8
0
  5
139E
 10
141.884
 20
243.286
 30
0.000000
  70
    32
  0
VERTEX
  8
0
  5
139F
 10
142.097
 20
243.197
 30
0.000000
  70
    32
  0
VERTEX
  8
0
  5
13A0
 10
142.321
 20
243.113
 30
0.000000
  70
    32
  0
VERTEX
  8
0
  5
13A1
 10
142.556
 20
243.034
 30
0.000000
  70
    32
  0
VERTEX
  8
0
  5
13A2
 10
142.801
 20
242.959
 30
0.000000
  70
    32
  0
VERTEX
  8
0
  5
13A3
 10
143.057
 20
242.889
 30
0.000000
  70
    32
  0
VERTEX
  8
0
  5
13A4
 10
143.322
 20
242.824
 30
0.000000
  70
    32
  0
VERTEX
  8
0
  5
13A5
 10
143.595
 20
242.764
 30
0.000000
  70
    32
  0
VERTEX
  8
0
  5
13A6
 10
143.877
 20
242.709
 30
0.000000
  70
    32
  0
VERTEX
  8
0
  5
13A7
 10
144.165
 20
242.660
 30
0.000000
  70
    32
  0
VERTEX
  8
0
  5
13A8
 10
144.461
 20
242.617
 30
0.000000
  70
    32
  0
VERTEX
  8
0
  5
13A9
 10
144.762
 20
242.579
 30
0.000000
  70
    32
  0
VERTEX
  8
0
  5
13AA
 10
145.069
 20
242.547
 30
0.000000
  70
    32
  0
VERTEX
  8
0
  5
13AB
 10
145.380
 20
242.521
 30
0.000000
  70
    32
  0
VERTEX
  8
0
  5
13AC
 10
145.695
 20
242.501
 30
0.000000
  70
    32
  0
VERTEX
  8
0
  5
13AD
 10
146.013
 20
242.486
 30
0.000000
  70
    32
  0
VERTEX
  8
0
  5
13AE
 10
146.333
 20
242.478
 30
0.000000
  70
    32
  0
VERTEX
  8
0
  5
13AF
 10
146.654
 20
242.476
 30
0.000000
  70
    32
  0
VERTEX
  8
0
  5
13B0
 10
146.976
 20
242.479
 30
0.000000
  70
    32
  0
VERTEX
  8
0
  5
13B1
 10
147.298
 20
242.489
 30
0.000000
  70
    32
  0
VERTEX
  8
0
  5
13B2
 10
147.619
 20
242.505
 30
0.000000
  70
    32
  0
VERTEX
  8
0
  5
13B3
 10
147.938
 20
242.527
 30
0.000000
  70
    32
  0
VERTEX
  8
0
  5
13B4
 10
148.255
 20
242.554
 30
0.000000
  70
    32
  0
VERTEX
  8
0
  5
13B5
 10
148.569
 20
242.588
 30
0.000000
  70
    32
  0
VERTEX
  8
0
  5
13B6
 10
148.879
 20
242.627
 30
0.000000
  70
    32
  0
VERTEX
  8
0
  5
13B7
 10
149.184
 20
242.672
 30
0.000000
  70
    32
  0
VERTEX
  8
0
  5
13B8
 10
149.483
 20
242.722
 30
0.000000
  70
    32
  0
VERTEX
  8
0
  5
13B9
 10
149.777
 20
242.778
 30
0.000000
  70
    32
  0
VERTEX
  8
0
  5
13BA
 10
150.063
 20
242.839
 30
0.000000
  70
    32
  0
VERTEX
  8
0
  5
13BB
 10
150.342
 20
242.906
 30
0.000000
  70
    32
  0
VERTEX
  8
0
  5
13BC
 10
150.613
 20
242.977
 30
0.000000
  70
    32
  0
VERTEX
  8
0
  5
13BD
 10
150.875
 20
243.053
 30
0.000000
  70
    32
  0
VERTEX
  8
0
  5
13BE
 10
151.127
 20
243.134
 30
0.000000
  70
    32
  0
VERTEX
  8
0
  5
13BF
 10
151.369
 20
243.219
 30
0.000000
  70
    32
  0
VERTEX
  8
0
  5
13C0
 10
151.601
 20
243.308
 30
0.000000
  70
    32
  0
VERTEX
  8
0
  5
13C1
 10
151.821
 20
243.402
 30
0.000000
  70
    32
  0
VERTEX
  8
0
  5
13C2
 10
152.029
 20
243.499
 30
0.000000
  70
    32
  0
VERTEX
  8
0
  5
13C3
 10
152.225
 20
243.600
 30
0.000000
  70
    32
  0
VERTEX
  8
0
  5
13C4
 10
152.409
 20
243.704
 30
0.000000
  70
    32
  0
VERTEX
  8
0
  5
13C5
 10
152.579
 20
243.811
 30
0.000000
  70
    32
  0
VERTEX
  8
0
  5
13C6
 10
152.735
 20
243.921
 30
0.000000
  70
    32
  0
VERTEX
  8
0
  5
13C7
 10
152.878
 20
244.033
 30
0.000000
  70
    32
  0
VERTEX
  8
0
  5
13C8
 10
153.006
 20
244.148
 30
0.000000
  70
    32
  0
VERTEX
  8
0
  5
13C9
 10
153.120
 20
244.265
 30
0.000000
  70
    32
  0
VERTEX
  8
0
  5
13CA
 10
153.218
 20
244.383
 30
0.000000
  70
    32
  0
VERTEX
  8
0
  5
13CB
 10
153.302
 20
244.503
 30
0.000000
  70
    32
  0
VERTEX
  8
0
  5
13CC
 10
153.370
 20
244.624
 30
0.000000
  70
    32
  0
VERTEX
  8
0
  5
13CD
 10
153.422
 20
244.746
 30
0.000000
  70
    32
  0
VERTEX
  8
0
  5
13CE
 10
153.459
 20
244.869
 30
0.000000
  70
    32
  0
VERTEX
  8
0
  5
13CF
 10
153.480
 20
244.992
 30
0.000000
  70
    32
  0
VERTEX
  8
0
  5
13D0
 10
153.486
 20
245.114
 30
0.000000
  70
    32
  0
VERTEX
  8
0
  5
13D1
 10
153.475
 20
245.237
 30
0.000000
  70
    32
  0
VERTEX
  8
0
  5
13D2
 10
153.449
 20
245.358
 30
0.000000
  70
    32
  0
VERTEX
  8
0
  5
13D3
 10
153.407
 20
245.479
 30
0.000000
  70
    32
  0
VERTEX
  8
0
  5
13D4
 10
153.349
 20
245.599
 30
0.000000
  70
    32
  0
VERTEX
  8
0
  5
13D5
 10
153.276
 20
245.717
 30
0.000000
  70
    32
  0
VERTEX
  8
0
  5
13D6
 10
153.188
 20
245.833
 30
0.000000
  70
    32
  0
VERTEX
  8
0
  5
13D7
 10
153.084
 20
245.947
 30
0.000000
  70
    32
  0
VERTEX
  8
0
  5
13D8
 10
152.966
 20
246.059
 30
0.000000
  70
    32
  0
VERTEX
  8
0
  5
13D9
 10
152.833
 20
246.168
 30
0.000000
  70
    32
  0
VERTEX
  8
0
  5
13DA
 10
152.686
 20
246.275
 30
0.000000
  70
    32
  0
VERTEX
  8
0
  5
13DB
 10
152.525
 20
246.378
 30
0.000000
  70
    32
  0
VERTEX
  8
0
  5
13DC
 10
152.350
 20
246.478
 30
0.000000
  70
    32
  0
VERTEX
  8
0
  5
13DD
 10
152.163
 20
246.574
 30
0.000000
  70
    32
  0
VERTEX
  8
0
  5
13DE
 10
151.963
 20
246.667
 30
0.000000
  70
    32
  0
VERTEX
  8
0
  5
13DF
 10
151.750
 20
246.755
 30
0.000000
  70
    32
  0
VERTEX
  8
0
  5
13E0
 10
151.526
 20
246.839
 30
0.000000
  70
    32
  0
VERTEX
  8
0
  5
13E1
 10
151.291
 20
246.919
 30
0.000000
  70
    32
  0
VERTEX
  8
0
  5
13E2
 10
151.046
 20
246.994
 30
0.000000
  70
    32
  0
VERTEX
  8
0
  5
13E3
 10
150.790
 20
247.064
 30
0.000000
  70
    32
  0
VERTEX
  8
0
  5
13E4
 10
150.526
 20
247.129
 30
0.000000
  70
    32
  0
VERTEX
  8
0
  5
13E5
 10
150.252
 20
247.189
 30
0.000000
  70
    32
  0
VERTEX
  8
0
  5
13E6
 10
149.971
 20
247.243
 30
0.000000
  70
    32
  0
VERTEX
  8
0
  5
13E7
 10
149.682
 20
247.292
 30
0.000000
  70
    32
  0
VERTEX
  8
0
  5
13E8
 10
149.386
 20
247.336
 30
0.000000
  70
    32
  0
VERTEX
  8
0
  5
13E9
 10
149.085
 20
247.374
 30
0.000000
  70
    32
  0
VERTEX
  8
0
  5
13EA
 10
148.778
 20
247.406
 30
0.000000
  70
    32
  0
VERTEX
  8
0
  5
13EB
 10
148.467
 20
247.432
 30
0.000000
  70
    32
  0
VERTEX
  8
0
  5
13EC
 10
148.152
 20
247.452
 30
0.000000
  70
    32
  0
VERTEX
  8
0
  5
13ED
 10
147.834
 20
247.466
 30
0.000000
  70
    32
  0
VERTEX
  8
0
  5
13EE
 10
147.515
 20
247.475
 30
0.000000
  70
    32
  0
VERTEX
  8
0
  5
13EF
 10
147.193
 20
247.477
 30
0.000000
  70
    32
  0
VERTEX
  8
0
  5
13F0
 10
146.871
 20
247.473
 30
0.000000
  70
    32
  0
VERTEX
  8
0
  5
13F1
 10
146.549
 20
247.463
 30
0.000000
  70
    32
  0
VERTEX
  8
0
  5
13F2
 10
146.228
 20
247.448
 30
0.000000
  70
    32
  0
VERTEX
  8
0
  5
13F3
 10
145.909
 20
247.426
 30
0.000000
  70
    32
  0
VERTEX
  8
0
  5
13F4
 10
145.592
 20
247.398
 30
0.000000
  70
    32
  0
VERTEX
  8
0
  5
13F5
 10
145.278
 20
247.365
 30
0.000000
  70
    32
  0
VERTEX
  8
0
  5
13F6
 10
144.969
 20
247.326
 30
0.000000
  70
    32
  0
VERTEX
  8
0
  5
13F7
 10
144.664
 20
247.281
 30
0.000000
  70
    32
  0
VERTEX
  8
0
  5
13F8
 10
144.364
 20
247.230
 30
0.000000
  70
    32
  0
VERTEX
  8
0
  5
13F9
 10
144.071
 20
247.174
 30
0.000000
  70
    32
  0
VERTEX
  8
0
  5
13FA
 10
143.784
 20
247.113
 30
0.000000
  70
    32
  0
VERTEX
  8
0
  5
13FB
 10
143.505
 20
247.047
 30
0.000000
  70
    32
  0
VERTEX
  8
0
  5
13FC
 10
143.234
 20
246.976
 30
0.000000
  70
    32
  0
VERTEX
  8
0
  5
13FD
 10
142.972
 20
246.900
 30
0.000000
  70
    32
  0
VERTEX
  8
0
  5
13FE
 10
142.720
 20
246.819
 30
0.000000
  70
    32
  0
VERTEX
  8
0
  5
13FF
 10
142.478
 20
246.734
 30
0.000000
  70
    32
  0
VERTEX
  8
0
  5
1400
 10
142.246
 20
246.644
 30
0.000000
  70
    32
  0
VERTEX
  8
0
  5
1401
 10
142.026
 20
246.551
 30
0.000000
  70
    32
  0
VERTEX
  8
0
  5
1402
 10
141.818
 20
246.454
 30
0.000000
  70
    32
  0
VERTEX
  8
0
  5
1403
 10
141.622
 20
246.353
 30
0.000000
  70
    32
  0
VERTEX
  8
0
  5
1404
 10
141.438
 20
246.249
 30
0.000000
  70
    32
  0
VERTEX
  8
0
  5
1405
 10
141.268
 20
246.142
 30
0.000000
  70
    32
  0
VERTEX
  8
0
  5
1406
 10
141.112
 20
246.032
 30
0.000000
  70
    32
  0
VERTEX
  8
0
  5
1407
 10
140.969
 20
245.919
 30
0.000000
  70
    32
  0
VERTEX
  8
0
  5
1408
 10
140.841
 20
245.804
 30
0.000000
  70
    32
  0
VERTEX
  8
0
  5
1409
 10
140.728
 20
245.688
 30
0.000000
  70
    32
  0
VERTEX
  8
0
  5
140A
 10
140.629
 20
245.569
 30
0.000000
  70
    32
  0
VERTEX
  8
0
  5
140B
 10
140.546
 20
245.449
 30
0.000000
  70
    32
  0
VERTEX
  8
0
  5
140C
 10
140.477
 20
245.328
 30
0.000000
  70
    32
  0
VERTEX
  8
0
  5
140D
 10
140.425
 20
245.206
 30
0.000000
  70
    32
  0
VERTEX
  8
0
  5
140E
 10
140.388
 20
245.084
 30
0.000000
  70
    32
  0
VERTEX
  8
0
  5
140F
 10
140.367
 20
244.961
 30
0.000000
  70
    32
  0
VERTEX
  8
0
  5
1410
 10
140.362
 20
244.838
 30
0.000000
  70
    32
  0
SEQEND
  8
0
  5
1411
  0
LINE
  5
10A0
  8
0
 10
154.08587445006609
 20
241.2785127920092
 30
0.0
 11
139.76123746581499
 21
241.2785127920092
 31
0.0
  0
POLYLINE
  5
10A1
  8
0
 10
154.08587445006614
 20
241.27851279200914
 30
0.0
 66
     1
 70
     8
  0
VERTEX
  8
0
  5
1412
 10
154.086
 20
241.279
 30
0.000000
  70
    32
  0
VERTEX
  8
0
  5
1413
 10
154.398
 20
241.390
 30
0.000000
  70
    32
  0
VERTEX
  8
0
  5
1414
 10
154.699
 20
241.507
 30
0.000000
  70
    32
  0
VERTEX
  8
0
  5
1415
 10
154.989
 20
241.628
 30
0.000000
  70
    32
  0
VERTEX
  8
0
  5
1416
 10
155.267
 20
241.754
 30
0.000000
  70
    32
  0
VERTEX
  8
0
  5
1417
 10
155.534
 20
241.883
 30
0.000000
  70
    32
  0
VERTEX
  8
0
  5
1418
 10
155.788
 20
242.017
 30
0.000000
  70
    32
  0
VERTEX
  8
0
  5
1419
 10
156.029
 20
242.154
 30
0.000000
  70
    32
  0
VERTEX
  8
0
  5
141A
 10
156.257
 20
242.295
 30
0.000000
  70
    32
  0
VERTEX
  8
0
  5
141B
 10
156.471
 20
242.440
 30
0.000000
  70
    32
  0
VERTEX
  8
0
  5
141C
 10
156.672
 20
242.587
 30
0.000000
  70
    32
  0
VERTEX
  8
0
  5
141D
 10
156.858
 20
242.738
 30
0.000000
  70
    32
  0
VERTEX
  8
0
  5
141E
 10
157.030
 20
242.891
 30
0.000000
  70
    32
  0
VERTEX
  8
0
  5
141F
 10
157.188
 20
243.047
 30
0.000000
  70
    32
  0
VERTEX
  8
0
  5
1420
 10
157.331
 20
243.205
 30
0.000000
  70
    32
  0
VERTEX
  8
0
  5
1421
 10
157.458
 20
243.365
 30
0.000000
  70
    32
  0
VERTEX
  8
0
  5
1422
 10
157.571
 20
243.527
 30
0.000000
  70
    32
  0
VERTEX
  8
0
  5
1423
 10
157.668
 20
243.690
 30
0.000000
  70
    32
  0
VERTEX
  8
0
  5
1424
 10
157.750
 20
243.855
 30
0.000000
  70
    32
  0
VERTEX
  8
0
  5
1425
 10
157.816
 20
244.021
 30
0.000000
  70
    32
  0
VERTEX
  8
0
  5
1426
 10
157.866
 20
244.188
 30
0.000000
  70
    32
  0
VERTEX
  8
0
  5
1427
 10
157.901
 20
244.356
 30
0.000000
  70
    32
  0
VERTEX
  8
0
  5
1428
 10
157.919
 20
244.524
 30
0.000000
  70
    32
  0
VERTEX
  8
0
  5
1429
 10
157.922
 20
244.692
 30
0.000000
  70
    32
  0
VERTEX
  8
0
  5
142A
 10
157.909
 20
244.860
 30
0.000000
  70
    32
  0
VERTEX
  8
0
  5
142B
 10
157.880
 20
245.028
 30
0.000000
  70
    32
  0
VERTEX
  8
0
  5
142C
 10
157.835
 20
245.195
 30
0.000000
  70
    32
  0
VERTEX
  8
0
  5
142D
 10
157.774
 20
245.362
 30
0.000000
  70
    32
  0
VERTEX
  8
0
  5
142E
 10
157.698
 20
245.527
 30
0.000000
  70
    32
  0
VERTEX
  8
0
  5
142F
 10
157.606
 20
245.691
 30
0.000000
  70
    32
  0
VERTEX
  8
0
  5
1430
 10
157.499
 20
245.854
 30
0.000000
  70
    32
  0
VERTEX
  8
0
  5
1431
 10
157.376
 20
246.014
 30
0.000000
  70
    32
  0
VERTEX
  8
0
  5
1432
 10
157.239
 20
246.173
 30
0.000000
  70
    32
  0
VERTEX
  8
0
  5
1433
 10
157.086
 20
246.330
 30
0.000000
  70
    32
  0
VERTEX
  8
0
  5
1434
 10
156.919
 20
246.484
 30
0.000000
  70
    32
  0
VERTEX
  8
0
  5
1435
 10
156.737
 20
246.635
 30
0.000000
  70
    32
  0
VERTEX
  8
0
  5
1436
 10
156.541
 20
246.784
 30
0.000000
  70
    32
  0
VERTEX
  8
0
  5
1437
 10
156.331
 20
246.929
 30
0.000000
  70
    32
  0
VERTEX
  8
0
  5
1438
 10
156.108
 20
247.072
 30
0.000000
  70
    32
  0
VERTEX
  8
0
  5
1439
 10
155.872
 20
247.210
 30
0.000000
  70
    32
  0
VERTEX
  8
0
  5
143A
 10
155.622
 20
247.345
 30
0.000000
  70
    32
  0
VERTEX
  8
0
  5
143B
 10
155.360
 20
247.476
 30
0.000000
  70
    32
  0
VERTEX
  8
0
  5
143C
 10
155.086
 20
247.603
 30
0.000000
  70
    32
  0
VERTEX
  8
0
  5
143D
 10
154.800
 20
247.726
 30
0.000000
  70
    32
  0
VERTEX
  8
0
  5
143E
 10
154.502
 20
247.844
 30
0.000000
  70
    32
  0
VERTEX
  8
0
  5
143F
 10
154.194
 20
247.957
 30
0.000000
  70
    32
  0
VERTEX
  8
0
  5
1440
 10
153.875
 20
248.066
 30
0.000000
  70
    32
  0
VERTEX
  8
0
  5
1441
 10
153.546
 20
248.170
 30
0.000000
  70
    32
  0
VERTEX
  8
0
  5
1442
 10
153.208
 20
248.269
 30
0.000000
  70
    32
  0
VERTEX
  8
0
  5
1443
 10
152.860
 20
248.362
 30
0.000000
  70
    32
  0
VERTEX
  8
0
  5
1444
 10
152.504
 20
248.450
 30
0.000000
  70
    32
  0
VERTEX
  8
0
  5
1445
 10
152.140
 20
248.533
 30
0.000000
  70
    32
  0
VERTEX
  8
0
  5
1446
 10
151.768
 20
248.610
 30
0.000000
  70
    32
  0
VERTEX
  8
0
  5
1447
 10
151.389
 20
248.681
 30
0.000000
  70
    32
  0
VERTEX
  8
0
  5
1448
 10
151.004
 20
248.746
 30
0.000000
  70
    32
  0
VERTEX
  8
0
  5
1449
 10
150.613
 20
248.806
 30
0.000000
  70
    32
  0
VERTEX
  8
0
  5
144A
 10
150.217
 20
248.859
 30
0.000000
  70
    32
  0
VERTEX
  8
0
  5
144B
 10
149.815
 20
248.906
 30
0.000000
  70
    32
  0
VERTEX
  8
0
  5
144C
 10
149.410
 20
248.947
 30
0.000000
  70
    32
  0
VERTEX
  8
0
  5
144D
 10
149.001
 20
248.982
 30
0.000000
  70
    32
  0
VERTEX
  8
0
  5
144E
 10
148.589
 20
249.011
 30
0.000000
  70
    32
  0
VERTEX
  8
0
  5
144F
 10
148.175
 20
249.033
 30
0.000000
  70
    32
  0
VERTEX
  8
0
  5
1450
 10
147.759
 20
249.049
 30
0.000000
  70
    32
  0
VERTEX
  8
0
  5
1451
 10
147.342
 20
249.059
 30
0.000000
  70
    32
  0
VERTEX
  8
0
  5
1452
 10
146.924
 20
249.062
 30
0.000000
  70
    32
  0
VERTEX
  8
0
  5
1453
 10
146.506
 20
249.059
 30
0.000000
  70
    32
  0
VERTEX
  8
0
  5
1454
 10
146.088
 20
249.049
 30
0.000000
  70
    32
  0
VERTEX
  8
0
  5
1455
 10
145.672
 20
249.033
 30
0.000000
  70
    32
  0
VERTEX
  8
0
  5
1456
 10
145.258
 20
249.011
 30
0.000000
  70
    32
  0
VERTEX
  8
0
  5
1457
 10
144.846
 20
248.982
 30
0.000000
  70
    32
  0
VERTEX
  8
0
  5
1458
 10
144.437
 20
248.947
 30
0.000000
  70
    32
  0
VERTEX
  8
0
  5
1459
 10
144.032
 20
248.906
 30
0.000000
  70
    32
  0
VERTEX
  8
0
  5
145A
 10
143.630
 20
248.859
 30
0.000000
  70
    32
  0
VERTEX
  8
0
  5
145B
 10
143.234
 20
248.806
 30
0.000000
  70
    32
  0
VERTEX
  8
0
  5
145C
 10
142.843
 20
248.746
 30
0.000000
  70
    32
  0
VERTEX
  8
0
  5
145D
 10
142.458
 20
248.681
 30
0.000000
  70
    32
  0
VERTEX
  8
0
  5
145E
 10
142.079
 20
248.610
 30
0.000000
  70
    32
  0
VERTEX
  8
0
  5
145F
 10
141.707
 20
248.533
 30
0.000000
  70
    32
  0
VERTEX
  8
0
  5
1460
 10
141.343
 20
248.450
 30
0.000000
  70
    32
  0
VERTEX
  8
0
  5
1461
 10
140.987
 20
248.362
 30
0.000000
  70
    32
  0
VERTEX
  8
0
  5
1462
 10
140.640
 20
248.269
 30
0.000000
  70
    32
  0
VERTEX
  8
0
  5
1463
 10
140.301
 20
248.170
 30
0.000000
  70
    32
  0
VERTEX
  8
0
  5
1464
 10
139.972
 20
248.066
 30
0.000000
  70
    32
  0
VERTEX
  8
0
  5
1465
 10
139.653
 20
247.957
 30
0.000000
  70
    32
  0
VERTEX
  8
0
  5
1466
 10
139.345
 20
247.844
 30
0.000000
  70
    32
  0
VERTEX
  8
0
  5
1467
 10
139.047
 20
247.726
 30
0.000000
  70
    32
  0
VERTEX
  8
0
  5
1468
 10
138.761
 20
247.603
 30
0.000000
  70
    32
  0
VERTEX
  8
0
  5
1469
 10
138.487
 20
247.476
 30
0.000000
  70
    32
  0
VERTEX
  8
0
  5
146A
 10
138.225
 20
247.345
 30
0.000000
  70
    32
  0
VERTEX
  8
0
  5
146B
 10
137.976
 20
247.210
 30
0.000000
  70
    32
  0
VERTEX
  8
0
  5
146C
 10
137.739
 20
247.072
 30
0.000000
  70
    32
  0
VERTEX
  8
0
  5
146D
 10
137.516
 20
246.929
 30
0.000000
  70
    32
  0
VERTEX
  8
0
  5
146E
 10
137.306
 20
246.784
 30
0.000000
  70
    32
  0
VERTEX
  8
0
  5
146F
 10
137.110
 20
246.635
 30
0.000000
  70
    32
  0
VERTEX
  8
0
  5
1470
 10
136.928
 20
246.484
 30
0.000000
  70
    32
  0
VERTEX
  8
0
  5
1471
 10
136.761
 20
246.330
 30
0.000000
  70
    32
  0
VERTEX
  8
0
  5
1472
 10
136.609
 20
246.173
 30
0.000000
  70
    32
  0
VERTEX
  8
0
  5
1473
 10
136.471
 20
246.014
 30
0.000000
  70
    32
  0
VERTEX
  8
0
  5
1474
 10
136.348
 20
245.854
 30
0.000000
  70
    32
  0
VERTEX
  8
0
  5
1475
 10
136.241
 20
245.691
 30
0.000000
  70
    32
  0
VERTEX
  8
0
  5
1476
 10
136.149
 20
245.527
 30
0.000000
  70
    32
  0
VERTEX
  8
0
  5
1477
 10
136.073
 20
245.362
 30
0.000000
  70
    32
  0
VERTEX
  8
0
  5
1478
 10
136.012
 20
245.195
 30
0.000000
  70
    32
  0
VERTEX
  8
0
  5
1479
 10
135.967
 20
245.028
 30
0.000000
  70
    32
  0
VERTEX
  8
0
  5
147A
 10
135.938
 20
244.860
 30
0.000000
  70
    32
  0
VERTEX
  8
0
  5
147B
 10
135.925
 20
244.692
 30
0.000000
  70
    32
  0
VERTEX
  8
0
  5
147C
 10
135.928
 20
244.524
 30
0.000000
  70
    32
  0
VERTEX
  8
0
  5
147D
 10
135.947
 20
244.356
 30
0.000000
  70
    32
  0
VERTEX
  8
0
  5
147E
 10
135.981
 20
244.188
 30
0.000000
  70
    32
  0
VERTEX
  8
0
  5
147F
 10
136.031
 20
244.021
 30
0.000000
  70
    32
  0
VERTEX
  8
0
  5
1480
 10
136.097
 20
243.855
 30
0.000000
  70
    32
  0
VERTEX
  8
0
  5
1481
 10
136.179
 20
243.690
 30
0.000000
  70
    32
  0
VERTEX
  8
0
  5
1482
 10
136.276
 20
243.527
 30
0.000000
  70
    32
  0
VERTEX
  8
0
  5
1483
 10
136.389
 20
243.365
 30
0.000000
  70
    32
  0
VERTEX
  8
0
  5
1484
 10
136.516
 20
243.205
 30
0.000000
  70
    32
  0
VERTEX
  8
0
  5
1485
 10
136.659
 20
243.047
 30
0.000000
  70
    32
  0
VERTEX
  8
0
  5
1486
 10
136.817
 20
242.891
 30
0.000000
  70
    32
  0
VERTEX
  8
0
  5
1487
 10
136.989
 20
242.738
 30
0.000000
  70
    32
  0
VERTEX
  8
0
  5
1488
 10
137.176
 20
242.587
 30
0.000000
  70
    32
  0
VERTEX
  8
0
  5
1489
 10
137.376
 20
242.440
 30
0.000000
  70
    32
  0
VERTEX
  8
0
  5
148A
 10
137.591
 20
242.295
 30
0.000000
  70
    32
  0
VERTEX
  8
0
  5
148B
 10
137.818
 20
242.154
 30
0.000000
  70
    32
  0
VERTEX
  8
0
  5
148C
 10
138.060
 20
242.017
 30
0.000000
  70
    32
  0
VERTEX
  8
0
  5
148D
 10
138.313
 20
241.883
 30
0.000000
  70
    32
  0
VERTEX
  8
0
  5
148E
 10
138.580
 20
241.754
 30
0.000000
  70
    32
  0
VERTEX
  8
0
  5
148F
 10
138.858
 20
241.628
 30
0.000000
  70
    32
  0
VERTEX
  8
0
  5
1490
 10
139.148
 20
241.507
 30
0.000000
  70
    32
  0
VERTEX
  8
0
  5
1491
 10
139.449
 20
241.390
 30
0.000000
  70
    32
  0
VERTEX
  8
0
  5
1492
 10
139.761
 20
241.279
 30
0.000000
  70
    32
  0
SEQEND
  8
0
  5
1493
  0
LINE
  5
10A2
  8
0
 10
157.92355595794061
 20
244.58154405521771
 30
0.0
 11
157.42355595794061
 21
218.53911401021509
 31
0.0
  0
ARC
  5
10A3
  8
0
 10
158.35506143203011
 20
252.70749128815669
 30
0.0
 40
5.0
 50
152.0074062139272
 51
213.9177417789258
  0
LINE
  5
10A4
  8
0
 10
153.95921738071769
 20
255.18892696729949
 30
0.0
 11
152.49013734230891
 21
262.24299931511098
 31
0.0
  0
ARC
  5
10A5
  8
0
 10
151.51114256068459
 20
262.03911401021509
 30
0.0
 40
1.0
 50
11.764253641804171
 51
90.0
  0
ARC
  5
10A6
  8
0
 10
153.76341842439291
 20
255.1481499063203
 30
0.0
 40
0.2
 50
332.00740621392731
 51
11.764253641805761
  0
LINE
  5
10A7
  8
0
 10
153.9634184243929
 20
255.1481499063203
 30
0.0
 11
153.9634184243929
 21
250.3172043402212
 31
0.0
  0
ARC
  5
10A8
  8
0
 10
167.23148612239061
 20
257.35610712392662
 30
0.0
 40
15.0
 50
209.7296705382044
 51
225.69583298831839
  0
LINE
  5
10A9
  8
0
 10
139.8836934914882
 20
255.1481499063203
 30
0.0
 11
139.8836934914882
 21
250.3172043402212
 31
0.0
  0
ARC
  5
10AA
  8
0
 10
135.49205048385099
 20
252.70749128815669
 30
0.0
 40
5.0
 50
326.0822582210742
 51
27.992593786072749
  0
LINE
  5
10AB
  8
0
 10
139.88789453516341
 20
255.18892696729949
 30
0.0
 11
141.35697457357219
 21
262.24299931511098
 31
0.0
  0
ARC
  5
10AC
  8
0
 10
140.08369349148819
 20
255.1481499063203
 30
0.0
 40
0.2
 50
168.23574635819421
 51
207.99259378607269
  0
ARC
  5
10AD
  8
0
 10
142.3359693551964
 20
262.03911401021509
 30
0.0
 40
1.0
 50
90.0
 51
168.2357463581958
  0
ARC
  5
10AE
  8
0
 10
126.61562579349049
 20
257.35610712392662
 30
0.0
 40
15.0
 50
314.30416701168161
 51
330.2703294617956
  0
LINE
  5
10AF
  8
0
 10
135.92355595794061
 20
244.58154405521771
 30
0.0
 11
136.42355595794061
 21
218.53911401021509
 31
0.0
  0
LINE
  5
10B0
  8
0
 10
410.09820077138153
 20
208.5391140102152
 30
0.0
 11
410.09820077138153
 21
218.53911401021509
 31
0.0
  0
LINE
  5
10B1
  8
0
 10
394.09820077138158
 20
218.53911401021509
 30
0.0
 11
394.09820077138158
 21
208.5391140102152
 31
0.0
  0
LINE
  5
10B2
  8
0
 10
394.09820077138158
 20
208.5391140102152
 30
0.0
 11
410.09820077138153
 21
208.5391140102152
 31
0.0
  0
LINE
  5
10B3
  8
0
 10
396.63664948647568
 20
253.14205584942471
 30
0.0
 11
407.58090615630431
 21
253.14205584942471
 31
0.0
  0
LINE
  5
10B4
  8
0
 10
396.42692086081752
 20
251.18828634530701
 30
0.0
 11
407.76948068194559
 21
251.18828634530701
 31
0.0
  0
LINE
  5
10B5
  8
0
 10
408.21712950605729
 20
250.5991140102152
 30
0.0
 11
395.97927203670588
 21
250.5991140102152
 31
0.0
  0
LINE
  5
10B6
  8
0
 10
412.59820077138153
 20
218.53911401021509
 30
0.0
 11
391.59820077138158
 21
218.53911401021509
 31
0.0
  0
LINE
  5
10B7
  8
0
 10
395.89750559137627
 20
250.29587314134059
 30
0.0
 11
408.29889595138673
 21
250.29587314134059
 31
0.0
  0
LINE
  5
10B8
  8
1
 10
402.09820077138158
 20
268.03911401021531
 30
0.0
 11
402.0982007713817
 21
143.53911401021509
 31
0.0
  0
LINE
  5
10B9
  8
0
 10
406.6857873741256
 20
263.0391140102152
 30
0.0
 11
397.5106141686374
 21
263.03911401021543
 31
0.0
  0
LINE
  5
10BA
  8
0
 10
395.06253934860428
 20
255.18892696729949
 30
0.0
 11
396.53161938701322
 21
262.24299931511098
 31
0.0
  0
ARC
  5
10BB
  8
0
 10
397.5106141686374
 20
262.03911401021509
 30
0.0
 40
1.0
 50
90.0
 51
168.2357463581958
  0
LINE
  5
10BC
  8
0
 10
409.13386219415872
 20
255.18892696729949
 30
0.0
 11
407.66478215574978
 21
262.24299931511098
 31
0.0
  0
ARC
  5
10BD
  8
0
 10
406.6857873741256
 20
262.03911401021509
 30
0.0
 40
1.0
 50
11.764253641804171
 51
90.0
  0
LINE
  5
10BE
  8
0
 10
409.13806323783388
 20
255.1481499063203
 30
0.0
 11
409.13806323783388
 21
242.0850124397835
 31
0.0
  0
ARC
  5
10BF
  8
0
 10
402.11595070302099
 20
264.69793736208118
 30
0.0
 40
3.0
 50
269.66099929890152
 51
299.63458235356808
  0
LINE
  5
10C0
  8
0
 10
403.59935045140031
 20
262.09034744292057
 30
0.0
 11
405.49727093116462
 21
262.88420936651193
 31
0.0
  0
ARC
  5
10C1
  8
0
 10
406.2690371692006
 20
261.0391140102152
 30
0.0
 40
2.0
 50
90.0
 51
112.69857631690989
  0
ARC
  5
10C2
  8
0
 10
402.08045083974213
 20
264.69793736208118
 30
0.0
 40
3.0
 50
240.36541764643189
 51
270.33900070109848
  0
LINE
  5
10C3
  8
0
 10
400.5970510913628
 20
262.09034744292057
 30
0.0
 11
398.69913061159838
 21
262.88420936651193
 31
0.0
  0
ARC
  5
10C4
  8
0
 10
397.9273643735624
 20
261.0391140102152
 30
0.0
 40
2.0
 50
67.30142368309005
 51
90.0
  0
ARC
  5
10C5
  8
0
 10
402.10877782138988
 20
258.50022899679152
 30
0.0
 40
0.8
 50
41.037685178419068
 51
138.96231482158089
  0
ARC
  5
10C6
  8
0
 10
382.44424436574678
 20
236.9073817940814
 30
0.0
 40
30.0
 50
33.602711735221362
 51
47.49935354968013
  0
ARC
  5
10C7
  8
0
 10
406.59820077138158
 20
252.95687991566459
 30
0.0
 40
1.0
 50
0.0
 51
33.602711735221362
  0
LINE
  5
10C8
  8
0
 10
407.59820077138158
 20
262.4483838386999
 30
0.0
 11
407.59820077138158
 21
252.9782252516691
 31
0.0
  0
LINE
  5
10C9
  8
0
 10
407.59820077138158
 20
252.95687991566459
 30
0.0
 11
407.82653923205731
 21
250.5991140102152
 31
0.0
  0
LINE
  5
10CA
  8
0
 10
396.61935487139829
 20
262.4483838386999
 30
0.0
 11
396.61935487139829
 21
252.9782252516691
 31
0.0
  0
ARC
  5
10CB
  8
0
 10
397.61935487139829
 20
252.95687991566459
 30
0.0
 40
1.0
 50
146.39728826477861
 51
180.0
  0
LINE
  5
10CC
  8
0
 10
396.61935487139829
 20
252.95687991566459
 30
0.0
 11
396.39101641072261
 21
250.5991140102152
 31
0.0
  0
ARC
  5
10CD
  8
0
 10
421.77331127703297
 20
236.9073817940814
 30
0.0
 40
30.0
 50
132.50064645031981
 51
146.39728826477861
  0
LINE
  5
10CE
  8
0
 10
408.21712950605729
 20
250.5991140102152
 30
0.0
 11
408.29889595138673
 21
250.29587314134059
 31
0.0
  0
ARC
  5
10CF
  8
0
 10
422.25622621078088
 20
257.38127893070202
 30
0.0
 40
15.0
 50
209.00892254597429
 51
229.35444282771439
  0
ARC
  5
10D0
  8
0
 10
381.94017533198212
 20
257.38127893070202
 30
0.0
 40
15.0
 50
310.64555717228558
 51
330.9910774540258
  0
ARC
  5
10D1
  8
0
 10
419.51644353074431
 20
238.272865812238
 30
0.0
 40
11.0
 50
161.4773883406954
 51
211.41614743140761
  0
ARC
  5
10D2
  8
0
 10
408.13806323783399
 20
242.08501243978341
 30
0.0
 40
1.0
 50
341.47738834069543
 51
0.0
  0
ARC
  5
10D3
  8
0
 10
384.67995801201869
 20
238.272865812238
 30
0.0
 40
11.0
 50
328.58385256859248
 51
18.522611659304619
  0
LINE
  5
10D4
  8
0
 10
395.05833830492918
 20
255.1481499063203
 30
0.0
 11
395.05833830492918
 21
242.0850124397835
 31
0.0
  0
ARC
  5
10D5
  8
0
 10
396.05833830492918
 20
242.08501243978341
 30
0.0
 40
1.0
 50
179.9999999999992
 51
198.5226116593046
  0
LINE
  5
10D6
  8
0
 10
391.09820077138158
 20
244.58154405521771
 30
0.0
 11
391.59820077138158
 21
218.53911401021509
 31
0.0
  0
LINE
  5
10D7
  8
0
 10
413.09820077138153
 20
244.58154405521771
 30
0.0
 11
412.59820077138153
 21
218.53911401021509
 31
0.0
  0
LINE
  5
10F2
  8
0
 10
142.6601439068061
 20
263.0391140102152
 30
0.0
 11
142.63683718495221
 21
263.03892556126601
 31
0.0
  0
LINE
  5
10F3
  8
0
 10
142.63683718495221
 20
263.03892556126601
 30
0.0
 11
142.59064433969431
 21
263.03739067000947
 31
0.0
  0
LINE
  5
10F4
  8
0
 10
142.59064433969431
 20
263.03739067000947
 30
0.0
 11
142.5451051463188
 21
263.03425550175768
 31
0.0
  0
LINE
  5
10F5
  8
0
 10
142.5451051463188
 20
263.03425550175768
 30
0.0
 11
142.5226134685679
 21
263.0320687262066
 31
0.0
  0
LINE
  5
10F6
  8
0
 10
151.186968009075
 20
263.0391140102152
 30
0.0
 11
151.210274730929
 21
263.03892556126601
 31
0.0
  0
LINE
  5
10F7
  8
0
 10
151.210274730929
 20
263.03892556126601
 30
0.0
 11
151.25646757618671
 21
263.03739067000947
 31
0.0
  0
LINE
  5
10F8
  8
0
 10
151.25646757618671
 20
263.03739067000947
 30
0.0
 11
151.3020067695623
 21
263.03425550175768
 31
0.0
  0
LINE
  5
10F9
  8
0
 10
151.3020067695623
 20
263.03425550175768
 30
0.0
 11
151.32449844731329
 21
263.0320687262066
 31
0.0
  0
LINE
  5
10FA
  8
0
 10
311.65156653202939
 20
251.18828634530701
 30
0.0
 11
311.55501665088798
 21
251.15627761368469
 31
0.0
  0
LINE
  5
10FB
  8
0
 10
311.55501665088798
 20
251.15627761368469
 30
0.0
 11
311.36107063144482
 21
251.09487847678881
 31
0.0
  0
LINE
  5
10FC
  8
0
 10
311.36107063144482
 20
251.09487847678881
 30
0.0
 11
311.16604887530963
 21
251.0369869652921
 31
0.0
  0
LINE
  5
10FD
  8
0
 10
311.16604887530963
 20
251.0369869652921
 30
0.0
 11
311.06815440530988
 21
251.00936249802189
 31
0.0
  0
LINE
  5
10FE
  8
0
 10
311.06815440530988
 20
251.00936249802189
 30
0.0
 11
310.97001481426321
 21
250.98262190869229
 31
0.0
  0
LINE
  5
10FF
  8
0
 10
310.97001481426321
 20
250.98262190869229
 30
0.0
 11
310.7730322093438
 21
250.93180098949011
 31
0.0
  0
LINE
  5
1100
  8
0
 10
310.7730322093438
 20
250.93180098949011
 30
0.0
 11
310.57516513010768
 21
250.88454073743799
 31
0.0
  0
LINE
  5
1101
  8
0
 10
310.57516513010768
 20
250.88454073743799
 30
0.0
 11
310.37647793379131
 21
250.84085652416471
 31
0.0
  0
LINE
  5
1102
  8
0
 10
310.37647793379131
 20
250.84085652416471
 30
0.0
 11
310.17703524437758
 21
250.8007625581742
 31
0.0
  0
LINE
  5
1103
  8
0
 10
310.17703524437758
 20
250.8007625581742
 30
0.0
 11
309.97690193157769
 21
250.76427188022521
 31
0.0
  0
LINE
  5
1104
  8
0
 10
309.97690193157769
 20
250.76427188022521
 30
0.0
 11
309.87659662519309
 21
250.74738152914639
 31
0.0
  0
LINE
  5
1105
  8
0
 10
309.87659662519309
 20
250.74738152914639
 30
0.0
 11
309.77614308973142
 21
250.7313963590895
 31
0.0
  0
LINE
  5
1106
  8
0
 10
309.77614308973142
 20
250.7313963590895
 30
0.0
 11
309.57482401663469
 21
250.70214668769111
 31
0.0
  0
LINE
  5
1107
  8
0
 10
309.57482401663469
 20
250.70214668769111
 30
0.0
 11
309.37301019230182
 21
250.6765323796289
 31
0.0
  0
LINE
  5
1108
  8
0
 10
309.37301019230182
 20
250.6765323796289
 30
0.0
 11
309.17076725766668
 21
250.65456176608211
 31
0.0
  0
LINE
  5
1109
  8
0
 10
309.17076725766668
 20
250.65456176608211
 30
0.0
 11
308.96816099323422
 21
250.63624199310021
 31
0.0
  0
LINE
  5
110A
  8
0
 10
308.96816099323422
 20
250.63624199310021
 30
0.0
 11
308.76525729768338
 21
250.6215790192789
 31
0.0
  0
LINE
  5
110B
  8
0
 10
308.76525729768338
 20
250.6215790192789
 30
0.0
 11
308.6637145336154
 21
250.61562036893551
 31
0.0
  0
LINE
  5
110C
  8
0
 10
308.6637145336154
 20
250.61562036893551
 30
0.0
 11
308.56212216643479
 21
250.6105776138225
 31
0.0
  0
LINE
  5
110D
  8
0
 10
308.56212216643479
 20
250.6105776138225
 30
0.0
 11
308.35882167018411
 21
250.6032413549917
 31
0.0
  0
LINE
  5
110E
  8
0
 10
308.35882167018411
 20
250.6032413549917
 30
0.0
 11
308.15542193341292
 21
250.59957262894071
 31
0.0
  0
LINE
  5
110F
  8
0
 10
308.15542193341292
 20
250.59957262894071
 30
0.0
 11
308.05370552314707
 21
250.5991140102152
 31
0.0
  0
LINE
  5
1110
  8
0
 10
395.05833830492918
 20
242.50572333165471
 30
0.0
 11
395.18833813799091
 21
243.9106084929067
 31
0.0
  0
LINE
  5
1111
  8
0
 10
395.18833813799091
 20
243.9106084929067
 30
0.0
 11
395.46931264373018
 21
246.6911440965504
 31
0.0
  0
LINE
  5
1112
  8
0
 10
395.46931264373018
 20
246.6911440965504
 30
0.0
 11
395.75394732507311
 21
249.17039519790481
 31
0.0
  0
LINE
  5
1113
  8
0
 10
395.75394732507311
 20
249.17039519790481
 30
0.0
 11
395.89750559137627
 21
250.29587314134059
 31
0.0
  0
LINE
  5
1114
  8
0
 10
391.71084121153041
 20
245.99997459990439
 30
0.0
 11
391.69371565967788
 21
245.98159274414689
 31
0.0
  0
LINE
  5
1115
  8
0
 10
391.69371565967788
 20
245.98159274414689
 30
0.0
 11
391.609033825376
 21
245.8827715840666
 31
0.0
  0
LINE
  5
1116
  8
0
 10
391.609033825376
 20
245.8827715840666
 30
0.0
 11
391.53145604213461
 21
245.783879586956
 31
0.0
  0
LINE
  5
1117
  8
0
 10
391.53145604213461
 20
245.783879586956
 30
0.0
 11
391.4609035339538
 21
245.6850957961046
 31
0.0
  0
LINE
  5
1118
  8
0
 10
391.4609035339538
 20
245.6850957961046
 30
0.0
 11
391.39724204311722
 21
245.58655558696759
 31
0.0
  0
LINE
  5
1119
  8
0
 10
391.39724204311722
 20
245.58655558696759
 30
0.0
 11
391.3676742324709
 21
245.53694486519109
 31
0.0
  0
LINE
  5
111A
  8
0
 10
391.3676742324709
 20
245.53694486519109
 30
0.0
 11
391.33949247403888
 21
245.48687855612579
 31
0.0
  0
LINE
  5
111B
  8
0
 10
391.33949247403888
 20
245.48687855612579
 30
0.0
 11
391.28741638756401
 21
245.38543997556951
 31
0.0
  0
LINE
  5
111C
  8
0
 10
391.28741638756401
 20
245.38543997556951
 30
0.0
 11
391.24125720955527
 21
245.28236429645901
 31
0.0
  0
LINE
  5
111D
  8
0
 10
391.24125720955527
 20
245.28236429645901
 30
0.0
 11
391.20123374928028
 21
245.17777988164991
 31
0.0
  0
LINE
  5
111E
  8
0
 10
391.20123374928028
 20
245.17777988164991
 30
0.0
 11
391.16753984404119
 21
245.07181805143981
 31
0.0
  0
LINE
  5
111F
  8
0
 10
391.16753984404119
 20
245.07181805143981
 30
0.0
 11
391.14034432711162
 21
244.964612088954
 31
0.0
  0
LINE
  5
1120
  8
0
 10
391.14034432711162
 20
244.964612088954
 30
0.0
 11
391.12922945220561
 21
244.91058448957949
 31
0.0
  0
LINE
  5
1121
  8
0
 10
391.12922945220561
 20
244.91058448957949
 30
0.0
 11
391.11979131837711
 21
244.85629620108739
 31
0.0
  0
LINE
  5
1122
  8
0
 10
391.11979131837711
 20
244.85629620108739
 30
0.0
 11
391.10600092784858
 21
244.7470053495268
 31
0.0
  0
LINE
  5
1123
  8
0
 10
391.10600092784858
 20
244.7470053495268
 30
0.0
 11
391.0990700263614
 21
244.63687761770021
 31
0.0
  0
LINE
  5
1124
  8
0
 10
391.0990700263614
 20
244.63687761770021
 30
0.0
 11
391.09820077138158
 21
244.58154405521771
 31
0.0
  0
LINE
  5
1125
  8
0
 10
395.04413336675549
 20
242.29229801695641
 30
0.0
 11
395.04427672189729
 21
242.31161227929911
 31
0.0
  0
LINE
  5
1126
  8
0
 10
395.04427672189729
 20
242.31161227929911
 30
0.0
 11
395.04542965442158
 21
242.3503348840112
 31
0.0
  0
LINE
  5
1127
  8
0
 10
395.04542965442158
 20
242.3503348840112
 30
0.0
 11
395.04775062456002
 21
242.3891720776131
 31
0.0
  0
LINE
  5
1128
  8
0
 10
395.04775062456002
 20
242.3891720776131
 30
0.0
 11
395.04935381961133
 21
242.40862959078351
 31
0.0
  0
LINE
  5
1129
  8
0
 10
409.13806323783388
 20
242.50572333165471
 30
0.0
 11
409.00806340477232
 21
243.9106084929067
 31
0.0
  0
LINE
  5
112A
  8
0
 10
409.00806340477232
 20
243.9106084929067
 30
0.0
 11
408.72708889903299
 21
246.6911440965504
 31
0.0
  0
LINE
  5
112B
  8
0
 10
408.72708889903299
 20
246.6911440965504
 30
0.0
 11
408.44245421769
 21
249.17039519790481
 31
0.0
  0
LINE
  5
112C
  8
0
 10
408.44245421769
 20
249.17039519790481
 30
0.0
 11
408.29889595138673
 21
250.29587314134059
 31
0.0
  0
LINE
  5
112D
  8
0
 10
409.15226817600762
 20
242.29229801695641
 30
0.0
 11
409.15212482086588
 21
242.31161227929911
 31
0.0
  0
LINE
  5
112E
  8
0
 10
409.15212482086588
 20
242.31161227929911
 30
0.0
 11
409.15097188834159
 21
242.3503348840112
 31
0.0
  0
LINE
  5
112F
  8
0
 10
409.15097188834159
 20
242.3503348840112
 30
0.0
 11
409.1486509182032
 21
242.3891720776131
 31
0.0
  0
LINE
  5
1130
  8
0
 10
409.1486509182032
 20
242.3891720776131
 30
0.0
 11
409.14704772315167
 21
242.40862959078351
 31
0.0
  0
LINE
  5
1131
  8
0
 10
321.89038095782871
 20
259.10515899295632
 30
0.0
 11
321.89037841523509
 21
259.10513857979572
 31
0.0
  0
LINE
  5
1132
  8
0
 10
321.89037841523509
 20
259.10513857979572
 30
0.0
 11
321.8903580745008
 21
259.10497527462479
 31
0.0
  0
LINE
  5
1133
  8
0
 10
321.8903580745008
 20
259.10497527462479
 30
0.0
 11
321.89031739310752
 21
259.10464866488712
 31
0.0
  0
LINE
  5
1134
  8
0
 10
321.89031739310752
 20
259.10464866488712
 30
0.0
 11
321.8902894247077
 21
259.10442412115952
 31
0.0
  0
LINE
  5
1135
  8
0
 10
321.8902894247077
 20
259.10442412115952
 30
0.0
 11
321.89025637120551
 21
259.10415875179029
 31
0.0
  0
LINE
  5
1136
  8
0
 10
321.89025637120551
 20
259.10415875179029
 30
0.0
 11
321.8901750090206
 21
259.10350553714648
 31
0.0
  0
LINE
  5
1137
  8
0
 10
321.8901750090206
 20
259.10350553714648
 30
0.0
 11
321.89007330685371
 21
259.10268902337128
 31
0.0
  0
LINE
  5
1138
  8
0
 10
321.89007330685371
 20
259.10268902337128
 30
0.0
 11
321.88995126508092
 21
259.10170921348441
 31
0.0
  0
LINE
  5
1139
  8
0
 10
321.88995126508092
 20
259.10170921348441
 30
0.0
 11
321.88980888415352
 21
259.10056611110957
 31
0.0
  0
LINE
  5
113A
  8
0
 10
321.88980888415352
 20
259.10056611110957
 30
0.0
 11
321.8896461645981
 21
259.09925972047438
 31
0.0
  0
LINE
  5
113B
  8
0
 10
321.8896461645981
 20
259.09925972047438
 30
0.0
 11
321.88955717802003
 21
259.09854529354538
 31
0.0
  0
LINE
  5
113C
  8
0
 10
321.88955717802003
 20
259.09854529354538
 30
0.0
 11
321.88946310701658
 21
259.0977900464103
 31
0.0
  0
LINE
  5
113D
  8
0
 10
321.88946310701658
 20
259.0977900464103
 30
0.0
 11
321.88925971208579
 21
259.09615709435241
 31
0.0
  0
LINE
  5
113E
  8
0
 10
321.88925971208579
 20
259.09615709435241
 30
0.0
 11
321.88903598055799
 21
259.0943608703401
 31
0.0
  0
LINE
  5
113F
  8
0
 10
321.88903598055799
 20
259.0943608703401
 30
0.0
 11
321.88879191326077
 21
259.09240138101637
 31
0.0
  0
LINE
  5
1140
  8
0
 10
321.88879191326077
 20
259.09240138101637
 30
0.0
 11
321.8885275110967
 21
259.09027863362797
 31
0.0
  0
LINE
  5
1141
  8
0
 10
321.8885275110967
 20
259.09027863362797
 30
0.0
 11
321.88824277504341
 21
259.08799263602549
 31
0.0
  0
LINE
  5
1142
  8
0
 10
321.88824277504341
 20
259.08799263602549
 30
0.0
 11
321.88809278213449
 21
259.08678842101239
 31
0.0
  0
LINE
  5
1143
  8
0
 10
321.88809278213449
 20
259.08678842101239
 30
0.0
 11
321.88793770615422
 21
259.0855433966633
 31
0.0
  0
LINE
  5
1144
  8
0
 10
321.88793770615422
 20
259.0855433966633
 30
0.0
 11
321.88761230555713
 21
259.08293092459951
 31
0.0
  0
LINE
  5
1145
  8
0
 10
321.88761230555713
 20
259.08293092459951
 30
0.0
 11
321.88726657445579
 21
259.0801552294958
 31
0.0
  0
LINE
  5
1146
  8
0
 10
321.88726657445579
 20
259.0801552294958
 30
0.0
 11
321.88708608536263
 21
259.07870617648831
 31
0.0
  0
LINE
  5
1147
  8
0
 10
412.48556033123282
 20
245.99997459990439
 30
0.0
 11
412.50268588308512
 21
245.98159274414689
 31
0.0
  0
LINE
  5
1148
  8
0
 10
412.50268588308512
 20
245.98159274414689
 30
0.0
 11
412.58736771738711
 21
245.8827715840666
 31
0.0
  0
LINE
  5
1149
  8
0
 10
412.58736771738711
 20
245.8827715840666
 30
0.0
 11
412.66494550062851
 21
245.783879586956
 31
0.0
  0
LINE
  5
114A
  8
0
 10
412.66494550062851
 20
245.783879586956
 30
0.0
 11
412.73549800880932
 21
245.6850957961046
 31
0.0
  0
LINE
  5
114B
  8
0
 10
412.73549800880932
 20
245.6850957961046
 30
0.0
 11
412.79915949964578
 21
245.58655558696759
 31
0.0
  0
LINE
  5
114C
  8
0
 10
412.79915949964578
 20
245.58655558696759
 30
0.0
 11
412.82872731029221
 21
245.53694486519109
 31
0.0
  0
LINE
  5
114D
  8
0
 10
412.82872731029221
 20
245.53694486519109
 30
0.0
 11
412.85690906872418
 21
245.48687855612579
 31
0.0
  0
LINE
  5
114E
  8
0
 10
412.85690906872418
 20
245.48687855612579
 30
0.0
 11
412.90898515519899
 21
245.38543997556951
 31
0.0
  0
LINE
  5
114F
  8
0
 10
412.90898515519899
 20
245.38543997556951
 30
0.0
 11
412.95514433320778
 21
245.28236429645901
 31
0.0
  0
LINE
  5
1150
  8
0
 10
412.95514433320778
 20
245.28236429645901
 30
0.0
 11
412.99516779348272
 21
245.17777988164991
 31
0.0
  0
LINE
  5
1151
  8
0
 10
412.99516779348272
 20
245.17777988164991
 30
0.0
 11
413.02886169872198
 21
245.07181805143981
 31
0.0
  0
LINE
  5
1152
  8
0
 10
413.02886169872198
 20
245.07181805143981
 30
0.0
 11
413.05605721565149
 21
244.964612088954
 31
0.0
  0
LINE
  5
1153
  8
0
 10
413.05605721565149
 20
244.964612088954
 30
0.0
 11
413.06717209055762
 21
244.91058448957949
 31
0.0
  0
LINE
  5
1154
  8
0
 10
413.06717209055762
 20
244.91058448957949
 30
0.0
 11
413.076610224386
 21
244.85629620108739
 31
0.0
  0
LINE
  5
1155
  8
0
 10
413.076610224386
 20
244.85629620108739
 30
0.0
 11
413.09040061491447
 21
244.7470053495268
 31
0.0
  0
LINE
  5
1156
  8
0
 10
413.09040061491447
 20
244.7470053495268
 30
0.0
 11
413.09733151640182
 21
244.63687761770021
 31
0.0
  0
LINE
  5
1157
  8
0
 10
413.09733151640182
 20
244.63687761770021
 30
0.0
 11
413.09820077138153
 21
244.58154405521771
 31
0.0
  0
LINE
  5
1165
  8
0
 10
245.39038095782871
 20
148.53911401021509
 30
0.0
 11
238.39038095782871
 21
148.5391140102152
 31
0.0
  0
LINE
  5
1166
  8
0
 10
236.89038095782871
 20
208.5391140102152
 30
0.0
 11
236.89038095782871
 21
150.03911401021529
 31
0.0
  0
LINE
  5
1167
  8
3
 10
237.70238095782861
 20
204.5391140102152
 30
0.0
 11
237.70238095782881
 21
149.22711401021499
 31
0.0
  0
LINE
  5
1168
  8
3
 10
246.07838095782881
 20
204.5391140102152
 30
0.0
 11
246.07838095782881
 21
149.22711401021519
 31
0.0
  0
LINE
  5
1169
  8
0
 10
246.89038095782871
 20
208.5391140102152
 30
0.0
 11
246.89038095782871
 21
150.03911401021509
 31
0.0
  0
LINE
  5
116A
  8
0
 10
246.89038095782871
 20
150.03911401021509
 30
0.0
 11
245.39038095782871
 21
148.53911401021509
 31
0.0
  0
LINE
  5
116B
  8
0
 10
238.39038095782871
 20
148.5391140102152
 30
0.0
 11
236.89038095782871
 21
150.0391140102152
 31
0.0
  0
LINE
  5
116C
  8
0
 10
246.89038095782871
 20
204.5391140102152
 30
0.0
 11
236.89038095782871
 21
204.5391140102152
 31
0.0
  0
LINE
  5
116D
  8
3
 10
246.07838095782881
 20
204.5391140102152
 30
0.0
 11
246.89038095782871
 21
205.94553926596089
 31
0.0
  0
LINE
  5
116E
  8
3
 10
237.70238095782861
 20
204.5391140102152
 30
0.0
 11
236.89038095782871
 21
205.94553926596089
 31
0.0
  0
LINE
  5
116F
  8
0
 10
246.89038095782871
 20
150.03911401021509
 30
0.0
 11
236.89038095782871
 21
150.0391140102152
 31
0.0
  0
LINE
  5
1173
  8
3
 10
151.12155595794059
 20
204.5391140102152
 30
0.0
 11
151.1215559579407
 21
149.2271140102153
 31
0.0
  0
LINE
  5
1174
  8
0
 10
151.93355595794051
 20
208.5391140102152
 30
0.0
 11
151.9335559579406
 21
150.0391140102152
 31
0.0
  0
LINE
  5
1175
  8
0
 10
151.93355595794051
 20
150.03911401021509
 30
0.0
 11
141.93355595794051
 21
150.0391140102152
 31
0.0
  0
LINE
  5
1176
  8
0
 10
150.43355595794051
 20
148.53911401021509
 30
0.0
 11
143.43355595794051
 21
148.5391140102152
 31
0.0
  0
LINE
  5
1177
  8
0
 10
151.93355595794051
 20
150.03911401021509
 30
0.0
 11
150.43355595794051
 21
148.53911401021509
 31
0.0
  0
LINE
  5
1178
  8
0
 10
151.9335559579406
 20
204.5391140102152
 30
0.0
 11
141.93355595794051
 21
204.5391140102152
 31
0.0
  0
LINE
  5
1179
  8
3
 10
151.1215559579407
 20
204.5391140102152
 30
0.0
 11
151.9335559579406
 21
205.94553926596089
 31
0.0
  0
LINE
  5
117A
  8
3
 10
142.74555595794041
 20
204.5391140102152
 30
0.0
 11
142.74555595794061
 21
149.2271140102151
 31
0.0
  0
LINE
  5
117B
  8
0
 10
141.93355595794051
 20
208.5391140102152
 30
0.0
 11
141.93355595794051
 21
150.0391140102152
 31
0.0
  0
LINE
  5
117C
  8
0
 10
143.43355595794051
 20
148.5391140102152
 30
0.0
 11
141.93355595794051
 21
150.0391140102152
 31
0.0
  0
LINE
  5
117D
  8
3
 10
142.7455559579405
 20
204.5391140102152
 30
0.0
 11
141.9335559579406
 21
205.94553926596089
 31
0.0
  0
LINE
  5
117F
  8
3
 10
406.29620077138162
 20
204.5391140102152
 30
0.0
 11
406.29620077138168
 21
149.2271140102153
 31
0.0
  0
LINE
  5
1180
  8
3
 10
397.92020077138147
 20
204.5391140102152
 30
0.0
 11
397.9202007713817
 21
149.22711401021519
 31
0.0
  0
LINE
  5
1181
  8
0
 10
397.10820077138158
 20
208.5391140102152
 30
0.0
 11
397.10820077138197
 21
150.03911401021489
 31
0.0
  0
LINE
  5
1182
  8
0
 10
407.10820077138152
 20
208.5391140102152
 30
0.0
 11
407.10820077138129
 21
150.03911401021489
 31
0.0
  0
LINE
  5
1183
  8
0
 10
398.60820077138158
 20
148.5391140102152
 30
0.0
 11
397.10820077138158
 21
150.0391140102152
 31
0.0
  0
LINE
  5
1184
  8
0
 10
407.10820077138152
 20
150.03911401021509
 30
0.0
 11
397.10820077138158
 21
150.0391140102152
 31
0.0
  0
LINE
  5
1185
  8
0
 10
405.60820077138158
 20
148.53911401021509
 30
0.0
 11
398.60820077138158
 21
148.5391140102152
 31
0.0
  0
LINE
  5
1186
  8
0
 10
407.10820077138152
 20
150.03911401021509
 30
0.0
 11
405.60820077138158
 21
148.53911401021509
 31
0.0
  0
LINE
  5
1187
  8
0
 10
407.10820077138152
 20
204.5391140102152
 30
0.0
 11
397.10820077138158
 21
204.5391140102152
 31
0.0
  0
LINE
  5
1188
  8
3
 10
397.92020077138147
 20
204.5391140102152
 30
0.0
 11
397.10820077138158
 21
205.94553926596089
 31
0.0
  0
LINE
  5
1189
  8
3
 10
406.29620077138162
 20
204.5391140102152
 30
0.0
 11
407.10820077138152
 21
205.94553926596089
 31
0.0
  0
LINE
  5
11E7
  8
0
 10
243.2795978586947
 20
333.92937346845463
 30
0.0
 11
244.64038095782871
 21
333.92937346845463
 31
0.0
  0
LINE
  5
11E8
  8
0
 10
243.27959785869481
 20
334.97937346845458
 30
0.0
 11
244.64038095782871
 21
334.97937346845458
 31
0.0
  0
LINE
  5
11E9
  8
0
 10
239.14038095782871
 20
334.97937346845458
 30
0.0
 11
240.50116405696269
 21
334.97937346845458
 31
0.0
  0
LINE
  5
11EA
  8
0
 10
239.14038095782871
 20
333.92937346845463
 30
0.0
 11
240.50116405696281
 21
333.92937346845463
 31
0.0
  0
ARC
  5
11EB
  8
0
 10
243.72104286384069
 20
335.51130661268593
 30
0.0
 40
0.6912500000000011
 50
163.3417582272229
 51
230.3111220593475
  0
ARC
  5
11EC
  8
0
 10
243.72104286384069
 20
333.39744032422351
 30
0.0
 40
0.6912500000000003
 50
129.6888779406687
 51
196.65824177277699
  0
ARC
  5
11ED
  8
0
 10
242.6803809578287
 20
333.08605333047518
 30
0.0
 40
0.3949999999999998
 50
223.34175822722349
 51
16.658241772777039
  0
ARC
  5
11EE
  8
0
 10
241.89038095782871
 20
332.3405071799923
 30
0.0
 40
0.6912500000000003
 50
43.341758227223458
 51
136.65824177277651
  0
ARC
  5
11EF
  8
0
 10
241.10038095782869
 20
333.08605333047518
 30
0.0
 40
0.3950000000000001
 50
163.3417582272229
 51
316.65824177277648
  0
ARC
  5
11F0
  8
0
 10
240.0597190518169
 20
333.39744032422351
 30
0.0
 40
0.691250000000001
 50
343.3417582272229
 51
50.311122059331304
  0
ARC
  5
11F1
  8
0
 10
242.6803809578287
 20
335.82269360643409
 30
0.0
 40
0.3950000000000002
 50
343.3417582272229
 51
136.65824177277651
  0
ARC
  5
11F2
  8
0
 10
241.89038095782871
 20
336.56823975691708
 30
0.0
 40
0.6912499999999989
 50
223.34175822722349
 51
316.65824177277648
  0
ARC
  5
11F3
  8
0
 10
241.10038095782869
 20
335.82269360643409
 30
0.0
 40
0.3949999999999998
 50
43.341758227223458
 51
196.65824177277699
  0
ARC
  5
11F4
  8
0
 10
240.0597190518169
 20
335.51130661268593
 30
0.0
 40
0.6912500000000005
 50
309.68887794065239
 51
16.658241772777039
  0
CIRCLE
  5
11F9
  8
0
 10
241.89038095782871
 20
334.45437346845461
 30
0.0
 40
5.0
  0
LINE
  5
11FA
  8
0
 10
151.92355595794061
 20
244.8758108408372
 30
0.0
 11
151.92355595794061
 21
243.44840676743189
 31
0.0
  0
LINE
  5
11FB
  8
0
 10
141.92355595794061
 20
244.8758108408372
 30
0.0
 11
141.92355595794061
 21
243.26871951085801
 31
0.0
  0
LINE
  5
11FC
  8
0
 10
149.6091471405297
 20
245.53911401021509
 30
0.0
 11
144.23796477535149
 21
245.53911401021509
 31
0.0
  0
ARC
  5
11FD
  8
0
 10
146.92355595794061
 20
231.79911401021511
 30
0.0
 40
14.0
 50
69.075167572360144
 51
78.940519963796405
  0
ARC
  5
11FE
  8
0
 10
146.92355595794061
 20
231.79911401021511
 30
0.0
 40
14.0
 50
101.0594800362036
 51
110.9248324276398
  0
LINE
  5
11FF
  8
0
 10
151.92355595794061
 20
244.8758108408372
 30
0.0
 11
141.92355595794061
 21
244.87581084083709
 31
0.0
  0
ARC
  5
1203
  8
0
 10
241.89038095782871
 20
334.45437346845461
 30
0.0
 40
2.6855911825890351
 50
11.273214125907071
 51
168.72678587409291
  0
LINE
  5
1204
  8
0
 10
244.64038095782871
 20
334.97937346845458
 30
0.0
 11
244.64038095782871
 21
333.92937346845463
 31
0.0
  0
LINE
  5
1205
  8
0
 10
239.14038095782871
 20
334.97937346845458
 30
0.0
 11
239.14038095782871
 21
333.92937346845463
 31
0.0
  0
ARC
  5
1206
  8
0
 10
241.89038095782871
 20
334.45437346845461
 30
0.0
 40
2.6855911825890351
 50
191.273214125907
 51
348.72678587408973
  0
LINE
  5
1210
  8
0
 10
242.666614464133
 20
244.8758108408372
 30
0.0
 11
236.88038095782869
 21
244.87581084083709
 31
0.0
  0
ARC
  5
1211
  8
0
 10
241.88038095782869
 20
231.79911401021511
 30
0.0
 40
14.0
 50
101.0594800362036
 51
110.9248324276398
  0
LINE
  5
1212
  8
0
 10
244.34787466136501
 20
245.53911401021509
 30
0.0
 11
239.1947897752396
 21
245.53911401021509
 31
0.0
  0
LINE
  5
1213
  8
0
 10
236.88038095782869
 20
244.8758108408372
 30
0.0
 11
236.88038095782869
 21
242.49250963985651
 31
0.0
  0
TEXT
  5
12FF
  8
0
 62
     3
 10
0.0
 20
0.0
 30
0.0
 40
10.0
  1
FKR10X60-OG
  7
STANDARD1
  0
ENDSEC
  0
EOF
