  0
SECTION
  2
HEADER
  9
$ACADVER
  1
AC1009
  9
$INSBASE
 10
0.0
 20
0.0
 30
0.0
  9
$EXTMIN
 10
0.0
 20
-2.960436562073669
 30
0.0
  9
$EXTMAX
 10
441.27800866431511
 20
352.93566272205868
 30
0.0
  9
$LIMMIN
 10
0.0
 20
0.0
  9
$LIMMAX
 10
187.5
 20
135.0
  9
$ORTHOMODE
 70
     0
  9
$REGENMODE
 70
     1
  9
$FILLMODE
 70
     1
  9
$QTEXTMODE
 70
     0
  9
$MIRRTEXT
 70
     0
  9
$DRAGMODE
 70
     2
  9
$LTSCALE
 40
10.0
  9
$OSMODE
 70
    55
  9
$ATTMODE
 70
     1
  9
$TEXTSIZE
 40
4.0
  9
$TRACEWID
 40
0.05
  9
$TEXTSTYLE
  7
STANDARD
  9
$CLAYER
  8
0
  9
$CELTYPE
  6
BYLAYER
  9
$CECOLOR
 62
   256
  9
$DIMSCALE
 40
0.5
  9
$DIMASZ
 40
3.0
  9
$DIMEXO
 40
2.0
  9
$DIMDLI
 40
0.38
  9
$DIMRND
 40
0.0
  9
$DIMDLE
 40
0.0
  9
$DIMEXE
 40
2.0
  9
$DIMTP
 40
0.0
  9
$DIMTM
 40
0.0
  9
$DIMTXT
 40
3.0
  9
$DIMCEN
 40
0.0
  9
$DIMTSZ
 40
0.0
  9
$DIMTOL
 70
     0
  9
$DIMLIM
 70
     0
  9
$DIMTIH
 70
     0
  9
$DIMTOH
 70
     0
  9
$DIMSE1
 70
     0
  9
$DIMSE2
 70
     0
  9
$DIMTAD
 70
     1
  9
$DIMZIN
 70
     0
  9
$DIMBLK
  1

  9
$DIMASO
 70
     0
  9
$DIMSHO
 70
     0
  9
$DIMPOST
  1

  9
$DIMAPOST
  1

  9
$DIMALT
 70
     0
  9
$DIMALTD
 70
     2
  9
$DIMALTF
 40
25.399999999999999
  9
$DIMLFAC
 40
1.0
  9
$DIMTOFL
 70
     0
  9
$DIMTVP
 40
1.6000000000000001
  9
$DIMTIX
 70
     1
  9
$DIMSOXD
 70
     0
  9
$DIMSAH
 70
     0
  9
$DIMBLK1
  1

  9
$DIMBLK2
  1

  9
$DIMSTYLE
  2
STANDARD
  9
$DIMCLRD
 70
     0
  9
$DIMCLRE
 70
     0
  9
$DIMCLRT
 70
     0
  9
$DIMTFAC
 40
1.0
  9
$DIMGAP
 40
0.09
  9
$LUNITS
 70
     2
  9
$LUPREC
 70
     4
  9
$SKETCHINC
 40
0.1
  9
$FILLETRAD
 40
1.25
  9
$AUNITS
 70
     0
  9
$AUPREC
 70
     0
  9
$MENU
  1
E:\r13\win\SUPPORT\ACAD
  9
$ELEVATION
 40
0.0
  9
$PELEVATION
 40
0.0
  9
$THICKNESS
 40
0.0
  9
$LIMCHECK
 70
     0
  9
$BLIPMODE
 70
     0
  9
$CHAMFERA
 40
0.0
  9
$CHAMFERB
 40
0.0
  9
$SKPOLY
 70
     0
  9
$TDCREATE
 40
2449840.6143865739
  9
$TDUPDATE
 40
2456598.6561601618
  9
$TDINDWG
 40
0.2447382639
  9
$TDUSRTIMER
 40
0.2447382639
  9
$USRTIMER
 70
     1
  9
$ANGBASE
 50
0.0
  9
$ANGDIR
 70
     0
  9
$PDMODE
 70
     0
  9
$PDSIZE
 40
0.0
  9
$PLINEWID
 40
0.0
  9
$COORDS
 70
     1
  9
$SPLFRAME
 70
     0
  9
$SPLINETYPE
 70
     6
  9
$SPLINESEGS
 70
     8
  9
$ATTDIA
 70
     0
  9
$ATTREQ
 70
     1
  9
$HANDLING
 70
     1
  9
$HANDSEED
  5
1810
  9
$SURFTAB1
 70
     6
  9
$SURFTAB2
 70
     6
  9
$SURFTYPE
 70
     6
  9
$SURFU
 70
     6
  9
$SURFV
 70
     6
  9
$UCSNAME
  2

  9
$UCSORG
 10
0.0
 20
0.0
 30
0.0
  9
$UCSXDIR
 10
1.0
 20
0.0
 30
0.0
  9
$UCSYDIR
 10
0.0
 20
1.0
 30
0.0
  9
$PUCSNAME
  2

  9
$PUCSORG
 10
0.0
 20
0.0
 30
0.0
  9
$PUCSXDIR
 10
1.0
 20
0.0
 30
0.0
  9
$PUCSYDIR
 10
0.0
 20
1.0
 30
0.0
  9
$USERI1
 70
     0
  9
$USERI2
 70
     1
  9
$USERI3
 70
     1
  9
$USERI4
 70
     0
  9
$USERI5
 70
     0
  9
$USERR1
 40
0.0
  9
$USERR2
 40
0.0
  9
$USERR3
 40
0.0
  9
$USERR4
 40
0.0
  9
$USERR5
 40
0.0
  9
$WORLDVIEW
 70
     1
  9
$SHADEDGE
 70
     3
  9
$SHADEDIF
 70
    70
  9
$TILEMODE
 70
     1
  9
$MAXACTVP
 70
    16
  9
$PLIMCHECK
 70
     0
  9
$PEXTMIN
 10
1.0000000000000000E+020
 20
1.0000000000000000E+020
 30
1.0000000000000000E+020
  9
$PEXTMAX
 10
-1.0000000000000000E+020
 20
-1.0000000000000000E+020
 30
-1.0000000000000000E+020
  9
$PLIMMIN
 10
0.0
 20
0.0
  9
$PLIMMAX
 10
12.0
 20
9.0
  9
$UNITMODE
 70
     0
  9
$VISRETAIN
 70
     0
  9
$PLINEGEN
 70
     0
  9
$PSLTSCALE
 70
     0
  0
ENDSEC
  0
SECTION
  2
TABLES
  0
TABLE
  2
VPORT
 70
     1
  0
VPORT
  2
*ACTIVE
 70
     0
 10
0.0
 20
0.0
 11
1.0
 21
1.0
 12
220.63900535958811
 22
228.9717173922576
 13
0.0
 23
0.0
 14
5.0
 24
5.0
 15
5.0
 25
5.0
 16
0.0
 26
0.0
 36
1.0
 17
0.0
 27
0.0
 37
0.0
 40
467.97990735089212
 41
1.7807262569832401
 42
50.0
 43
0.0
 44
0.0
 50
0.0
 51
0.0
 71
     0
 72
   100
 73
     1
 74
     0
 75
     0
 76
     0
 77
     0
 78
     0
  0
ENDTAB
  0
TABLE
  2
LTYPE
 70
     3
  0
LTYPE
  2
CONTINUOUS
 70
     0
  3
Solid Line
 72
    65
 73
     0
 40
0.0
  0
LTYPE
  2
CENTER
 70
     0
  3
____ _ ____ _ ____ _ ____ _ ____ _ ____ _ ____
 72
    65
 73
     4
 40
2.0
 49
1.25
 49
-0.25
 49
0.25
 49
-0.25
  0
LTYPE
  2
PHANTOM2
 70
     0
  3
___ _ _ ___ _ _ ___ _ _ ___ _ _
 72
    65
 73
     6
 40
1.25
 49
0.625
 49
-0.125
 49
0.125
 49
-0.125
 49
0.125
 49
-0.125
  0
ENDTAB
  0
TABLE
  2
LAYER
 70
     3
  0
LAYER
  2
0
 70
     0
 62
     7
  6
CONTINUOUS
  0
LAYER
  2
1
 70
     0
 62
     1
  6
CENTER
  0
LAYER
  2
3
 70
     0
 62
     3
  6
CONTINUOUS
  0
ENDTAB
  0
TABLE
  2
STYLE
 70
     2
  0
STYLE
  2
STANDARD
 70
     0
 40
0.0
 41
1.0
 50
0.0
 71
     0
 42
4.0
  3
TXT
  4
BIGFONT
  0
STYLE
  2
STANDARD1
 70
     0
 40
0.0
 41
1.0
 50
0.0
 71
     0
 42
3.0
  3
txt
  4

  0
ENDTAB
  0
TABLE
  2
VIEW
 70
     1
  0
VIEW
  2
ALL
 70
     0
 40
179.66152299999999
 10
141.903918
 20
89.830760999999995
 41
0.0
 11
0.0
 21
0.0
 31
1.0
 12
0.0
 22
0.0
 32
0.0
 42
0.0
 43
0.0
 44
0.0
 50
0.0
 71
     0
  0
ENDTAB
  0
TABLE
  2
UCS
 70
     0
  0
ENDTAB
  0
TABLE
  2
APPID
 70
     4
  0
APPID
  2
ACAD
 70
     0
  0
APPID
  2
DCO15
 70
     0
  0
APPID
  2
ACAD_MLEADERVER
 70
     0
  0
APPID
  2
ACAD_NAV_VCDISPLAY
 70
     0
  0
ENDTAB
  0
TABLE
  2
DIMSTYLE
 70
     1
  0
DIMSTYLE
  2
STANDARD
 70
     0
  3

  4

  5

  6

  7

 40
1.0
 41
0.18
 42
0.0625
 43
0.38
 44
0.18
 45
0.0
 46
0.0
 47
0.0
 48
0.0
140
0.18
141
0.09
142
0.0
143
25.399999999999999
144
1.0
145
0.0
146
1.0
147
0.09
 71
     0
 72
     0
 73
     1
 74
     1
 75
     0
 76
     0
 77
     0
 78
     0
170
     0
171
     2
172
     0
173
     0
174
     0
175
     0
176
     0
177
     0
178
     0
  0
ENDTAB
  0
ENDSEC
  0
SECTION
  2
BLOCKS
  0
BLOCK
  8
0
  2
$MODEL_SPACE
 70
     0
 10
0.0
 20
0.0
 30
0.0
  3
$MODEL_SPACE
  1

  0
ENDBLK
  5
1BD
  8
0
  0
BLOCK
 67
     1
  8
0
  2
$PAPER_SPACE
 70
     0
 10
0.0
 20
0.0
 30
0.0
  3
$PAPER_SPACE
  1

  0
ENDBLK
  5
1BB
 67
     1
  8
0
  0
ENDSEC
  0
SECTION
  2
ENTITIES
  0
LINE
  5
11FE
  8
0
 10
229.96260149911609
 20
222.22906710372229
 30
0.0
 11
229.96260149911609
 21
200.8053605178936
 31
0.0
  0
LINE
  5
11FF
  8
0
 10
256.96260149911609
 20
200.8053605178936
 30
0.0
 11
256.96260149911609
 21
217.80536051789349
 31
0.0
  0
LINE
  5
1200
  8
0
 10
324.67755536839832
 20
239.7753605178936
 30
0.0
 11
315.81556358971761
 21
239.7753605178936
 31
0.0
  0
LINE
  5
1201
  8
0
 10
331.42855185630663
 20
241.2172139862621
 30
0.0
 11
329.43960784749328
 21
240.5513366081012
 31
0.0
  0
LINE
  5
1202
  8
0
 10
256.96260149911609
 20
200.8053605178936
 30
0.0
 11
229.96260149911609
 21
200.8053605178936
 31
0.0
  0
LINE
  5
1203
  8
1
 10
243.46260149911609
 20
238.80536051789349
 30
0.0
 11
243.46260149911609
 21
155.8053605178936
 31
0.0
  0
LINE
  5
1205
  8
0
 10
252.97260149911611
 20
190.8053605178936
 30
0.0
 11
252.97260149911611
 21
200.8053605178936
 31
0.0
  0
LINE
  5
1206
  8
0
 10
233.97260149911611
 20
200.8053605178936
 30
0.0
 11
233.97260149911611
 21
190.8053605178936
 31
0.0
  0
LINE
  5
1208
  8
0
 10
233.97260149911611
 20
190.8053605178936
 30
0.0
 11
252.97260149911611
 21
190.8053605178936
 31
0.0
  0
LINE
  5
1216
  8
0
 10
334.34017957332878
 20
253.80536051789349
 30
0.0
 11
334.47260149911602
 21
253.8053605178936
 31
0.0
  0
LINE
  5
1217
  8
0
 10
338.47260149911608
 20
249.8053605178936
 30
0.0
 11
338.47260149911608
 21
248.96642430942569
 31
0.0
  0
ARC
  5
1218
  8
0
 10
235.96260149911609
 20
222.22906710372229
 30
0.0
 40
6.0
 50
114.1848432038958
 51
180.0
  0
ARC
  5
1219
  8
0
 10
360.50584769206819
 20
-55.088404087188671
 30
0.0
 40
310.0
 50
94.841832834640755
 51
114.18484320389619
  0
ARC
  5
121A
  8
0
 10
334.47260149911608
 20
249.8053605178936
 30
0.0
 40
4.0
 50
0.0
 51
90.0
  0
ARC
  5
121B
  8
0
 10
390.18911105675221
 20
-39.779210694344442
 30
0.0
 40
290.0
 50
105.9892849829359
 51
117.3485107169774
  0
ARC
  5
121C
  8
0
 10
315.81556358971761
 20
219.77536051789349
 30
0.0
 40
20.0
 50
90.0
 51
105.9892849829359
  0
ARC
  5
121D
  8
0
 10
324.67755536839832
 20
254.7753605178936
 30
0.0
 40
15.0
 50
270.0
 51
288.50999999999942
  0
ARC
  5
121E
  8
0
 10
328.8532330546999
 20
250.87991200855859
 30
0.0
 40
10.0
 50
284.92366289757967
 51
337.4991251017791
  0
ARC
  5
121F
  8
0
 10
333.47260149911608
 20
248.96642430942569
 30
0.0
 40
5.0
 50
337.4991251017791
 51
0.0
  0
LINE
  5
1220
  8
0
 10
229.9526014991161
 20
331.62785115745902
 30
0.0
 11
229.9526014991161
 21
336.7434742866584
 31
0.0
  0
LINE
  5
122D
  8
1
 10
243.46260149911609
 20
352.93566272205868
 30
0.0
 11
243.46260149911609
 21
315.43566272205868
 31
0.0
  0
LINE
  5
122E
  8
1
 10
343.46260149911609
 20
334.18566272205868
 30
0.0
 11
224.712601499116
 21
334.18566272205868
 31
0.0
  0
ARC
  5
122F
  8
0
 10
331.96260149911609
 20
334.18566272205868
 30
0.0
 40
6.5
 50
270.0
 51
90.0
  0
ARC
  5
1230
  8
0
 10
243.46260149911609
 20
334.18566272205868
 30
0.0
 40
13.75
 50
190.72076149353649
 51
312.917560328555
  0
CIRCLE
  5
1232
  8
0
 10
244.73645154251611
 20
334.18545483284157
 30
0.0
 40
8.8183418569113723
  0
ARC
  5
1233
  8
0
 10
272.68166751090411
 20
400.8744829552316
 30
0.0
 40
60.0
 50
250.67449694773779
 51
281.65751361817053
  0
LINE
  5
1234
  8
0
 10
331.96260149911609
 20
340.68566272205868
 30
0.0
 11
287.18889461062872
 21
342.311790236251
 31
0.0
  0
ARC
  5
1235
  8
0
 10
286.82594585997299
 20
332.3183789966194
 30
0.0
 40
10.0
 50
87.919999999999831
 51
101.6575136181721
  0
ARC
  5
1236
  8
0
 10
272.68166751090411
 20
267.49684248888582
 30
0.0
 40
60.0
 50
78.34248638182946
 51
109.32550305226221
  0
LINE
  5
1237
  8
0
 10
331.96260149911609
 20
327.68566272205868
 30
0.0
 11
287.18889461062872
 21
326.05953520786647
 31
0.0
  0
ARC
  5
1238
  8
0
 10
286.82594585997299
 20
336.05294644749807
 30
0.0
 40
10.0
 50
258.34248638182788
 51
272.0800000000001
  0
ARC
  5
1239
  8
0
 10
243.46260149911609
 20
334.18566272205868
 30
0.0
 40
13.75
 50
47.08243967144503
 51
169.27923850646351
  0
LINE
  5
123A
  8
1
 10
343.46260149911609
 20
80.881372164038495
 30
0.0
 11
224.712601499116
 21
80.881372164038396
 31
0.0
  0
ARC
  5
123B
  8
0
 10
272.68166751090411
 20
14.19255193086553
 30
0.0
 40
60.0
 50
78.34248638182946
 51
109.32550305226221
  0
ARC
  5
123C
  8
0
 10
272.68166751090411
 20
147.57019239721129
 30
0.0
 40
60.0
 50
250.67449694773779
 51
281.65751361817053
  0
LINE
  5
123D
  8
1
 10
243.46260149911609
 20
99.631372164038453
 30
0.0
 11
243.46260149911609
 21
62.131372164038503
 31
0.0
  0
ARC
  5
123E
  8
0
 10
243.46260149911609
 20
80.881372164038495
 30
0.0
 40
13.75
 50
190.72076149353649
 51
312.917560328555
  0
ARC
  5
123F
  8
0
 10
243.46260149911609
 20
80.881372164038495
 30
0.0
 40
13.75
 50
47.08243967144503
 51
169.27923850646351
  0
LINE
  5
1240
  8
0
 10
229.9526014991161
 20
78.323560599438736
 30
0.0
 11
229.9526014991161
 21
83.439183728638156
 31
0.0
  0
LINE
  5
1241
  8
0
 10
331.96260149911609
 20
74.38137216403851
 30
0.0
 11
287.18889461062872
 21
72.755244649846134
 31
0.0
  0
LINE
  5
1242
  8
0
 10
331.96260149911609
 20
87.381372164038453
 30
0.0
 11
287.18889461062872
 21
89.007499678230772
 31
0.0
  0
ARC
  5
1243
  8
0
 10
286.82594585997299
 20
82.748655889477902
 30
0.0
 40
10.0
 50
258.34248638182788
 51
272.0800000000001
  0
ARC
  5
1244
  8
0
 10
286.82594585997299
 20
79.01408843859906
 30
0.0
 40
10.0
 50
87.919999999999831
 51
101.6575136181721
  0
ARC
  5
1245
  8
0
 10
331.96260149911609
 20
80.881372164038453
 30
0.0
 40
6.5
 50
270.0
 51
90.0
  0
CIRCLE
  5
1246
  8
0
 10
243.46260149911609
 20
80.881372164038495
 30
0.0
 40
13.5
  0
CIRCLE
  5
1247
  8
0
 10
243.46260149911609
 20
80.881372164038495
 30
0.0
 40
9.5
  0
CIRCLE
  5
1248
  8
3
 10
243.46260149911609
 20
80.881372164038396
 30
0.0
 40
5.0
  0
CIRCLE
  5
1249
  8
0
 10
243.46260149911609
 20
80.881372164038396
 30
0.0
 40
6.0
  0
LINE
  5
124C
  8
0
 10
141.62709598900321
 20
190.8053605178936
 30
0.0
 11
141.62709598900321
 21
200.8053605178936
 31
0.0
  0
LINE
  5
124D
  8
0
 10
122.62709598900319
 20
200.8053605178936
 30
0.0
 11
122.62709598900319
 21
190.8053605178936
 31
0.0
  0
LINE
  5
124F
  8
0
 10
122.62709598900319
 20
190.8053605178936
 30
0.0
 11
141.62709598900321
 21
190.8053605178936
 31
0.0
  0
LINE
  5
1250
  8
0
 10
138.2213562815526
 20
253.80536051789349
 30
0.0
 11
126.0328356964537
 21
253.8053605178936
 31
0.0
  0
LINE
  5
1251
  8
0
 10
118.62709598900319
 20
217.8053605178936
 30
0.0
 11
118.62709598900319
 21
200.8053605178936
 31
0.0
  0
LINE
  5
1252
  8
0
 10
145.62709598900321
 20
200.8053605178936
 30
0.0
 11
118.62709598900319
 21
200.8053605178936
 31
0.0
  0
LINE
  5
1253
  8
1
 10
132.12709598900321
 20
258.80536051789352
 30
0.0
 11
132.12709598900321
 21
155.8053605178936
 31
0.0
  0
LINE
  5
1254
  8
0
 10
133.61695252357151
 20
228.97309839000371
 30
0.0
 11
130.6372394544349
 21
228.97309839000371
 31
0.0
  0
POLYLINE
  5
1255
  8
0
 10
133.61695252357151
 20
228.97309839000363
 30
0.0
 66
     1
 70
     8
  0
VERTEX
  8
0
  5
1504
 10
133.617
 20
228.973
 30
0.000000
  70
    32
  0
VERTEX
  8
0
  5
1505
 10
134.017
 20
229.003
 30
0.000000
  70
    32
  0
VERTEX
  8
0
  5
1506
 10
134.413
 20
229.041
 30
0.000000
  70
    32
  0
VERTEX
  8
0
  5
1507
 10
134.804
 20
229.085
 30
0.000000
  70
    32
  0
VERTEX
  8
0
  5
1508
 10
135.189
 20
229.136
 30
0.000000
  70
    32
  0
VERTEX
  8
0
  5
1509
 10
135.568
 20
229.194
 30
0.000000
  70
    32
  0
VERTEX
  8
0
  5
150A
 10
135.939
 20
229.259
 30
0.000000
  70
    32
  0
VERTEX
  8
0
  5
150B
 10
136.302
 20
229.331
 30
0.000000
  70
    32
  0
VERTEX
  8
0
  5
150C
 10
136.656
 20
229.409
 30
0.000000
  70
    32
  0
VERTEX
  8
0
  5
150D
 10
137.000
 20
229.493
 30
0.000000
  70
    32
  0
VERTEX
  8
0
  5
150E
 10
137.334
 20
229.583
 30
0.000000
  70
    32
  0
VERTEX
  8
0
  5
150F
 10
137.657
 20
229.679
 30
0.000000
  70
    32
  0
VERTEX
  8
0
  5
1510
 10
137.967
 20
229.780
 30
0.000000
  70
    32
  0
VERTEX
  8
0
  5
1511
 10
138.265
 20
229.888
 30
0.000000
  70
    32
  0
VERTEX
  8
0
  5
1512
 10
138.550
 20
230.000
 30
0.000000
  70
    32
  0
VERTEX
  8
0
  5
1513
 10
138.821
 20
230.117
 30
0.000000
  70
    32
  0
VERTEX
  8
0
  5
1514
 10
139.078
 20
230.239
 30
0.000000
  70
    32
  0
VERTEX
  8
0
  5
1515
 10
139.319
 20
230.366
 30
0.000000
  70
    32
  0
VERTEX
  8
0
  5
1516
 10
139.546
 20
230.496
 30
0.000000
  70
    32
  0
VERTEX
  8
0
  5
1517
 10
139.756
 20
230.631
 30
0.000000
  70
    32
  0
VERTEX
  8
0
  5
1518
 10
139.949
 20
230.769
 30
0.000000
  70
    32
  0
VERTEX
  8
0
  5
1519
 10
140.126
 20
230.911
 30
0.000000
  70
    32
  0
VERTEX
  8
0
  5
151A
 10
140.286
 20
231.055
 30
0.000000
  70
    32
  0
VERTEX
  8
0
  5
151B
 10
140.428
 20
231.202
 30
0.000000
  70
    32
  0
VERTEX
  8
0
  5
151C
 10
140.552
 20
231.352
 30
0.000000
  70
    32
  0
VERTEX
  8
0
  5
151D
 10
140.658
 20
231.503
 30
0.000000
  70
    32
  0
VERTEX
  8
0
  5
151E
 10
140.745
 20
231.657
 30
0.000000
  70
    32
  0
VERTEX
  8
0
  5
151F
 10
140.814
 20
231.811
 30
0.000000
  70
    32
  0
VERTEX
  8
0
  5
1520
 10
140.865
 20
231.967
 30
0.000000
  70
    32
  0
VERTEX
  8
0
  5
1521
 10
140.896
 20
232.124
 30
0.000000
  70
    32
  0
VERTEX
  8
0
  5
1522
 10
140.909
 20
232.281
 30
0.000000
  70
    32
  0
VERTEX
  8
0
  5
1523
 10
140.902
 20
232.438
 30
0.000000
  70
    32
  0
VERTEX
  8
0
  5
1524
 10
140.877
 20
232.594
 30
0.000000
  70
    32
  0
VERTEX
  8
0
  5
1525
 10
140.833
 20
232.751
 30
0.000000
  70
    32
  0
VERTEX
  8
0
  5
1526
 10
140.770
 20
232.906
 30
0.000000
  70
    32
  0
VERTEX
  8
0
  5
1527
 10
140.689
 20
233.059
 30
0.000000
  70
    32
  0
VERTEX
  8
0
  5
1528
 10
140.589
 20
233.212
 30
0.000000
  70
    32
  0
VERTEX
  8
0
  5
1529
 10
140.470
 20
233.362
 30
0.000000
  70
    32
  0
VERTEX
  8
0
  5
152A
 10
140.334
 20
233.510
 30
0.000000
  70
    32
  0
VERTEX
  8
0
  5
152B
 10
140.180
 20
233.655
 30
0.000000
  70
    32
  0
VERTEX
  8
0
  5
152C
 10
140.009
 20
233.798
 30
0.000000
  70
    32
  0
VERTEX
  8
0
  5
152D
 10
139.821
 20
233.937
 30
0.000000
  70
    32
  0
VERTEX
  8
0
  5
152E
 10
139.616
 20
234.073
 30
0.000000
  70
    32
  0
VERTEX
  8
0
  5
152F
 10
139.395
 20
234.205
 30
0.000000
  70
    32
  0
VERTEX
  8
0
  5
1530
 10
139.159
 20
234.333
 30
0.000000
  70
    32
  0
VERTEX
  8
0
  5
1531
 10
138.907
 20
234.456
 30
0.000000
  70
    32
  0
VERTEX
  8
0
  5
1532
 10
138.641
 20
234.575
 30
0.000000
  70
    32
  0
VERTEX
  8
0
  5
1533
 10
138.360
 20
234.689
 30
0.000000
  70
    32
  0
VERTEX
  8
0
  5
1534
 10
138.067
 20
234.798
 30
0.000000
  70
    32
  0
VERTEX
  8
0
  5
1535
 10
137.760
 20
234.901
 30
0.000000
  70
    32
  0
VERTEX
  8
0
  5
1536
 10
137.441
 20
234.999
 30
0.000000
  70
    32
  0
VERTEX
  8
0
  5
1537
 10
137.111
 20
235.091
 30
0.000000
  70
    32
  0
VERTEX
  8
0
  5
1538
 10
136.770
 20
235.177
 30
0.000000
  70
    32
  0
VERTEX
  8
0
  5
1539
 10
136.419
 20
235.257
 30
0.000000
  70
    32
  0
VERTEX
  8
0
  5
153A
 10
136.059
 20
235.331
 30
0.000000
  70
    32
  0
VERTEX
  8
0
  5
153B
 10
135.690
 20
235.398
 30
0.000000
  70
    32
  0
VERTEX
  8
0
  5
153C
 10
135.314
 20
235.458
 30
0.000000
  70
    32
  0
VERTEX
  8
0
  5
153D
 10
134.931
 20
235.512
 30
0.000000
  70
    32
  0
VERTEX
  8
0
  5
153E
 10
134.542
 20
235.558
 30
0.000000
  70
    32
  0
VERTEX
  8
0
  5
153F
 10
134.147
 20
235.598
 30
0.000000
  70
    32
  0
VERTEX
  8
0
  5
1540
 10
133.748
 20
235.631
 30
0.000000
  70
    32
  0
VERTEX
  8
0
  5
1541
 10
133.346
 20
235.656
 30
0.000000
  70
    32
  0
VERTEX
  8
0
  5
1542
 10
132.941
 20
235.674
 30
0.000000
  70
    32
  0
VERTEX
  8
0
  5
1543
 10
132.535
 20
235.685
 30
0.000000
  70
    32
  0
VERTEX
  8
0
  5
1544
 10
132.127
 20
235.689
 30
0.000000
  70
    32
  0
VERTEX
  8
0
  5
1545
 10
131.720
 20
235.685
 30
0.000000
  70
    32
  0
VERTEX
  8
0
  5
1546
 10
131.313
 20
235.674
 30
0.000000
  70
    32
  0
VERTEX
  8
0
  5
1547
 10
130.908
 20
235.656
 30
0.000000
  70
    32
  0
VERTEX
  8
0
  5
1548
 10
130.506
 20
235.631
 30
0.000000
  70
    32
  0
VERTEX
  8
0
  5
1549
 10
130.107
 20
235.598
 30
0.000000
  70
    32
  0
VERTEX
  8
0
  5
154A
 10
129.713
 20
235.558
 30
0.000000
  70
    32
  0
VERTEX
  8
0
  5
154B
 10
129.323
 20
235.512
 30
0.000000
  70
    32
  0
VERTEX
  8
0
  5
154C
 10
128.940
 20
235.458
 30
0.000000
  70
    32
  0
VERTEX
  8
0
  5
154D
 10
128.564
 20
235.398
 30
0.000000
  70
    32
  0
VERTEX
  8
0
  5
154E
 10
128.195
 20
235.331
 30
0.000000
  70
    32
  0
VERTEX
  8
0
  5
154F
 10
127.835
 20
235.257
 30
0.000000
  70
    32
  0
VERTEX
  8
0
  5
1550
 10
127.484
 20
235.177
 30
0.000000
  70
    32
  0
VERTEX
  8
0
  5
1551
 10
127.143
 20
235.091
 30
0.000000
  70
    32
  0
VERTEX
  8
0
  5
1552
 10
126.813
 20
234.999
 30
0.000000
  70
    32
  0
VERTEX
  8
0
  5
1553
 10
126.494
 20
234.901
 30
0.000000
  70
    32
  0
VERTEX
  8
0
  5
1554
 10
126.188
 20
234.798
 30
0.000000
  70
    32
  0
VERTEX
  8
0
  5
1555
 10
125.894
 20
234.689
 30
0.000000
  70
    32
  0
VERTEX
  8
0
  5
1556
 10
125.613
 20
234.575
 30
0.000000
  70
    32
  0
VERTEX
  8
0
  5
1557
 10
125.347
 20
234.456
 30
0.000000
  70
    32
  0
VERTEX
  8
0
  5
1558
 10
125.095
 20
234.333
 30
0.000000
  70
    32
  0
VERTEX
  8
0
  5
1559
 10
124.859
 20
234.205
 30
0.000000
  70
    32
  0
VERTEX
  8
0
  5
155A
 10
124.638
 20
234.073
 30
0.000000
  70
    32
  0
VERTEX
  8
0
  5
155B
 10
124.433
 20
233.937
 30
0.000000
  70
    32
  0
VERTEX
  8
0
  5
155C
 10
124.245
 20
233.798
 30
0.000000
  70
    32
  0
VERTEX
  8
0
  5
155D
 10
124.074
 20
233.655
 30
0.000000
  70
    32
  0
VERTEX
  8
0
  5
155E
 10
123.920
 20
233.510
 30
0.000000
  70
    32
  0
VERTEX
  8
0
  5
155F
 10
123.784
 20
233.362
 30
0.000000
  70
    32
  0
VERTEX
  8
0
  5
1560
 10
123.666
 20
233.212
 30
0.000000
  70
    32
  0
VERTEX
  8
0
  5
1561
 10
123.566
 20
233.059
 30
0.000000
  70
    32
  0
VERTEX
  8
0
  5
1562
 10
123.484
 20
232.906
 30
0.000000
  70
    32
  0
VERTEX
  8
0
  5
1563
 10
123.421
 20
232.751
 30
0.000000
  70
    32
  0
VERTEX
  8
0
  5
1564
 10
123.377
 20
232.594
 30
0.000000
  70
    32
  0
VERTEX
  8
0
  5
1565
 10
123.352
 20
232.438
 30
0.000000
  70
    32
  0
VERTEX
  8
0
  5
1566
 10
123.346
 20
232.281
 30
0.000000
  70
    32
  0
VERTEX
  8
0
  5
1567
 10
123.358
 20
232.124
 30
0.000000
  70
    32
  0
VERTEX
  8
0
  5
1568
 10
123.390
 20
231.967
 30
0.000000
  70
    32
  0
VERTEX
  8
0
  5
1569
 10
123.440
 20
231.811
 30
0.000000
  70
    32
  0
VERTEX
  8
0
  5
156A
 10
123.509
 20
231.657
 30
0.000000
  70
    32
  0
VERTEX
  8
0
  5
156B
 10
123.596
 20
231.503
 30
0.000000
  70
    32
  0
VERTEX
  8
0
  5
156C
 10
123.702
 20
231.352
 30
0.000000
  70
    32
  0
VERTEX
  8
0
  5
156D
 10
123.826
 20
231.202
 30
0.000000
  70
    32
  0
VERTEX
  8
0
  5
156E
 10
123.968
 20
231.055
 30
0.000000
  70
    32
  0
VERTEX
  8
0
  5
156F
 10
124.128
 20
230.911
 30
0.000000
  70
    32
  0
VERTEX
  8
0
  5
1570
 10
124.305
 20
230.769
 30
0.000000
  70
    32
  0
VERTEX
  8
0
  5
1571
 10
124.499
 20
230.631
 30
0.000000
  70
    32
  0
VERTEX
  8
0
  5
1572
 10
124.709
 20
230.496
 30
0.000000
  70
    32
  0
VERTEX
  8
0
  5
1573
 10
124.935
 20
230.366
 30
0.000000
  70
    32
  0
VERTEX
  8
0
  5
1574
 10
125.176
 20
230.239
 30
0.000000
  70
    32
  0
VERTEX
  8
0
  5
1575
 10
125.433
 20
230.117
 30
0.000000
  70
    32
  0
VERTEX
  8
0
  5
1576
 10
125.704
 20
230.000
 30
0.000000
  70
    32
  0
VERTEX
  8
0
  5
1577
 10
125.989
 20
229.888
 30
0.000000
  70
    32
  0
VERTEX
  8
0
  5
1578
 10
126.287
 20
229.780
 30
0.000000
  70
    32
  0
VERTEX
  8
0
  5
1579
 10
126.597
 20
229.679
 30
0.000000
  70
    32
  0
VERTEX
  8
0
  5
157A
 10
126.920
 20
229.583
 30
0.000000
  70
    32
  0
VERTEX
  8
0
  5
157B
 10
127.254
 20
229.493
 30
0.000000
  70
    32
  0
VERTEX
  8
0
  5
157C
 10
127.598
 20
229.409
 30
0.000000
  70
    32
  0
VERTEX
  8
0
  5
157D
 10
127.952
 20
229.331
 30
0.000000
  70
    32
  0
VERTEX
  8
0
  5
157E
 10
128.315
 20
229.259
 30
0.000000
  70
    32
  0
VERTEX
  8
0
  5
157F
 10
128.686
 20
229.194
 30
0.000000
  70
    32
  0
VERTEX
  8
0
  5
1580
 10
129.065
 20
229.136
 30
0.000000
  70
    32
  0
VERTEX
  8
0
  5
1581
 10
129.450
 20
229.085
 30
0.000000
  70
    32
  0
VERTEX
  8
0
  5
1582
 10
129.841
 20
229.041
 30
0.000000
  70
    32
  0
VERTEX
  8
0
  5
1583
 10
130.237
 20
229.003
 30
0.000000
  70
    32
  0
VERTEX
  8
0
  5
1584
 10
130.637
 20
228.973
 30
0.000000
  70
    32
  0
SEQEND
  8
0
  5
1585
  0
POLYLINE
  5
1256
  8
0
 10
145.87709598900321
 20
232.3064589581461
 30
0.0
 66
     1
 70
     8
  0
VERTEX
  8
0
  5
1586
 10
145.877
 20
232.306
 30
0.000000
  70
    32
  0
VERTEX
  8
0
  5
1587
 10
145.877
 20
232.332
 30
0.000000
  70
    32
  0
VERTEX
  8
0
  5
1588
 10
145.876
 20
232.357
 30
0.000000
  70
    32
  0
VERTEX
  8
0
  5
1589
 10
145.875
 20
232.383
 30
0.000000
  70
    32
  0
VERTEX
  8
0
  5
158A
 10
145.874
 20
232.408
 30
0.000000
  70
    32
  0
VERTEX
  8
0
  5
158B
 10
145.871
 20
232.434
 30
0.000000
  70
    32
  0
VERTEX
  8
0
  5
158C
 10
145.869
 20
232.459
 30
0.000000
  70
    32
  0
VERTEX
  8
0
  5
158D
 10
145.866
 20
232.485
 30
0.000000
  70
    32
  0
VERTEX
  8
0
  5
158E
 10
145.863
 20
232.510
 30
0.000000
  70
    32
  0
VERTEX
  8
0
  5
158F
 10
145.859
 20
232.535
 30
0.000000
  70
    32
  0
VERTEX
  8
0
  5
1590
 10
145.855
 20
232.561
 30
0.000000
  70
    32
  0
VERTEX
  8
0
  5
1591
 10
145.850
 20
232.586
 30
0.000000
  70
    32
  0
VERTEX
  8
0
  5
1592
 10
145.845
 20
232.612
 30
0.000000
  70
    32
  0
VERTEX
  8
0
  5
1593
 10
145.839
 20
232.637
 30
0.000000
  70
    32
  0
VERTEX
  8
0
  5
1594
 10
145.833
 20
232.662
 30
0.000000
  70
    32
  0
VERTEX
  8
0
  5
1595
 10
145.827
 20
232.688
 30
0.000000
  70
    32
  0
VERTEX
  8
0
  5
1596
 10
145.820
 20
232.713
 30
0.000000
  70
    32
  0
VERTEX
  8
0
  5
1597
 10
145.812
 20
232.738
 30
0.000000
  70
    32
  0
VERTEX
  8
0
  5
1598
 10
145.804
 20
232.764
 30
0.000000
  70
    32
  0
VERTEX
  8
0
  5
1599
 10
145.796
 20
232.789
 30
0.000000
  70
    32
  0
VERTEX
  8
0
  5
159A
 10
145.787
 20
232.814
 30
0.000000
  70
    32
  0
VERTEX
  8
0
  5
159B
 10
145.778
 20
232.840
 30
0.000000
  70
    32
  0
VERTEX
  8
0
  5
159C
 10
145.769
 20
232.865
 30
0.000000
  70
    32
  0
VERTEX
  8
0
  5
159D
 10
145.758
 20
232.890
 30
0.000000
  70
    32
  0
VERTEX
  8
0
  5
159E
 10
145.748
 20
232.915
 30
0.000000
  70
    32
  0
VERTEX
  8
0
  5
159F
 10
145.737
 20
232.941
 30
0.000000
  70
    32
  0
VERTEX
  8
0
  5
15A0
 10
145.726
 20
232.966
 30
0.000000
  70
    32
  0
VERTEX
  8
0
  5
15A1
 10
145.714
 20
232.991
 30
0.000000
  70
    32
  0
VERTEX
  8
0
  5
15A2
 10
145.701
 20
233.016
 30
0.000000
  70
    32
  0
VERTEX
  8
0
  5
15A3
 10
145.689
 20
233.041
 30
0.000000
  70
    32
  0
VERTEX
  8
0
  5
15A4
 10
145.675
 20
233.066
 30
0.000000
  70
    32
  0
VERTEX
  8
0
  5
15A5
 10
145.662
 20
233.091
 30
0.000000
  70
    32
  0
VERTEX
  8
0
  5
15A6
 10
145.648
 20
233.116
 30
0.000000
  70
    32
  0
VERTEX
  8
0
  5
15A7
 10
145.633
 20
233.141
 30
0.000000
  70
    32
  0
VERTEX
  8
0
  5
15A8
 10
145.618
 20
233.166
 30
0.000000
  70
    32
  0
VERTEX
  8
0
  5
15A9
 10
145.603
 20
233.191
 30
0.000000
  70
    32
  0
VERTEX
  8
0
  5
15AA
 10
145.587
 20
233.216
 30
0.000000
  70
    32
  0
VERTEX
  8
0
  5
15AB
 10
145.571
 20
233.241
 30
0.000000
  70
    32
  0
VERTEX
  8
0
  5
15AC
 10
145.554
 20
233.266
 30
0.000000
  70
    32
  0
VERTEX
  8
0
  5
15AD
 10
145.537
 20
233.291
 30
0.000000
  70
    32
  0
VERTEX
  8
0
  5
15AE
 10
145.519
 20
233.316
 30
0.000000
  70
    32
  0
VERTEX
  8
0
  5
15AF
 10
145.501
 20
233.340
 30
0.000000
  70
    32
  0
VERTEX
  8
0
  5
15B0
 10
145.483
 20
233.365
 30
0.000000
  70
    32
  0
VERTEX
  8
0
  5
15B1
 10
145.464
 20
233.390
 30
0.000000
  70
    32
  0
VERTEX
  8
0
  5
15B2
 10
145.445
 20
233.415
 30
0.000000
  70
    32
  0
VERTEX
  8
0
  5
15B3
 10
145.425
 20
233.439
 30
0.000000
  70
    32
  0
VERTEX
  8
0
  5
15B4
 10
145.405
 20
233.464
 30
0.000000
  70
    32
  0
VERTEX
  8
0
  5
15B5
 10
145.384
 20
233.488
 30
0.000000
  70
    32
  0
VERTEX
  8
0
  5
15B6
 10
145.363
 20
233.513
 30
0.000000
  70
    32
  0
VERTEX
  8
0
  5
15B7
 10
145.341
 20
233.537
 30
0.000000
  70
    32
  0
VERTEX
  8
0
  5
15B8
 10
145.319
 20
233.562
 30
0.000000
  70
    32
  0
VERTEX
  8
0
  5
15B9
 10
145.297
 20
233.586
 30
0.000000
  70
    32
  0
VERTEX
  8
0
  5
15BA
 10
145.274
 20
233.610
 30
0.000000
  70
    32
  0
VERTEX
  8
0
  5
15BB
 10
145.251
 20
233.635
 30
0.000000
  70
    32
  0
VERTEX
  8
0
  5
15BC
 10
145.227
 20
233.659
 30
0.000000
  70
    32
  0
VERTEX
  8
0
  5
15BD
 10
145.203
 20
233.683
 30
0.000000
  70
    32
  0
VERTEX
  8
0
  5
15BE
 10
145.179
 20
233.707
 30
0.000000
  70
    32
  0
VERTEX
  8
0
  5
15BF
 10
145.154
 20
233.732
 30
0.000000
  70
    32
  0
VERTEX
  8
0
  5
15C0
 10
145.128
 20
233.756
 30
0.000000
  70
    32
  0
VERTEX
  8
0
  5
15C1
 10
145.103
 20
233.780
 30
0.000000
  70
    32
  0
VERTEX
  8
0
  5
15C2
 10
145.076
 20
233.804
 30
0.000000
  70
    32
  0
VERTEX
  8
0
  5
15C3
 10
145.050
 20
233.828
 30
0.000000
  70
    32
  0
VERTEX
  8
0
  5
15C4
 10
145.023
 20
233.852
 30
0.000000
  70
    32
  0
VERTEX
  8
0
  5
15C5
 10
144.995
 20
233.875
 30
0.000000
  70
    32
  0
VERTEX
  8
0
  5
15C6
 10
144.967
 20
233.899
 30
0.000000
  70
    32
  0
VERTEX
  8
0
  5
15C7
 10
144.939
 20
233.923
 30
0.000000
  70
    32
  0
VERTEX
  8
0
  5
15C8
 10
144.910
 20
233.947
 30
0.000000
  70
    32
  0
VERTEX
  8
0
  5
15C9
 10
144.881
 20
233.970
 30
0.000000
  70
    32
  0
VERTEX
  8
0
  5
15CA
 10
144.851
 20
233.994
 30
0.000000
  70
    32
  0
VERTEX
  8
0
  5
15CB
 10
144.821
 20
234.017
 30
0.000000
  70
    32
  0
VERTEX
  8
0
  5
15CC
 10
144.791
 20
234.041
 30
0.000000
  70
    32
  0
VERTEX
  8
0
  5
15CD
 10
144.760
 20
234.064
 30
0.000000
  70
    32
  0
VERTEX
  8
0
  5
15CE
 10
144.729
 20
234.088
 30
0.000000
  70
    32
  0
VERTEX
  8
0
  5
15CF
 10
144.697
 20
234.111
 30
0.000000
  70
    32
  0
VERTEX
  8
0
  5
15D0
 10
144.665
 20
234.134
 30
0.000000
  70
    32
  0
VERTEX
  8
0
  5
15D1
 10
144.633
 20
234.157
 30
0.000000
  70
    32
  0
VERTEX
  8
0
  5
15D2
 10
144.600
 20
234.180
 30
0.000000
  70
    32
  0
VERTEX
  8
0
  5
15D3
 10
144.567
 20
234.203
 30
0.000000
  70
    32
  0
VERTEX
  8
0
  5
15D4
 10
144.533
 20
234.226
 30
0.000000
  70
    32
  0
VERTEX
  8
0
  5
15D5
 10
144.499
 20
234.249
 30
0.000000
  70
    32
  0
VERTEX
  8
0
  5
15D6
 10
144.464
 20
234.272
 30
0.000000
  70
    32
  0
VERTEX
  8
0
  5
15D7
 10
144.429
 20
234.295
 30
0.000000
  70
    32
  0
VERTEX
  8
0
  5
15D8
 10
144.394
 20
234.318
 30
0.000000
  70
    32
  0
VERTEX
  8
0
  5
15D9
 10
144.358
 20
234.340
 30
0.000000
  70
    32
  0
VERTEX
  8
0
  5
15DA
 10
144.322
 20
234.363
 30
0.000000
  70
    32
  0
VERTEX
  8
0
  5
15DB
 10
144.286
 20
234.386
 30
0.000000
  70
    32
  0
VERTEX
  8
0
  5
15DC
 10
144.249
 20
234.408
 30
0.000000
  70
    32
  0
VERTEX
  8
0
  5
15DD
 10
144.212
 20
234.431
 30
0.000000
  70
    32
  0
VERTEX
  8
0
  5
15DE
 10
144.174
 20
234.453
 30
0.000000
  70
    32
  0
VERTEX
  8
0
  5
15DF
 10
144.136
 20
234.475
 30
0.000000
  70
    32
  0
VERTEX
  8
0
  5
15E0
 10
144.097
 20
234.497
 30
0.000000
  70
    32
  0
VERTEX
  8
0
  5
15E1
 10
144.059
 20
234.519
 30
0.000000
  70
    32
  0
VERTEX
  8
0
  5
15E2
 10
144.019
 20
234.541
 30
0.000000
  70
    32
  0
VERTEX
  8
0
  5
15E3
 10
143.980
 20
234.563
 30
0.000000
  70
    32
  0
VERTEX
  8
0
  5
15E4
 10
143.940
 20
234.585
 30
0.000000
  70
    32
  0
VERTEX
  8
0
  5
15E5
 10
143.899
 20
234.607
 30
0.000000
  70
    32
  0
VERTEX
  8
0
  5
15E6
 10
143.858
 20
234.629
 30
0.000000
  70
    32
  0
VERTEX
  8
0
  5
15E7
 10
143.817
 20
234.651
 30
0.000000
  70
    32
  0
VERTEX
  8
0
  5
15E8
 10
143.776
 20
234.672
 30
0.000000
  70
    32
  0
VERTEX
  8
0
  5
15E9
 10
143.734
 20
234.694
 30
0.000000
  70
    32
  0
VERTEX
  8
0
  5
15EA
 10
143.691
 20
234.715
 30
0.000000
  70
    32
  0
VERTEX
  8
0
  5
15EB
 10
143.649
 20
234.737
 30
0.000000
  70
    32
  0
VERTEX
  8
0
  5
15EC
 10
143.606
 20
234.758
 30
0.000000
  70
    32
  0
VERTEX
  8
0
  5
15ED
 10
143.562
 20
234.779
 30
0.000000
  70
    32
  0
VERTEX
  8
0
  5
15EE
 10
143.518
 20
234.800
 30
0.000000
  70
    32
  0
VERTEX
  8
0
  5
15EF
 10
143.474
 20
234.821
 30
0.000000
  70
    32
  0
VERTEX
  8
0
  5
15F0
 10
143.429
 20
234.842
 30
0.000000
  70
    32
  0
VERTEX
  8
0
  5
15F1
 10
143.384
 20
234.863
 30
0.000000
  70
    32
  0
VERTEX
  8
0
  5
15F2
 10
143.339
 20
234.884
 30
0.000000
  70
    32
  0
VERTEX
  8
0
  5
15F3
 10
143.294
 20
234.905
 30
0.000000
  70
    32
  0
VERTEX
  8
0
  5
15F4
 10
143.247
 20
234.925
 30
0.000000
  70
    32
  0
VERTEX
  8
0
  5
15F5
 10
143.201
 20
234.946
 30
0.000000
  70
    32
  0
VERTEX
  8
0
  5
15F6
 10
143.154
 20
234.966
 30
0.000000
  70
    32
  0
VERTEX
  8
0
  5
15F7
 10
143.107
 20
234.987
 30
0.000000
  70
    32
  0
VERTEX
  8
0
  5
15F8
 10
143.060
 20
235.007
 30
0.000000
  70
    32
  0
VERTEX
  8
0
  5
15F9
 10
143.012
 20
235.027
 30
0.000000
  70
    32
  0
VERTEX
  8
0
  5
15FA
 10
142.964
 20
235.047
 30
0.000000
  70
    32
  0
VERTEX
  8
0
  5
15FB
 10
142.915
 20
235.067
 30
0.000000
  70
    32
  0
VERTEX
  8
0
  5
15FC
 10
142.866
 20
235.087
 30
0.000000
  70
    32
  0
VERTEX
  8
0
  5
15FD
 10
142.817
 20
235.107
 30
0.000000
  70
    32
  0
VERTEX
  8
0
  5
15FE
 10
142.767
 20
235.127
 30
0.000000
  70
    32
  0
VERTEX
  8
0
  5
15FF
 10
142.717
 20
235.146
 30
0.000000
  70
    32
  0
VERTEX
  8
0
  5
1600
 10
142.667
 20
235.166
 30
0.000000
  70
    32
  0
VERTEX
  8
0
  5
1601
 10
142.616
 20
235.185
 30
0.000000
  70
    32
  0
VERTEX
  8
0
  5
1602
 10
142.565
 20
235.205
 30
0.000000
  70
    32
  0
VERTEX
  8
0
  5
1603
 10
142.514
 20
235.224
 30
0.000000
  70
    32
  0
VERTEX
  8
0
  5
1604
 10
142.462
 20
235.243
 30
0.000000
  70
    32
  0
VERTEX
  8
0
  5
1605
 10
142.410
 20
235.262
 30
0.000000
  70
    32
  0
VERTEX
  8
0
  5
1606
 10
142.358
 20
235.281
 30
0.000000
  70
    32
  0
SEQEND
  8
0
  5
1607
  0
POLYLINE
  5
1257
  8
0
 10
118.37709598900321
 20
232.3064589581461
 30
0.0
 66
     1
 70
     8
  0
VERTEX
  8
0
  5
1608
 10
118.377
 20
232.306
 30
0.000000
  70
    32
  0
VERTEX
  8
0
  5
1609
 10
118.381
 20
232.145
 30
0.000000
  70
    32
  0
VERTEX
  8
0
  5
160A
 10
118.394
 20
231.984
 30
0.000000
  70
    32
  0
VERTEX
  8
0
  5
160B
 10
118.414
 20
231.823
 30
0.000000
  70
    32
  0
VERTEX
  8
0
  5
160C
 10
118.443
 20
231.662
 30
0.000000
  70
    32
  0
VERTEX
  8
0
  5
160D
 10
118.481
 20
231.501
 30
0.000000
  70
    32
  0
VERTEX
  8
0
  5
160E
 10
118.526
 20
231.341
 30
0.000000
  70
    32
  0
VERTEX
  8
0
  5
160F
 10
118.580
 20
231.182
 30
0.000000
  70
    32
  0
VERTEX
  8
0
  5
1610
 10
118.641
 20
231.023
 30
0.000000
  70
    32
  0
VERTEX
  8
0
  5
1611
 10
118.711
 20
230.865
 30
0.000000
  70
    32
  0
VERTEX
  8
0
  5
1612
 10
118.789
 20
230.708
 30
0.000000
  70
    32
  0
VERTEX
  8
0
  5
1613
 10
118.875
 20
230.552
 30
0.000000
  70
    32
  0
VERTEX
  8
0
  5
1614
 10
118.969
 20
230.397
 30
0.000000
  70
    32
  0
VERTEX
  8
0
  5
1615
 10
119.071
 20
230.243
 30
0.000000
  70
    32
  0
VERTEX
  8
0
  5
1616
 10
119.181
 20
230.091
 30
0.000000
  70
    32
  0
VERTEX
  8
0
  5
1617
 10
119.298
 20
229.939
 30
0.000000
  70
    32
  0
VERTEX
  8
0
  5
1618
 10
119.424
 20
229.789
 30
0.000000
  70
    32
  0
VERTEX
  8
0
  5
1619
 10
119.557
 20
229.641
 30
0.000000
  70
    32
  0
VERTEX
  8
0
  5
161A
 10
119.697
 20
229.494
 30
0.000000
  70
    32
  0
VERTEX
  8
0
  5
161B
 10
119.845
 20
229.349
 30
0.000000
  70
    32
  0
VERTEX
  8
0
  5
161C
 10
120.001
 20
229.206
 30
0.000000
  70
    32
  0
VERTEX
  8
0
  5
161D
 10
120.163
 20
229.064
 30
0.000000
  70
    32
  0
VERTEX
  8
0
  5
161E
 10
120.333
 20
228.925
 30
0.000000
  70
    32
  0
VERTEX
  8
0
  5
161F
 10
120.510
 20
228.788
 30
0.000000
  70
    32
  0
VERTEX
  8
0
  5
1620
 10
120.694
 20
228.652
 30
0.000000
  70
    32
  0
VERTEX
  8
0
  5
1621
 10
120.885
 20
228.519
 30
0.000000
  70
    32
  0
VERTEX
  8
0
  5
1622
 10
121.083
 20
228.388
 30
0.000000
  70
    32
  0
VERTEX
  8
0
  5
1623
 10
121.287
 20
228.260
 30
0.000000
  70
    32
  0
VERTEX
  8
0
  5
1624
 10
121.498
 20
228.134
 30
0.000000
  70
    32
  0
VERTEX
  8
0
  5
1625
 10
121.715
 20
228.010
 30
0.000000
  70
    32
  0
VERTEX
  8
0
  5
1626
 10
121.939
 20
227.889
 30
0.000000
  70
    32
  0
VERTEX
  8
0
  5
1627
 10
122.169
 20
227.771
 30
0.000000
  70
    32
  0
VERTEX
  8
0
  5
1628
 10
122.404
 20
227.656
 30
0.000000
  70
    32
  0
VERTEX
  8
0
  5
1629
 10
122.646
 20
227.543
 30
0.000000
  70
    32
  0
VERTEX
  8
0
  5
162A
 10
122.893
 20
227.433
 30
0.000000
  70
    32
  0
VERTEX
  8
0
  5
162B
 10
123.146
 20
227.326
 30
0.000000
  70
    32
  0
VERTEX
  8
0
  5
162C
 10
123.404
 20
227.222
 30
0.000000
  70
    32
  0
VERTEX
  8
0
  5
162D
 10
123.668
 20
227.121
 30
0.000000
  70
    32
  0
VERTEX
  8
0
  5
162E
 10
123.936
 20
227.023
 30
0.000000
  70
    32
  0
VERTEX
  8
0
  5
162F
 10
124.210
 20
226.929
 30
0.000000
  70
    32
  0
VERTEX
  8
0
  5
1630
 10
124.488
 20
226.838
 30
0.000000
  70
    32
  0
VERTEX
  8
0
  5
1631
 10
124.771
 20
226.750
 30
0.000000
  70
    32
  0
VERTEX
  8
0
  5
1632
 10
125.058
 20
226.665
 30
0.000000
  70
    32
  0
VERTEX
  8
0
  5
1633
 10
125.350
 20
226.584
 30
0.000000
  70
    32
  0
VERTEX
  8
0
  5
1634
 10
125.645
 20
226.506
 30
0.000000
  70
    32
  0
VERTEX
  8
0
  5
1635
 10
125.945
 20
226.431
 30
0.000000
  70
    32
  0
VERTEX
  8
0
  5
1636
 10
126.248
 20
226.361
 30
0.000000
  70
    32
  0
VERTEX
  8
0
  5
1637
 10
126.555
 20
226.293
 30
0.000000
  70
    32
  0
VERTEX
  8
0
  5
1638
 10
126.865
 20
226.230
 30
0.000000
  70
    32
  0
VERTEX
  8
0
  5
1639
 10
127.179
 20
226.170
 30
0.000000
  70
    32
  0
VERTEX
  8
0
  5
163A
 10
127.495
 20
226.114
 30
0.000000
  70
    32
  0
VERTEX
  8
0
  5
163B
 10
127.814
 20
226.061
 30
0.000000
  70
    32
  0
VERTEX
  8
0
  5
163C
 10
128.136
 20
226.012
 30
0.000000
  70
    32
  0
VERTEX
  8
0
  5
163D
 10
128.460
 20
225.967
 30
0.000000
  70
    32
  0
VERTEX
  8
0
  5
163E
 10
128.786
 20
225.926
 30
0.000000
  70
    32
  0
VERTEX
  8
0
  5
163F
 10
129.114
 20
225.889
 30
0.000000
  70
    32
  0
VERTEX
  8
0
  5
1640
 10
129.445
 20
225.855
 30
0.000000
  70
    32
  0
VERTEX
  8
0
  5
1641
 10
129.776
 20
225.826
 30
0.000000
  70
    32
  0
VERTEX
  8
0
  5
1642
 10
130.110
 20
225.800
 30
0.000000
  70
    32
  0
VERTEX
  8
0
  5
1643
 10
130.444
 20
225.779
 30
0.000000
  70
    32
  0
VERTEX
  8
0
  5
1644
 10
130.779
 20
225.761
 30
0.000000
  70
    32
  0
VERTEX
  8
0
  5
1645
 10
131.116
 20
225.747
 30
0.000000
  70
    32
  0
VERTEX
  8
0
  5
1646
 10
131.452
 20
225.737
 30
0.000000
  70
    32
  0
VERTEX
  8
0
  5
1647
 10
131.790
 20
225.731
 30
0.000000
  70
    32
  0
VERTEX
  8
0
  5
1648
 10
132.127
 20
225.729
 30
0.000000
  70
    32
  0
VERTEX
  8
0
  5
1649
 10
132.465
 20
225.731
 30
0.000000
  70
    32
  0
VERTEX
  8
0
  5
164A
 10
132.802
 20
225.737
 30
0.000000
  70
    32
  0
VERTEX
  8
0
  5
164B
 10
133.139
 20
225.747
 30
0.000000
  70
    32
  0
VERTEX
  8
0
  5
164C
 10
133.475
 20
225.761
 30
0.000000
  70
    32
  0
VERTEX
  8
0
  5
164D
 10
133.810
 20
225.779
 30
0.000000
  70
    32
  0
VERTEX
  8
0
  5
164E
 10
134.145
 20
225.800
 30
0.000000
  70
    32
  0
VERTEX
  8
0
  5
164F
 10
134.478
 20
225.826
 30
0.000000
  70
    32
  0
VERTEX
  8
0
  5
1650
 10
134.810
 20
225.855
 30
0.000000
  70
    32
  0
VERTEX
  8
0
  5
1651
 10
135.140
 20
225.889
 30
0.000000
  70
    32
  0
VERTEX
  8
0
  5
1652
 10
135.468
 20
225.926
 30
0.000000
  70
    32
  0
VERTEX
  8
0
  5
1653
 10
135.794
 20
225.967
 30
0.000000
  70
    32
  0
VERTEX
  8
0
  5
1654
 10
136.119
 20
226.012
 30
0.000000
  70
    32
  0
VERTEX
  8
0
  5
1655
 10
136.440
 20
226.061
 30
0.000000
  70
    32
  0
VERTEX
  8
0
  5
1656
 10
136.759
 20
226.114
 30
0.000000
  70
    32
  0
VERTEX
  8
0
  5
1657
 10
137.076
 20
226.170
 30
0.000000
  70
    32
  0
VERTEX
  8
0
  5
1658
 10
137.389
 20
226.230
 30
0.000000
  70
    32
  0
VERTEX
  8
0
  5
1659
 10
137.699
 20
226.293
 30
0.000000
  70
    32
  0
VERTEX
  8
0
  5
165A
 10
138.006
 20
226.361
 30
0.000000
  70
    32
  0
VERTEX
  8
0
  5
165B
 10
138.309
 20
226.431
 30
0.000000
  70
    32
  0
VERTEX
  8
0
  5
165C
 10
138.609
 20
226.506
 30
0.000000
  70
    32
  0
VERTEX
  8
0
  5
165D
 10
138.904
 20
226.584
 30
0.000000
  70
    32
  0
VERTEX
  8
0
  5
165E
 10
139.196
 20
226.665
 30
0.000000
  70
    32
  0
VERTEX
  8
0
  5
165F
 10
139.483
 20
226.750
 30
0.000000
  70
    32
  0
VERTEX
  8
0
  5
1660
 10
139.766
 20
226.838
 30
0.000000
  70
    32
  0
VERTEX
  8
0
  5
1661
 10
140.044
 20
226.929
 30
0.000000
  70
    32
  0
VERTEX
  8
0
  5
1662
 10
140.318
 20
227.023
 30
0.000000
  70
    32
  0
VERTEX
  8
0
  5
1663
 10
140.587
 20
227.121
 30
0.000000
  70
    32
  0
VERTEX
  8
0
  5
1664
 10
140.850
 20
227.222
 30
0.000000
  70
    32
  0
VERTEX
  8
0
  5
1665
 10
141.108
 20
227.326
 30
0.000000
  70
    32
  0
VERTEX
  8
0
  5
1666
 10
141.361
 20
227.433
 30
0.000000
  70
    32
  0
VERTEX
  8
0
  5
1667
 10
141.608
 20
227.543
 30
0.000000
  70
    32
  0
VERTEX
  8
0
  5
1668
 10
141.850
 20
227.656
 30
0.000000
  70
    32
  0
VERTEX
  8
0
  5
1669
 10
142.085
 20
227.771
 30
0.000000
  70
    32
  0
VERTEX
  8
0
  5
166A
 10
142.315
 20
227.889
 30
0.000000
  70
    32
  0
VERTEX
  8
0
  5
166B
 10
142.539
 20
228.010
 30
0.000000
  70
    32
  0
VERTEX
  8
0
  5
166C
 10
142.756
 20
228.134
 30
0.000000
  70
    32
  0
VERTEX
  8
0
  5
166D
 10
142.967
 20
228.260
 30
0.000000
  70
    32
  0
VERTEX
  8
0
  5
166E
 10
143.171
 20
228.388
 30
0.000000
  70
    32
  0
VERTEX
  8
0
  5
166F
 10
143.369
 20
228.519
 30
0.000000
  70
    32
  0
VERTEX
  8
0
  5
1670
 10
143.560
 20
228.652
 30
0.000000
  70
    32
  0
VERTEX
  8
0
  5
1671
 10
143.744
 20
228.788
 30
0.000000
  70
    32
  0
VERTEX
  8
0
  5
1672
 10
143.921
 20
228.925
 30
0.000000
  70
    32
  0
VERTEX
  8
0
  5
1673
 10
144.091
 20
229.064
 30
0.000000
  70
    32
  0
VERTEX
  8
0
  5
1674
 10
144.254
 20
229.206
 30
0.000000
  70
    32
  0
VERTEX
  8
0
  5
1675
 10
144.409
 20
229.349
 30
0.000000
  70
    32
  0
VERTEX
  8
0
  5
1676
 10
144.557
 20
229.494
 30
0.000000
  70
    32
  0
VERTEX
  8
0
  5
1677
 10
144.697
 20
229.641
 30
0.000000
  70
    32
  0
VERTEX
  8
0
  5
1678
 10
144.830
 20
229.789
 30
0.000000
  70
    32
  0
VERTEX
  8
0
  5
1679
 10
144.956
 20
229.939
 30
0.000000
  70
    32
  0
VERTEX
  8
0
  5
167A
 10
145.073
 20
230.091
 30
0.000000
  70
    32
  0
VERTEX
  8
0
  5
167B
 10
145.183
 20
230.243
 30
0.000000
  70
    32
  0
VERTEX
  8
0
  5
167C
 10
145.285
 20
230.397
 30
0.000000
  70
    32
  0
VERTEX
  8
0
  5
167D
 10
145.379
 20
230.552
 30
0.000000
  70
    32
  0
VERTEX
  8
0
  5
167E
 10
145.465
 20
230.708
 30
0.000000
  70
    32
  0
VERTEX
  8
0
  5
167F
 10
145.543
 20
230.865
 30
0.000000
  70
    32
  0
VERTEX
  8
0
  5
1680
 10
145.613
 20
231.023
 30
0.000000
  70
    32
  0
VERTEX
  8
0
  5
1681
 10
145.675
 20
231.182
 30
0.000000
  70
    32
  0
VERTEX
  8
0
  5
1682
 10
145.728
 20
231.341
 30
0.000000
  70
    32
  0
VERTEX
  8
0
  5
1683
 10
145.774
 20
231.501
 30
0.000000
  70
    32
  0
VERTEX
  8
0
  5
1684
 10
145.811
 20
231.662
 30
0.000000
  70
    32
  0
VERTEX
  8
0
  5
1685
 10
145.840
 20
231.823
 30
0.000000
  70
    32
  0
VERTEX
  8
0
  5
1686
 10
145.861
 20
231.984
 30
0.000000
  70
    32
  0
VERTEX
  8
0
  5
1687
 10
145.873
 20
232.145
 30
0.000000
  70
    32
  0
VERTEX
  8
0
  5
1688
 10
145.877
 20
232.306
 30
0.000000
  70
    32
  0
SEQEND
  8
0
  5
1689
  0
LINE
  5
1258
  8
0
 10
145.87709598900321
 20
232.3064589581461
 30
0.0
 11
145.62709598900321
 21
200.8053605178936
 31
0.0
  0
LINE
  5
1259
  8
0
 10
140.22226337257749
 20
246.2244463086694
 30
0.0
 11
138.7106417696906
 21
253.4083154162598
 31
0.0
  0
ARC
  5
125A
  8
0
 10
138.2213562815526
 20
253.30536051789349
 30
0.0
 40
0.5
 50
11.882762862839719
 51
90.0
  0
ARC
  5
125B
  8
0
 10
144.80774631805201
 20
242.05987531012681
 30
0.0
 40
6.0
 50
141.32779275757619
 51
207.67186019459629
  0
ARC
  5
125C
  8
0
 10
139.73297788443969
 20
246.12149141030321
 30
0.0
 40
0.5
 50
321.32779275757628
 51
11.88276286284132
  0
LINE
  5
125D
  8
0
 10
140.23297788443969
 20
246.12149141030321
 30
0.0
 11
140.23297788443961
 21
237.77352026492599
 31
0.0
  0
ARC
  5
125E
  8
0
 10
148.8025090278353
 20
242.92746399593159
 30
0.0
 40
10.0
 50
201.4323956628549
 51
229.77460563426351
  0
LINE
  5
125F
  8
0
 10
118.37709598900319
 20
232.3064589581461
 30
0.0
 11
118.62709598900319
 21
200.8053605178936
 31
0.0
  0
LINE
  5
1260
  8
0
 10
124.0319286054288
 20
246.2244463086694
 30
0.0
 11
125.54355020831581
 21
253.4083154162598
 31
0.0
  0
ARC
  5
1261
  8
0
 10
124.5212140935667
 20
246.12149141030321
 30
0.0
 40
0.5
 50
168.1172371371587
 51
218.67220724242381
  0
ARC
  5
1262
  8
0
 10
126.0328356964537
 20
253.30536051789349
 30
0.0
 40
0.5
 50
90.0
 51
168.1172371371602
  0
POLYLINE
  5
1263
  8
0
 10
121.8961351521037
 20
235.28115949750514
 30
0.0
 66
     1
 70
     8
  0
VERTEX
  8
0
  5
168A
 10
121.896
 20
235.281
 30
0.000000
  70
    32
  0
VERTEX
  8
0
  5
168B
 10
121.844
 20
235.262
 30
0.000000
  70
    32
  0
VERTEX
  8
0
  5
168C
 10
121.792
 20
235.243
 30
0.000000
  70
    32
  0
VERTEX
  8
0
  5
168D
 10
121.740
 20
235.224
 30
0.000000
  70
    32
  0
VERTEX
  8
0
  5
168E
 10
121.689
 20
235.205
 30
0.000000
  70
    32
  0
VERTEX
  8
0
  5
168F
 10
121.638
 20
235.185
 30
0.000000
  70
    32
  0
VERTEX
  8
0
  5
1690
 10
121.587
 20
235.166
 30
0.000000
  70
    32
  0
VERTEX
  8
0
  5
1691
 10
121.537
 20
235.146
 30
0.000000
  70
    32
  0
VERTEX
  8
0
  5
1692
 10
121.487
 20
235.127
 30
0.000000
  70
    32
  0
VERTEX
  8
0
  5
1693
 10
121.437
 20
235.107
 30
0.000000
  70
    32
  0
VERTEX
  8
0
  5
1694
 10
121.388
 20
235.087
 30
0.000000
  70
    32
  0
VERTEX
  8
0
  5
1695
 10
121.339
 20
235.067
 30
0.000000
  70
    32
  0
VERTEX
  8
0
  5
1696
 10
121.291
 20
235.047
 30
0.000000
  70
    32
  0
VERTEX
  8
0
  5
1697
 10
121.242
 20
235.027
 30
0.000000
  70
    32
  0
VERTEX
  8
0
  5
1698
 10
121.195
 20
235.007
 30
0.000000
  70
    32
  0
VERTEX
  8
0
  5
1699
 10
121.147
 20
234.987
 30
0.000000
  70
    32
  0
VERTEX
  8
0
  5
169A
 10
121.100
 20
234.966
 30
0.000000
  70
    32
  0
VERTEX
  8
0
  5
169B
 10
121.053
 20
234.946
 30
0.000000
  70
    32
  0
VERTEX
  8
0
  5
169C
 10
121.007
 20
234.925
 30
0.000000
  70
    32
  0
VERTEX
  8
0
  5
169D
 10
120.961
 20
234.905
 30
0.000000
  70
    32
  0
VERTEX
  8
0
  5
169E
 10
120.915
 20
234.884
 30
0.000000
  70
    32
  0
VERTEX
  8
0
  5
169F
 10
120.870
 20
234.863
 30
0.000000
  70
    32
  0
VERTEX
  8
0
  5
16A0
 10
120.825
 20
234.842
 30
0.000000
  70
    32
  0
VERTEX
  8
0
  5
16A1
 10
120.780
 20
234.821
 30
0.000000
  70
    32
  0
VERTEX
  8
0
  5
16A2
 10
120.736
 20
234.800
 30
0.000000
  70
    32
  0
VERTEX
  8
0
  5
16A3
 10
120.692
 20
234.779
 30
0.000000
  70
    32
  0
VERTEX
  8
0
  5
16A4
 10
120.649
 20
234.758
 30
0.000000
  70
    32
  0
VERTEX
  8
0
  5
16A5
 10
120.606
 20
234.737
 30
0.000000
  70
    32
  0
VERTEX
  8
0
  5
16A6
 10
120.563
 20
234.715
 30
0.000000
  70
    32
  0
VERTEX
  8
0
  5
16A7
 10
120.521
 20
234.694
 30
0.000000
  70
    32
  0
VERTEX
  8
0
  5
16A8
 10
120.479
 20
234.672
 30
0.000000
  70
    32
  0
VERTEX
  8
0
  5
16A9
 10
120.437
 20
234.651
 30
0.000000
  70
    32
  0
VERTEX
  8
0
  5
16AA
 10
120.396
 20
234.629
 30
0.000000
  70
    32
  0
VERTEX
  8
0
  5
16AB
 10
120.355
 20
234.607
 30
0.000000
  70
    32
  0
VERTEX
  8
0
  5
16AC
 10
120.315
 20
234.585
 30
0.000000
  70
    32
  0
VERTEX
  8
0
  5
16AD
 10
120.275
 20
234.563
 30
0.000000
  70
    32
  0
VERTEX
  8
0
  5
16AE
 10
120.235
 20
234.541
 30
0.000000
  70
    32
  0
VERTEX
  8
0
  5
16AF
 10
120.196
 20
234.519
 30
0.000000
  70
    32
  0
VERTEX
  8
0
  5
16B0
 10
120.157
 20
234.497
 30
0.000000
  70
    32
  0
VERTEX
  8
0
  5
16B1
 10
120.118
 20
234.475
 30
0.000000
  70
    32
  0
VERTEX
  8
0
  5
16B2
 10
120.080
 20
234.453
 30
0.000000
  70
    32
  0
VERTEX
  8
0
  5
16B3
 10
120.043
 20
234.431
 30
0.000000
  70
    32
  0
VERTEX
  8
0
  5
16B4
 10
120.005
 20
234.408
 30
0.000000
  70
    32
  0
VERTEX
  8
0
  5
16B5
 10
119.968
 20
234.386
 30
0.000000
  70
    32
  0
VERTEX
  8
0
  5
16B6
 10
119.932
 20
234.363
 30
0.000000
  70
    32
  0
VERTEX
  8
0
  5
16B7
 10
119.896
 20
234.340
 30
0.000000
  70
    32
  0
VERTEX
  8
0
  5
16B8
 10
119.860
 20
234.318
 30
0.000000
  70
    32
  0
VERTEX
  8
0
  5
16B9
 10
119.825
 20
234.295
 30
0.000000
  70
    32
  0
VERTEX
  8
0
  5
16BA
 10
119.790
 20
234.272
 30
0.000000
  70
    32
  0
VERTEX
  8
0
  5
16BB
 10
119.755
 20
234.249
 30
0.000000
  70
    32
  0
VERTEX
  8
0
  5
16BC
 10
119.721
 20
234.226
 30
0.000000
  70
    32
  0
VERTEX
  8
0
  5
16BD
 10
119.688
 20
234.203
 30
0.000000
  70
    32
  0
VERTEX
  8
0
  5
16BE
 10
119.654
 20
234.180
 30
0.000000
  70
    32
  0
VERTEX
  8
0
  5
16BF
 10
119.621
 20
234.157
 30
0.000000
  70
    32
  0
VERTEX
  8
0
  5
16C0
 10
119.589
 20
234.134
 30
0.000000
  70
    32
  0
VERTEX
  8
0
  5
16C1
 10
119.557
 20
234.111
 30
0.000000
  70
    32
  0
VERTEX
  8
0
  5
16C2
 10
119.525
 20
234.088
 30
0.000000
  70
    32
  0
VERTEX
  8
0
  5
16C3
 10
119.494
 20
234.064
 30
0.000000
  70
    32
  0
VERTEX
  8
0
  5
16C4
 10
119.463
 20
234.041
 30
0.000000
  70
    32
  0
VERTEX
  8
0
  5
16C5
 10
119.433
 20
234.017
 30
0.000000
  70
    32
  0
VERTEX
  8
0
  5
16C6
 10
119.403
 20
233.994
 30
0.000000
  70
    32
  0
VERTEX
  8
0
  5
16C7
 10
119.373
 20
233.970
 30
0.000000
  70
    32
  0
VERTEX
  8
0
  5
16C8
 10
119.344
 20
233.947
 30
0.000000
  70
    32
  0
VERTEX
  8
0
  5
16C9
 10
119.315
 20
233.923
 30
0.000000
  70
    32
  0
VERTEX
  8
0
  5
16CA
 10
119.287
 20
233.899
 30
0.000000
  70
    32
  0
VERTEX
  8
0
  5
16CB
 10
119.259
 20
233.875
 30
0.000000
  70
    32
  0
VERTEX
  8
0
  5
16CC
 10
119.232
 20
233.852
 30
0.000000
  70
    32
  0
VERTEX
  8
0
  5
16CD
 10
119.205
 20
233.828
 30
0.000000
  70
    32
  0
VERTEX
  8
0
  5
16CE
 10
119.178
 20
233.804
 30
0.000000
  70
    32
  0
VERTEX
  8
0
  5
16CF
 10
119.152
 20
233.780
 30
0.000000
  70
    32
  0
VERTEX
  8
0
  5
16D0
 10
119.126
 20
233.756
 30
0.000000
  70
    32
  0
VERTEX
  8
0
  5
16D1
 10
119.100
 20
233.732
 30
0.000000
  70
    32
  0
VERTEX
  8
0
  5
16D2
 10
119.076
 20
233.707
 30
0.000000
  70
    32
  0
VERTEX
  8
0
  5
16D3
 10
119.051
 20
233.683
 30
0.000000
  70
    32
  0
VERTEX
  8
0
  5
16D4
 10
119.027
 20
233.659
 30
0.000000
  70
    32
  0
VERTEX
  8
0
  5
16D5
 10
119.003
 20
233.635
 30
0.000000
  70
    32
  0
VERTEX
  8
0
  5
16D6
 10
118.980
 20
233.610
 30
0.000000
  70
    32
  0
VERTEX
  8
0
  5
16D7
 10
118.957
 20
233.586
 30
0.000000
  70
    32
  0
VERTEX
  8
0
  5
16D8
 10
118.935
 20
233.562
 30
0.000000
  70
    32
  0
VERTEX
  8
0
  5
16D9
 10
118.913
 20
233.537
 30
0.000000
  70
    32
  0
VERTEX
  8
0
  5
16DA
 10
118.891
 20
233.513
 30
0.000000
  70
    32
  0
VERTEX
  8
0
  5
16DB
 10
118.870
 20
233.488
 30
0.000000
  70
    32
  0
VERTEX
  8
0
  5
16DC
 10
118.850
 20
233.464
 30
0.000000
  70
    32
  0
VERTEX
  8
0
  5
16DD
 10
118.829
 20
233.439
 30
0.000000
  70
    32
  0
VERTEX
  8
0
  5
16DE
 10
118.810
 20
233.415
 30
0.000000
  70
    32
  0
VERTEX
  8
0
  5
16DF
 10
118.790
 20
233.390
 30
0.000000
  70
    32
  0
VERTEX
  8
0
  5
16E0
 10
118.771
 20
233.365
 30
0.000000
  70
    32
  0
VERTEX
  8
0
  5
16E1
 10
118.753
 20
233.340
 30
0.000000
  70
    32
  0
VERTEX
  8
0
  5
16E2
 10
118.735
 20
233.316
 30
0.000000
  70
    32
  0
VERTEX
  8
0
  5
16E3
 10
118.717
 20
233.291
 30
0.000000
  70
    32
  0
VERTEX
  8
0
  5
16E4
 10
118.700
 20
233.266
 30
0.000000
  70
    32
  0
VERTEX
  8
0
  5
16E5
 10
118.683
 20
233.241
 30
0.000000
  70
    32
  0
VERTEX
  8
0
  5
16E6
 10
118.667
 20
233.216
 30
0.000000
  70
    32
  0
VERTEX
  8
0
  5
16E7
 10
118.651
 20
233.191
 30
0.000000
  70
    32
  0
VERTEX
  8
0
  5
16E8
 10
118.636
 20
233.166
 30
0.000000
  70
    32
  0
VERTEX
  8
0
  5
16E9
 10
118.621
 20
233.141
 30
0.000000
  70
    32
  0
VERTEX
  8
0
  5
16EA
 10
118.606
 20
233.116
 30
0.000000
  70
    32
  0
VERTEX
  8
0
  5
16EB
 10
118.592
 20
233.091
 30
0.000000
  70
    32
  0
VERTEX
  8
0
  5
16EC
 10
118.579
 20
233.066
 30
0.000000
  70
    32
  0
VERTEX
  8
0
  5
16ED
 10
118.566
 20
233.041
 30
0.000000
  70
    32
  0
VERTEX
  8
0
  5
16EE
 10
118.553
 20
233.016
 30
0.000000
  70
    32
  0
VERTEX
  8
0
  5
16EF
 10
118.541
 20
232.991
 30
0.000000
  70
    32
  0
VERTEX
  8
0
  5
16F0
 10
118.529
 20
232.966
 30
0.000000
  70
    32
  0
VERTEX
  8
0
  5
16F1
 10
118.517
 20
232.941
 30
0.000000
  70
    32
  0
VERTEX
  8
0
  5
16F2
 10
118.506
 20
232.915
 30
0.000000
  70
    32
  0
VERTEX
  8
0
  5
16F3
 10
118.496
 20
232.890
 30
0.000000
  70
    32
  0
VERTEX
  8
0
  5
16F4
 10
118.486
 20
232.865
 30
0.000000
  70
    32
  0
VERTEX
  8
0
  5
16F5
 10
118.476
 20
232.840
 30
0.000000
  70
    32
  0
VERTEX
  8
0
  5
16F6
 10
118.467
 20
232.814
 30
0.000000
  70
    32
  0
VERTEX
  8
0
  5
16F7
 10
118.458
 20
232.789
 30
0.000000
  70
    32
  0
VERTEX
  8
0
  5
16F8
 10
118.450
 20
232.764
 30
0.000000
  70
    32
  0
VERTEX
  8
0
  5
16F9
 10
118.442
 20
232.738
 30
0.000000
  70
    32
  0
VERTEX
  8
0
  5
16FA
 10
118.435
 20
232.713
 30
0.000000
  70
    32
  0
VERTEX
  8
0
  5
16FB
 10
118.428
 20
232.688
 30
0.000000
  70
    32
  0
VERTEX
  8
0
  5
16FC
 10
118.421
 20
232.662
 30
0.000000
  70
    32
  0
VERTEX
  8
0
  5
16FD
 10
118.415
 20
232.637
 30
0.000000
  70
    32
  0
VERTEX
  8
0
  5
16FE
 10
118.409
 20
232.612
 30
0.000000
  70
    32
  0
VERTEX
  8
0
  5
16FF
 10
118.404
 20
232.586
 30
0.000000
  70
    32
  0
VERTEX
  8
0
  5
1700
 10
118.400
 20
232.561
 30
0.000000
  70
    32
  0
VERTEX
  8
0
  5
1701
 10
118.395
 20
232.535
 30
0.000000
  70
    32
  0
VERTEX
  8
0
  5
1702
 10
118.391
 20
232.510
 30
0.000000
  70
    32
  0
VERTEX
  8
0
  5
1703
 10
118.388
 20
232.485
 30
0.000000
  70
    32
  0
VERTEX
  8
0
  5
1704
 10
118.385
 20
232.459
 30
0.000000
  70
    32
  0
VERTEX
  8
0
  5
1705
 10
118.383
 20
232.434
 30
0.000000
  70
    32
  0
VERTEX
  8
0
  5
1706
 10
118.381
 20
232.408
 30
0.000000
  70
    32
  0
VERTEX
  8
0
  5
1707
 10
118.379
 20
232.383
 30
0.000000
  70
    32
  0
VERTEX
  8
0
  5
1708
 10
118.378
 20
232.357
 30
0.000000
  70
    32
  0
VERTEX
  8
0
  5
1709
 10
118.377
 20
232.332
 30
0.000000
  70
    32
  0
VERTEX
  8
0
  5
170A
 10
118.377
 20
232.306
 30
0.000000
  70
    32
  0
SEQEND
  8
0
  5
170B
  0
LINE
  5
1264
  8
0
 10
124.0212140935667
 20
246.12149141030321
 30
0.0
 11
124.0212140935667
 21
237.77352026492599
 31
0.0
  0
ARC
  5
1265
  8
0
 10
119.44644565995431
 20
242.05987531012681
 30
0.0
 40
6.0
 50
332.32813980540368
 51
38.672207242423767
  0
ARC
  5
1266
  8
0
 10
115.451682950171
 20
242.92746399593159
 30
0.0
 40
10.0
 50
310.22539436573652
 51
338.5676043371451
  0
LINE
  5
1267
  8
0
 10
426.6779157161485
 20
249.80533926069751
 30
0.0
 11
428.37810161248137
 21
249.80533926069751
 31
0.0
  0
LINE
  5
1268
  8
0
 10
426.2111536313908
 20
249.14439017905761
 30
0.0
 11
428.84486369723908
 21
249.14439017905761
 31
0.0
  0
LINE
  5
1269
  8
0
 10
420.92697805805818
 20
240.4680485077522
 30
0.0
 11
434.12903927057181
 21
240.4680485077522
 31
0.0
  0
LINE
  5
126A
  8
0
 10
421.04094013533762
 20
241.86258247711169
 30
0.0
 11
434.01507719329243
 21
241.86258247711169
 31
0.0
  0
LINE
  5
126B
  8
0
 10
434.63989601243333
 20
239.7753605178936
 30
0.0
 11
420.41612131619672
 21
239.7753605178936
 31
0.0
  0
LINE
  5
126C
  8
0
 10
434.02800866431488
 20
253.56054585246511
 30
0.0
 11
434.02800866431488
 21
241.7253833857776
 31
0.0
  0
LINE
  5
126D
  8
0
 10
441.02800866431488
 20
200.8053605178936
 30
0.0
 11
414.028008664315
 21
200.8053605178936
 31
0.0
  0
POLYLINE
  5
126E
  8
0
 66
     1
 10
0.0
 20
0.0
 30
0.0
  0
VERTEX
  5
14AE
  8
0
 10
419.795217820434
 20
220.0829780037275
 30
0.0
  0
VERTEX
  5
14AF
  8
0
 10
419.6429182846714
 20
219.70235766602181
 30
0.0
  0
VERTEX
  5
14B0
  8
0
 10
419.31219072337967
 20
218.94164127053719
 30
0.0
  0
VERTEX
  5
14B1
  8
0
 10
418.94832684179642
 20
218.1831674563729
 30
0.0
  0
VERTEX
  5
14B2
  8
0
 10
418.7546526680315
 20
217.80536051789349
 30
0.0
  0
SEQEND
  5
14B3
  8
0
  0
POLYLINE
  5
126F
  8
0
 66
     1
 10
0.0
 20
0.0
 30
0.0
  0
VERTEX
  5
14B4
  8
0
 10
419.65339918769342
 20
230.4609991559368
 30
0.0
  0
VERTEX
  5
14B5
  8
0
 10
420.02935537721868
 20
229.69523885236171
 30
0.0
  0
VERTEX
  5
14B6
  8
0
 10
420.58356684332779
 20
228.07855934727189
 30
0.0
  0
VERTEX
  5
14B7
  8
0
 10
420.86308269597362
 20
226.36046659860801
 30
0.0
  0
VERTEX
  5
14B8
  8
0
 10
420.898008664315
 20
225.46880339644451
 30
0.0
  0
SEQEND
  5
14B9
  8
0
  0
POLYLINE
  5
1270
  8
0
 66
     1
 10
0.0
 20
0.0
 30
0.0
  0
VERTEX
  5
14BA
  8
0
 10
420.898008664315
 20
225.46880339644451
 30
0.0
  0
VERTEX
  5
14BB
  8
0
 10
420.8662908472192
 20
224.5993389857554
 30
0.0
  0
VERTEX
  5
14BC
  8
0
 10
420.61541879044728
 20
222.818593198814
 30
0.0
  0
VERTEX
  5
14BD
  8
0
 10
420.12485742820257
 20
220.9996401265166
 30
0.0
  0
VERTEX
  5
14BE
  8
0
 10
419.795217820434
 20
220.0829780037275
 30
0.0
  0
SEQEND
  5
14BF
  8
0
  0
POLYLINE
  5
1271
  8
0
 66
     1
 10
0.0
 20
0.0
 30
0.0
  0
VERTEX
  5
14C0
  8
0
 10
419.41062558739458
 20
231.5388645468704
 30
0.0
  0
VERTEX
  5
14C1
  8
0
 10
419.40825208714091
 20
231.51223951325969
 30
0.0
  0
VERTEX
  5
14C2
  8
0
 10
419.40481600092238
 20
231.4590792113051
 30
0.0
  0
VERTEX
  5
14C3
  8
0
 10
419.40310918998961
 20
231.40605383785831
 30
0.0
  0
VERTEX
  5
14C4
  8
0
 10
419.40289697148262
 20
231.37959749167601
 30
0.0
  0
SEQEND
  5
14C5
  8
0
  0
POLYLINE
  5
1272
  8
0
 66
     1
 10
0.0
 20
0.0
 30
0.0
  0
VERTEX
  5
14C6
  8
0
 10
419.40289697148262
 20
231.37959749167601
 30
0.0
  0
VERTEX
  5
14C7
  8
0
 10
419.40957016947118
 20
231.230816402801
 30
0.0
  0
VERTEX
  5
14C8
  8
0
 10
419.46415306831648
 20
230.92702910678969
 30
0.0
  0
VERTEX
  5
14C9
  8
0
 10
419.57574309399331
 20
230.61725334277449
 30
0.0
  0
VERTEX
  5
14CA
  8
0
 10
419.65339918769342
 20
230.4609991559368
 30
0.0
  0
SEQEND
  5
14CB
  8
0
  0
LINE
  5
1273
  8
0
 10
420.32467365468062
 20
239.45581666819399
 30
0.0
 11
434.73134367394943
 21
239.45581666819399
 31
0.0
  0
LINE
  5
1274
  8
0
 10
437.02800866431488
 20
190.8053605178936
 30
0.0
 11
437.02800866431488
 21
200.8053605178936
 31
0.0
  0
LINE
  5
1275
  8
0
 10
418.028008664315
 20
200.8053605178936
 30
0.0
 11
418.028008664315
 21
190.8053605178936
 31
0.0
  0
LINE
  5
1276
  8
0
 10
418.028008664315
 20
190.8053605178936
 30
0.0
 11
437.02800866431488
 21
190.8053605178936
 31
0.0
  0
LINE
  5
1277
  8
1
 10
427.528008664315
 20
258.80536051789352
 30
0.0
 11
427.52800866431488
 21
155.8053605178936
 31
0.0
  0
LINE
  5
1278
  8
0
 10
433.62226895686439
 20
253.80536051789349
 30
0.0
 11
421.43374837176549
 21
253.80536051789349
 31
0.0
  0
ARC
  5
1279
  8
0
 10
421.43374837176549
 20
253.30536051789349
 30
0.0
 40
0.5
 50
90.0
 51
168.1172371371602
  0
ARC
  5
127A
  8
0
 10
433.62226895686439
 20
253.30536051789349
 30
0.0
 40
0.5
 50
11.882762862839719
 51
90.0
  0
LINE
  5
127B
  8
0
 10
435.6231760478895
 20
246.2244463086694
 30
0.0
 11
434.11155444500241
 21
253.4083154162598
 31
0.0
  0
LINE
  5
127C
  8
0
 10
419.4328412807406
 20
246.2244463086694
 30
0.0
 11
420.94446288362752
 21
253.4083154162598
 31
0.0
  0
LINE
  5
127D
  8
0
 10
419.42212676887851
 20
246.12149141030321
 30
0.0
 11
419.42212676887851
 21
231.65387073687819
 31
0.0
  0
ARC
  5
127E
  8
0
 10
419.92212676887851
 20
246.12149141030321
 30
0.0
 40
0.5
 50
168.1172371371587
 51
180.0
  0
ARC
  5
127F
  8
0
 10
435.13389055975148
 20
246.12149141030321
 30
0.0
 40
0.5
 50
0.0
 51
11.88276286284132
  0
LINE
  5
1280
  8
0
 10
435.63389055975148
 20
246.12149141030321
 30
0.0
 11
435.63389055975142
 21
231.6311053465171
 31
0.0
  0
LINE
  5
1281
  8
0
 10
413.778008664315
 20
232.3064589581461
 30
0.0
 11
414.028008664315
 21
200.8053605178936
 31
0.0
  0
LINE
  5
1282
  8
0
 10
441.27800866431488
 20
232.3064589581461
 30
0.0
 11
441.02800866431488
 21
200.8053605178936
 31
0.0
  0
POLYLINE
  5
1283
  8
0
 10
441.278008664315
 20
232.3064589581461
 30
0.0
 66
     1
 70
     8
  0
VERTEX
  8
0
  5
170C
 10
441.278
 20
232.306
 30
0.000000
  70
    32
  0
VERTEX
  8
0
  5
170D
 10
441.278
 20
232.332
 30
0.000000
  70
    32
  0
VERTEX
  8
0
  5
170E
 10
441.277
 20
232.357
 30
0.000000
  70
    32
  0
VERTEX
  8
0
  5
170F
 10
441.276
 20
232.383
 30
0.000000
  70
    32
  0
VERTEX
  8
0
  5
1710
 10
441.274
 20
232.408
 30
0.000000
  70
    32
  0
VERTEX
  8
0
  5
1711
 10
441.272
 20
232.434
 30
0.000000
  70
    32
  0
VERTEX
  8
0
  5
1712
 10
441.270
 20
232.459
 30
0.000000
  70
    32
  0
VERTEX
  8
0
  5
1713
 10
441.267
 20
232.485
 30
0.000000
  70
    32
  0
VERTEX
  8
0
  5
1714
 10
441.264
 20
232.510
 30
0.000000
  70
    32
  0
VERTEX
  8
0
  5
1715
 10
441.260
 20
232.535
 30
0.000000
  70
    32
  0
VERTEX
  8
0
  5
1716
 10
441.256
 20
232.561
 30
0.000000
  70
    32
  0
VERTEX
  8
0
  5
1717
 10
441.251
 20
232.586
 30
0.000000
  70
    32
  0
VERTEX
  8
0
  5
1718
 10
441.246
 20
232.612
 30
0.000000
  70
    32
  0
VERTEX
  8
0
  5
1719
 10
441.240
 20
232.637
 30
0.000000
  70
    32
  0
VERTEX
  8
0
  5
171A
 10
441.234
 20
232.662
 30
0.000000
  70
    32
  0
VERTEX
  8
0
  5
171B
 10
441.227
 20
232.688
 30
0.000000
  70
    32
  0
VERTEX
  8
0
  5
171C
 10
441.221
 20
232.713
 30
0.000000
  70
    32
  0
VERTEX
  8
0
  5
171D
 10
441.213
 20
232.738
 30
0.000000
  70
    32
  0
VERTEX
  8
0
  5
171E
 10
441.205
 20
232.764
 30
0.000000
  70
    32
  0
VERTEX
  8
0
  5
171F
 10
441.197
 20
232.789
 30
0.000000
  70
    32
  0
VERTEX
  8
0
  5
1720
 10
441.188
 20
232.814
 30
0.000000
  70
    32
  0
VERTEX
  8
0
  5
1721
 10
441.179
 20
232.840
 30
0.000000
  70
    32
  0
VERTEX
  8
0
  5
1722
 10
441.169
 20
232.865
 30
0.000000
  70
    32
  0
VERTEX
  8
0
  5
1723
 10
441.159
 20
232.890
 30
0.000000
  70
    32
  0
VERTEX
  8
0
  5
1724
 10
441.149
 20
232.915
 30
0.000000
  70
    32
  0
VERTEX
  8
0
  5
1725
 10
441.138
 20
232.941
 30
0.000000
  70
    32
  0
VERTEX
  8
0
  5
1726
 10
441.126
 20
232.966
 30
0.000000
  70
    32
  0
VERTEX
  8
0
  5
1727
 10
441.115
 20
232.991
 30
0.000000
  70
    32
  0
VERTEX
  8
0
  5
1728
 10
441.102
 20
233.016
 30
0.000000
  70
    32
  0
VERTEX
  8
0
  5
1729
 10
441.090
 20
233.041
 30
0.000000
  70
    32
  0
VERTEX
  8
0
  5
172A
 10
441.076
 20
233.066
 30
0.000000
  70
    32
  0
VERTEX
  8
0
  5
172B
 10
441.063
 20
233.091
 30
0.000000
  70
    32
  0
VERTEX
  8
0
  5
172C
 10
441.049
 20
233.116
 30
0.000000
  70
    32
  0
VERTEX
  8
0
  5
172D
 10
441.034
 20
233.141
 30
0.000000
  70
    32
  0
VERTEX
  8
0
  5
172E
 10
441.019
 20
233.166
 30
0.000000
  70
    32
  0
VERTEX
  8
0
  5
172F
 10
441.004
 20
233.191
 30
0.000000
  70
    32
  0
VERTEX
  8
0
  5
1730
 10
440.988
 20
233.216
 30
0.000000
  70
    32
  0
VERTEX
  8
0
  5
1731
 10
440.972
 20
233.241
 30
0.000000
  70
    32
  0
VERTEX
  8
0
  5
1732
 10
440.955
 20
233.266
 30
0.000000
  70
    32
  0
VERTEX
  8
0
  5
1733
 10
440.938
 20
233.291
 30
0.000000
  70
    32
  0
VERTEX
  8
0
  5
1734
 10
440.920
 20
233.316
 30
0.000000
  70
    32
  0
VERTEX
  8
0
  5
1735
 10
440.902
 20
233.340
 30
0.000000
  70
    32
  0
VERTEX
  8
0
  5
1736
 10
440.884
 20
233.365
 30
0.000000
  70
    32
  0
VERTEX
  8
0
  5
1737
 10
440.865
 20
233.390
 30
0.000000
  70
    32
  0
VERTEX
  8
0
  5
1738
 10
440.845
 20
233.415
 30
0.000000
  70
    32
  0
VERTEX
  8
0
  5
1739
 10
440.826
 20
233.439
 30
0.000000
  70
    32
  0
VERTEX
  8
0
  5
173A
 10
440.805
 20
233.464
 30
0.000000
  70
    32
  0
VERTEX
  8
0
  5
173B
 10
440.785
 20
233.488
 30
0.000000
  70
    32
  0
VERTEX
  8
0
  5
173C
 10
440.764
 20
233.513
 30
0.000000
  70
    32
  0
VERTEX
  8
0
  5
173D
 10
440.742
 20
233.537
 30
0.000000
  70
    32
  0
VERTEX
  8
0
  5
173E
 10
440.720
 20
233.562
 30
0.000000
  70
    32
  0
VERTEX
  8
0
  5
173F
 10
440.698
 20
233.586
 30
0.000000
  70
    32
  0
VERTEX
  8
0
  5
1740
 10
440.675
 20
233.610
 30
0.000000
  70
    32
  0
VERTEX
  8
0
  5
1741
 10
440.652
 20
233.635
 30
0.000000
  70
    32
  0
VERTEX
  8
0
  5
1742
 10
440.628
 20
233.659
 30
0.000000
  70
    32
  0
VERTEX
  8
0
  5
1743
 10
440.604
 20
233.683
 30
0.000000
  70
    32
  0
VERTEX
  8
0
  5
1744
 10
440.580
 20
233.707
 30
0.000000
  70
    32
  0
VERTEX
  8
0
  5
1745
 10
440.555
 20
233.732
 30
0.000000
  70
    32
  0
VERTEX
  8
0
  5
1746
 10
440.529
 20
233.756
 30
0.000000
  70
    32
  0
VERTEX
  8
0
  5
1747
 10
440.503
 20
233.780
 30
0.000000
  70
    32
  0
VERTEX
  8
0
  5
1748
 10
440.477
 20
233.804
 30
0.000000
  70
    32
  0
VERTEX
  8
0
  5
1749
 10
440.451
 20
233.828
 30
0.000000
  70
    32
  0
VERTEX
  8
0
  5
174A
 10
440.424
 20
233.852
 30
0.000000
  70
    32
  0
VERTEX
  8
0
  5
174B
 10
440.396
 20
233.875
 30
0.000000
  70
    32
  0
VERTEX
  8
0
  5
174C
 10
440.368
 20
233.899
 30
0.000000
  70
    32
  0
VERTEX
  8
0
  5
174D
 10
440.340
 20
233.923
 30
0.000000
  70
    32
  0
VERTEX
  8
0
  5
174E
 10
440.311
 20
233.947
 30
0.000000
  70
    32
  0
VERTEX
  8
0
  5
174F
 10
440.282
 20
233.970
 30
0.000000
  70
    32
  0
VERTEX
  8
0
  5
1750
 10
440.252
 20
233.994
 30
0.000000
  70
    32
  0
VERTEX
  8
0
  5
1751
 10
440.222
 20
234.017
 30
0.000000
  70
    32
  0
VERTEX
  8
0
  5
1752
 10
440.192
 20
234.041
 30
0.000000
  70
    32
  0
VERTEX
  8
0
  5
1753
 10
440.161
 20
234.064
 30
0.000000
  70
    32
  0
VERTEX
  8
0
  5
1754
 10
440.130
 20
234.088
 30
0.000000
  70
    32
  0
VERTEX
  8
0
  5
1755
 10
440.098
 20
234.111
 30
0.000000
  70
    32
  0
VERTEX
  8
0
  5
1756
 10
440.066
 20
234.134
 30
0.000000
  70
    32
  0
VERTEX
  8
0
  5
1757
 10
440.034
 20
234.157
 30
0.000000
  70
    32
  0
VERTEX
  8
0
  5
1758
 10
440.001
 20
234.180
 30
0.000000
  70
    32
  0
VERTEX
  8
0
  5
1759
 10
439.968
 20
234.203
 30
0.000000
  70
    32
  0
VERTEX
  8
0
  5
175A
 10
439.934
 20
234.226
 30
0.000000
  70
    32
  0
VERTEX
  8
0
  5
175B
 10
439.900
 20
234.249
 30
0.000000
  70
    32
  0
VERTEX
  8
0
  5
175C
 10
439.865
 20
234.272
 30
0.000000
  70
    32
  0
VERTEX
  8
0
  5
175D
 10
439.830
 20
234.295
 30
0.000000
  70
    32
  0
VERTEX
  8
0
  5
175E
 10
439.795
 20
234.318
 30
0.000000
  70
    32
  0
VERTEX
  8
0
  5
175F
 10
439.759
 20
234.340
 30
0.000000
  70
    32
  0
VERTEX
  8
0
  5
1760
 10
439.723
 20
234.363
 30
0.000000
  70
    32
  0
VERTEX
  8
0
  5
1761
 10
439.687
 20
234.386
 30
0.000000
  70
    32
  0
VERTEX
  8
0
  5
1762
 10
439.650
 20
234.408
 30
0.000000
  70
    32
  0
VERTEX
  8
0
  5
1763
 10
439.613
 20
234.431
 30
0.000000
  70
    32
  0
VERTEX
  8
0
  5
1764
 10
439.575
 20
234.453
 30
0.000000
  70
    32
  0
VERTEX
  8
0
  5
1765
 10
439.537
 20
234.475
 30
0.000000
  70
    32
  0
VERTEX
  8
0
  5
1766
 10
439.498
 20
234.497
 30
0.000000
  70
    32
  0
VERTEX
  8
0
  5
1767
 10
439.459
 20
234.519
 30
0.000000
  70
    32
  0
VERTEX
  8
0
  5
1768
 10
439.420
 20
234.541
 30
0.000000
  70
    32
  0
VERTEX
  8
0
  5
1769
 10
439.381
 20
234.563
 30
0.000000
  70
    32
  0
VERTEX
  8
0
  5
176A
 10
439.340
 20
234.585
 30
0.000000
  70
    32
  0
VERTEX
  8
0
  5
176B
 10
439.300
 20
234.607
 30
0.000000
  70
    32
  0
VERTEX
  8
0
  5
176C
 10
439.259
 20
234.629
 30
0.000000
  70
    32
  0
VERTEX
  8
0
  5
176D
 10
439.218
 20
234.651
 30
0.000000
  70
    32
  0
VERTEX
  8
0
  5
176E
 10
439.177
 20
234.672
 30
0.000000
  70
    32
  0
VERTEX
  8
0
  5
176F
 10
439.135
 20
234.694
 30
0.000000
  70
    32
  0
VERTEX
  8
0
  5
1770
 10
439.092
 20
234.715
 30
0.000000
  70
    32
  0
VERTEX
  8
0
  5
1771
 10
439.050
 20
234.737
 30
0.000000
  70
    32
  0
VERTEX
  8
0
  5
1772
 10
439.006
 20
234.758
 30
0.000000
  70
    32
  0
VERTEX
  8
0
  5
1773
 10
438.963
 20
234.779
 30
0.000000
  70
    32
  0
VERTEX
  8
0
  5
1774
 10
438.919
 20
234.800
 30
0.000000
  70
    32
  0
VERTEX
  8
0
  5
1775
 10
438.875
 20
234.821
 30
0.000000
  70
    32
  0
VERTEX
  8
0
  5
1776
 10
438.830
 20
234.842
 30
0.000000
  70
    32
  0
VERTEX
  8
0
  5
1777
 10
438.785
 20
234.863
 30
0.000000
  70
    32
  0
VERTEX
  8
0
  5
1778
 10
438.740
 20
234.884
 30
0.000000
  70
    32
  0
VERTEX
  8
0
  5
1779
 10
438.694
 20
234.905
 30
0.000000
  70
    32
  0
VERTEX
  8
0
  5
177A
 10
438.648
 20
234.925
 30
0.000000
  70
    32
  0
VERTEX
  8
0
  5
177B
 10
438.602
 20
234.946
 30
0.000000
  70
    32
  0
VERTEX
  8
0
  5
177C
 10
438.555
 20
234.966
 30
0.000000
  70
    32
  0
VERTEX
  8
0
  5
177D
 10
438.508
 20
234.987
 30
0.000000
  70
    32
  0
VERTEX
  8
0
  5
177E
 10
438.461
 20
235.007
 30
0.000000
  70
    32
  0
VERTEX
  8
0
  5
177F
 10
438.413
 20
235.027
 30
0.000000
  70
    32
  0
VERTEX
  8
0
  5
1780
 10
438.365
 20
235.047
 30
0.000000
  70
    32
  0
VERTEX
  8
0
  5
1781
 10
438.316
 20
235.067
 30
0.000000
  70
    32
  0
VERTEX
  8
0
  5
1782
 10
438.267
 20
235.087
 30
0.000000
  70
    32
  0
VERTEX
  8
0
  5
1783
 10
438.218
 20
235.107
 30
0.000000
  70
    32
  0
VERTEX
  8
0
  5
1784
 10
438.168
 20
235.127
 30
0.000000
  70
    32
  0
VERTEX
  8
0
  5
1785
 10
438.118
 20
235.146
 30
0.000000
  70
    32
  0
VERTEX
  8
0
  5
1786
 10
438.068
 20
235.166
 30
0.000000
  70
    32
  0
VERTEX
  8
0
  5
1787
 10
438.017
 20
235.185
 30
0.000000
  70
    32
  0
VERTEX
  8
0
  5
1788
 10
437.966
 20
235.205
 30
0.000000
  70
    32
  0
VERTEX
  8
0
  5
1789
 10
437.915
 20
235.224
 30
0.000000
  70
    32
  0
VERTEX
  8
0
  5
178A
 10
437.863
 20
235.243
 30
0.000000
  70
    32
  0
VERTEX
  8
0
  5
178B
 10
437.811
 20
235.262
 30
0.000000
  70
    32
  0
VERTEX
  8
0
  5
178C
 10
437.759
 20
235.281
 30
0.000000
  70
    32
  0
SEQEND
  8
0
  5
178D
  0
ARC
  5
1284
  8
0
 10
444.20342170314711
 20
242.92746399593159
 30
0.0
 40
10.0
 50
211.0238190760582
 51
229.77460563426351
  0
ARC
  5
1285
  8
0
 10
410.85259562548282
 20
242.92746399593159
 30
0.0
 40
10.0
 50
310.22539436573652
 51
328.97618092394111
  0
POLYLINE
  5
1286
  8
0
 10
417.2970478274155
 20
235.28115949750514
 30
0.0
 66
     1
 70
     8
  0
VERTEX
  8
0
  5
178E
 10
417.297
 20
235.281
 30
0.000000
  70
    32
  0
VERTEX
  8
0
  5
178F
 10
417.245
 20
235.262
 30
0.000000
  70
    32
  0
VERTEX
  8
0
  5
1790
 10
417.193
 20
235.243
 30
0.000000
  70
    32
  0
VERTEX
  8
0
  5
1791
 10
417.141
 20
235.224
 30
0.000000
  70
    32
  0
VERTEX
  8
0
  5
1792
 10
417.090
 20
235.205
 30
0.000000
  70
    32
  0
VERTEX
  8
0
  5
1793
 10
417.039
 20
235.185
 30
0.000000
  70
    32
  0
VERTEX
  8
0
  5
1794
 10
416.988
 20
235.166
 30
0.000000
  70
    32
  0
VERTEX
  8
0
  5
1795
 10
416.938
 20
235.146
 30
0.000000
  70
    32
  0
VERTEX
  8
0
  5
1796
 10
416.888
 20
235.127
 30
0.000000
  70
    32
  0
VERTEX
  8
0
  5
1797
 10
416.838
 20
235.107
 30
0.000000
  70
    32
  0
VERTEX
  8
0
  5
1798
 10
416.789
 20
235.087
 30
0.000000
  70
    32
  0
VERTEX
  8
0
  5
1799
 10
416.740
 20
235.067
 30
0.000000
  70
    32
  0
VERTEX
  8
0
  5
179A
 10
416.691
 20
235.047
 30
0.000000
  70
    32
  0
VERTEX
  8
0
  5
179B
 10
416.643
 20
235.027
 30
0.000000
  70
    32
  0
VERTEX
  8
0
  5
179C
 10
416.595
 20
235.007
 30
0.000000
  70
    32
  0
VERTEX
  8
0
  5
179D
 10
416.548
 20
234.987
 30
0.000000
  70
    32
  0
VERTEX
  8
0
  5
179E
 10
416.501
 20
234.966
 30
0.000000
  70
    32
  0
VERTEX
  8
0
  5
179F
 10
416.454
 20
234.946
 30
0.000000
  70
    32
  0
VERTEX
  8
0
  5
17A0
 10
416.408
 20
234.925
 30
0.000000
  70
    32
  0
VERTEX
  8
0
  5
17A1
 10
416.362
 20
234.905
 30
0.000000
  70
    32
  0
VERTEX
  8
0
  5
17A2
 10
416.316
 20
234.884
 30
0.000000
  70
    32
  0
VERTEX
  8
0
  5
17A3
 10
416.271
 20
234.863
 30
0.000000
  70
    32
  0
VERTEX
  8
0
  5
17A4
 10
416.226
 20
234.842
 30
0.000000
  70
    32
  0
VERTEX
  8
0
  5
17A5
 10
416.181
 20
234.821
 30
0.000000
  70
    32
  0
VERTEX
  8
0
  5
17A6
 10
416.137
 20
234.800
 30
0.000000
  70
    32
  0
VERTEX
  8
0
  5
17A7
 10
416.093
 20
234.779
 30
0.000000
  70
    32
  0
VERTEX
  8
0
  5
17A8
 10
416.050
 20
234.758
 30
0.000000
  70
    32
  0
VERTEX
  8
0
  5
17A9
 10
416.007
 20
234.737
 30
0.000000
  70
    32
  0
VERTEX
  8
0
  5
17AA
 10
415.964
 20
234.715
 30
0.000000
  70
    32
  0
VERTEX
  8
0
  5
17AB
 10
415.921
 20
234.694
 30
0.000000
  70
    32
  0
VERTEX
  8
0
  5
17AC
 10
415.880
 20
234.672
 30
0.000000
  70
    32
  0
VERTEX
  8
0
  5
17AD
 10
415.838
 20
234.651
 30
0.000000
  70
    32
  0
VERTEX
  8
0
  5
17AE
 10
415.797
 20
234.629
 30
0.000000
  70
    32
  0
VERTEX
  8
0
  5
17AF
 10
415.756
 20
234.607
 30
0.000000
  70
    32
  0
VERTEX
  8
0
  5
17B0
 10
415.716
 20
234.585
 30
0.000000
  70
    32
  0
VERTEX
  8
0
  5
17B1
 10
415.675
 20
234.563
 30
0.000000
  70
    32
  0
VERTEX
  8
0
  5
17B2
 10
415.636
 20
234.541
 30
0.000000
  70
    32
  0
VERTEX
  8
0
  5
17B3
 10
415.597
 20
234.519
 30
0.000000
  70
    32
  0
VERTEX
  8
0
  5
17B4
 10
415.558
 20
234.497
 30
0.000000
  70
    32
  0
VERTEX
  8
0
  5
17B5
 10
415.519
 20
234.475
 30
0.000000
  70
    32
  0
VERTEX
  8
0
  5
17B6
 10
415.481
 20
234.453
 30
0.000000
  70
    32
  0
VERTEX
  8
0
  5
17B7
 10
415.443
 20
234.431
 30
0.000000
  70
    32
  0
VERTEX
  8
0
  5
17B8
 10
415.406
 20
234.408
 30
0.000000
  70
    32
  0
VERTEX
  8
0
  5
17B9
 10
415.369
 20
234.386
 30
0.000000
  70
    32
  0
VERTEX
  8
0
  5
17BA
 10
415.333
 20
234.363
 30
0.000000
  70
    32
  0
VERTEX
  8
0
  5
17BB
 10
415.297
 20
234.340
 30
0.000000
  70
    32
  0
VERTEX
  8
0
  5
17BC
 10
415.261
 20
234.318
 30
0.000000
  70
    32
  0
VERTEX
  8
0
  5
17BD
 10
415.226
 20
234.295
 30
0.000000
  70
    32
  0
VERTEX
  8
0
  5
17BE
 10
415.191
 20
234.272
 30
0.000000
  70
    32
  0
VERTEX
  8
0
  5
17BF
 10
415.156
 20
234.249
 30
0.000000
  70
    32
  0
VERTEX
  8
0
  5
17C0
 10
415.122
 20
234.226
 30
0.000000
  70
    32
  0
VERTEX
  8
0
  5
17C1
 10
415.088
 20
234.203
 30
0.000000
  70
    32
  0
VERTEX
  8
0
  5
17C2
 10
415.055
 20
234.180
 30
0.000000
  70
    32
  0
VERTEX
  8
0
  5
17C3
 10
415.022
 20
234.157
 30
0.000000
  70
    32
  0
VERTEX
  8
0
  5
17C4
 10
414.990
 20
234.134
 30
0.000000
  70
    32
  0
VERTEX
  8
0
  5
17C5
 10
414.958
 20
234.111
 30
0.000000
  70
    32
  0
VERTEX
  8
0
  5
17C6
 10
414.926
 20
234.088
 30
0.000000
  70
    32
  0
VERTEX
  8
0
  5
17C7
 10
414.895
 20
234.064
 30
0.000000
  70
    32
  0
VERTEX
  8
0
  5
17C8
 10
414.864
 20
234.041
 30
0.000000
  70
    32
  0
VERTEX
  8
0
  5
17C9
 10
414.834
 20
234.017
 30
0.000000
  70
    32
  0
VERTEX
  8
0
  5
17CA
 10
414.804
 20
233.994
 30
0.000000
  70
    32
  0
VERTEX
  8
0
  5
17CB
 10
414.774
 20
233.970
 30
0.000000
  70
    32
  0
VERTEX
  8
0
  5
17CC
 10
414.745
 20
233.947
 30
0.000000
  70
    32
  0
VERTEX
  8
0
  5
17CD
 10
414.716
 20
233.923
 30
0.000000
  70
    32
  0
VERTEX
  8
0
  5
17CE
 10
414.688
 20
233.899
 30
0.000000
  70
    32
  0
VERTEX
  8
0
  5
17CF
 10
414.660
 20
233.875
 30
0.000000
  70
    32
  0
VERTEX
  8
0
  5
17D0
 10
414.632
 20
233.852
 30
0.000000
  70
    32
  0
VERTEX
  8
0
  5
17D1
 10
414.605
 20
233.828
 30
0.000000
  70
    32
  0
VERTEX
  8
0
  5
17D2
 10
414.579
 20
233.804
 30
0.000000
  70
    32
  0
VERTEX
  8
0
  5
17D3
 10
414.553
 20
233.780
 30
0.000000
  70
    32
  0
VERTEX
  8
0
  5
17D4
 10
414.527
 20
233.756
 30
0.000000
  70
    32
  0
VERTEX
  8
0
  5
17D5
 10
414.501
 20
233.732
 30
0.000000
  70
    32
  0
VERTEX
  8
0
  5
17D6
 10
414.476
 20
233.707
 30
0.000000
  70
    32
  0
VERTEX
  8
0
  5
17D7
 10
414.452
 20
233.683
 30
0.000000
  70
    32
  0
VERTEX
  8
0
  5
17D8
 10
414.428
 20
233.659
 30
0.000000
  70
    32
  0
VERTEX
  8
0
  5
17D9
 10
414.404
 20
233.635
 30
0.000000
  70
    32
  0
VERTEX
  8
0
  5
17DA
 10
414.381
 20
233.610
 30
0.000000
  70
    32
  0
VERTEX
  8
0
  5
17DB
 10
414.358
 20
233.586
 30
0.000000
  70
    32
  0
VERTEX
  8
0
  5
17DC
 10
414.336
 20
233.562
 30
0.000000
  70
    32
  0
VERTEX
  8
0
  5
17DD
 10
414.314
 20
233.537
 30
0.000000
  70
    32
  0
VERTEX
  8
0
  5
17DE
 10
414.292
 20
233.513
 30
0.000000
  70
    32
  0
VERTEX
  8
0
  5
17DF
 10
414.271
 20
233.488
 30
0.000000
  70
    32
  0
VERTEX
  8
0
  5
17E0
 10
414.251
 20
233.464
 30
0.000000
  70
    32
  0
VERTEX
  8
0
  5
17E1
 10
414.230
 20
233.439
 30
0.000000
  70
    32
  0
VERTEX
  8
0
  5
17E2
 10
414.211
 20
233.415
 30
0.000000
  70
    32
  0
VERTEX
  8
0
  5
17E3
 10
414.191
 20
233.390
 30
0.000000
  70
    32
  0
VERTEX
  8
0
  5
17E4
 10
414.172
 20
233.365
 30
0.000000
  70
    32
  0
VERTEX
  8
0
  5
17E5
 10
414.154
 20
233.340
 30
0.000000
  70
    32
  0
VERTEX
  8
0
  5
17E6
 10
414.136
 20
233.316
 30
0.000000
  70
    32
  0
VERTEX
  8
0
  5
17E7
 10
414.118
 20
233.291
 30
0.000000
  70
    32
  0
VERTEX
  8
0
  5
17E8
 10
414.101
 20
233.266
 30
0.000000
  70
    32
  0
VERTEX
  8
0
  5
17E9
 10
414.084
 20
233.241
 30
0.000000
  70
    32
  0
VERTEX
  8
0
  5
17EA
 10
414.068
 20
233.216
 30
0.000000
  70
    32
  0
VERTEX
  8
0
  5
17EB
 10
414.052
 20
233.191
 30
0.000000
  70
    32
  0
VERTEX
  8
0
  5
17EC
 10
414.037
 20
233.166
 30
0.000000
  70
    32
  0
VERTEX
  8
0
  5
17ED
 10
414.022
 20
233.141
 30
0.000000
  70
    32
  0
VERTEX
  8
0
  5
17EE
 10
414.007
 20
233.116
 30
0.000000
  70
    32
  0
VERTEX
  8
0
  5
17EF
 10
413.993
 20
233.091
 30
0.000000
  70
    32
  0
VERTEX
  8
0
  5
17F0
 10
413.980
 20
233.066
 30
0.000000
  70
    32
  0
VERTEX
  8
0
  5
17F1
 10
413.966
 20
233.041
 30
0.000000
  70
    32
  0
VERTEX
  8
0
  5
17F2
 10
413.954
 20
233.016
 30
0.000000
  70
    32
  0
VERTEX
  8
0
  5
17F3
 10
413.941
 20
232.991
 30
0.000000
  70
    32
  0
VERTEX
  8
0
  5
17F4
 10
413.930
 20
232.966
 30
0.000000
  70
    32
  0
VERTEX
  8
0
  5
17F5
 10
413.918
 20
232.941
 30
0.000000
  70
    32
  0
VERTEX
  8
0
  5
17F6
 10
413.907
 20
232.915
 30
0.000000
  70
    32
  0
VERTEX
  8
0
  5
17F7
 10
413.897
 20
232.890
 30
0.000000
  70
    32
  0
VERTEX
  8
0
  5
17F8
 10
413.887
 20
232.865
 30
0.000000
  70
    32
  0
VERTEX
  8
0
  5
17F9
 10
413.877
 20
232.840
 30
0.000000
  70
    32
  0
VERTEX
  8
0
  5
17FA
 10
413.868
 20
232.814
 30
0.000000
  70
    32
  0
VERTEX
  8
0
  5
17FB
 10
413.859
 20
232.789
 30
0.000000
  70
    32
  0
VERTEX
  8
0
  5
17FC
 10
413.851
 20
232.764
 30
0.000000
  70
    32
  0
VERTEX
  8
0
  5
17FD
 10
413.843
 20
232.738
 30
0.000000
  70
    32
  0
VERTEX
  8
0
  5
17FE
 10
413.835
 20
232.713
 30
0.000000
  70
    32
  0
VERTEX
  8
0
  5
17FF
 10
413.829
 20
232.688
 30
0.000000
  70
    32
  0
VERTEX
  8
0
  5
1800
 10
413.822
 20
232.662
 30
0.000000
  70
    32
  0
VERTEX
  8
0
  5
1801
 10
413.816
 20
232.637
 30
0.000000
  70
    32
  0
VERTEX
  8
0
  5
1802
 10
413.810
 20
232.612
 30
0.000000
  70
    32
  0
VERTEX
  8
0
  5
1803
 10
413.805
 20
232.586
 30
0.000000
  70
    32
  0
VERTEX
  8
0
  5
1804
 10
413.800
 20
232.561
 30
0.000000
  70
    32
  0
VERTEX
  8
0
  5
1805
 10
413.796
 20
232.535
 30
0.000000
  70
    32
  0
VERTEX
  8
0
  5
1806
 10
413.792
 20
232.510
 30
0.000000
  70
    32
  0
VERTEX
  8
0
  5
1807
 10
413.789
 20
232.485
 30
0.000000
  70
    32
  0
VERTEX
  8
0
  5
1808
 10
413.786
 20
232.459
 30
0.000000
  70
    32
  0
VERTEX
  8
0
  5
1809
 10
413.784
 20
232.434
 30
0.000000
  70
    32
  0
VERTEX
  8
0
  5
180A
 10
413.782
 20
232.408
 30
0.000000
  70
    32
  0
VERTEX
  8
0
  5
180B
 10
413.780
 20
232.383
 30
0.000000
  70
    32
  0
VERTEX
  8
0
  5
180C
 10
413.779
 20
232.357
 30
0.000000
  70
    32
  0
VERTEX
  8
0
  5
180D
 10
413.778
 20
232.332
 30
0.000000
  70
    32
  0
VERTEX
  8
0
  5
180E
 10
413.778
 20
232.306
 30
0.000000
  70
    32
  0
SEQEND
  8
0
  5
180F
  0
ARC
  5
1287
  8
0
 10
447.68117384294823
 20
225.0794771243406
 30
0.0
 40
13.5
 50
154.9957370749591
 51
212.6035820132258
  0
ARC
  5
1288
  8
0
 10
433.63389055975131
 20
231.6311053465171
 30
0.0
 40
2.0
 50
334.99573707495921
 51
0.0
  0
LINE
  5
1289
  8
0
 10
434.73134367394943
 20
239.45581666819379
 30
0.0
 11
435.6337437383354
 21
231.65533887923451
 31
0.0
  0
LINE
  5
128A
  8
0
 10
434.63989601243333
 20
239.7753605178936
 30
0.0
 11
434.73134367394943
 21
239.45581666819399
 31
0.0
  0
LINE
  5
128B
  8
0
 10
434.01507719329243
 20
241.86258247711169
 30
0.0
 11
434.18564611125493
 21
239.7753605178936
 31
0.0
  0
ARC
  5
128C
  8
0
 10
441.6382038359377
 20
235.79969945549871
 30
0.0
 40
20.0
 50
117.22668439682791
 51
131.85703956953191
  0
ARC
  5
128D
  8
0
 10
433.40298593015399
 20
251.80536051789349
 30
0.0
 40
2.0
 50
90.0
 51
117.22668439682791
  0
ARC
  5
128E
  8
0
 10
502.12685217183378
 20
301.3914012438961
 30
0.0
 40
90.0
 50
214.79142625443711
 51
219.8857855585226
  0
ARC
  5
128F
  8
0
 10
428.62635533141128
 20
250.32353498524961
 30
0.0
 40
0.5
 50
131.85703956953191
 51
214.79142625443771
  0
ARC
  5
1290
  8
0
 10
426.50734517851828
 20
239.0996202996042
 30
0.0
 40
8.0
 50
20.2044001903514
 51
34.911162194464822
  0
ARC
  5
1291
  8
0
 10
413.41781349269229
 20
235.79969945549871
 30
0.0
 40
20.0
 50
48.14296043046803
 51
62.773315603172058
  0
ARC
  5
1292
  8
0
 10
421.65303139847589
 20
251.80536051789349
 30
0.0
 40
2.0
 50
62.773315603172058
 51
90.0
  0
ARC
  5
1293
  8
0
 10
426.42966199721877
 20
250.32353498524961
 30
0.0
 40
0.5
 50
325.20857374556232
 51
48.14296043046803
  0
ARC
  5
1294
  8
0
 10
352.9291651567961
 20
301.3914012438961
 30
0.0
 40
90.0
 50
320.11421444147737
 51
325.208573745563
  0
ARC
  5
1295
  8
0
 10
428.5486721501116
 20
239.0996202996042
 30
0.0
 40
8.0
 50
145.08883780553521
 51
159.79559980964859
  0
LINE
  5
1296
  8
0
 10
421.04094013533762
 20
241.86258247711169
 30
0.0
 11
420.87037121737501
 21
239.7753605178936
 31
0.0
  0
LINE
  5
1297
  8
0
 10
420.41612131619672
 20
239.7753605178936
 30
0.0
 11
420.32467365468062
 21
239.45581666819399
 31
0.0
  0
LINE
  5
1298
  8
0
 10
420.32467365468062
 20
239.45581666819379
 30
0.0
 11
419.42227359029471
 21
231.65533887923451
 31
0.0
  0
LINE
  5
1299
  8
0
 10
421.028008664315
 20
253.56054585246511
 30
0.0
 11
421.028008664315
 21
241.7253833857776
 31
0.0
  0
LINE
  5
12C5
  8
0
 10
136.12709598900321
 20
160.80536051789349
 30
0.0
 11
128.12709598900321
 21
160.8053605178936
 31
0.0
  0
LINE
  5
12C6
  8
0
 10
126.12709598900319
 20
190.8053605178936
 30
0.0
 11
126.1270959890031
 21
162.80536051789369
 31
0.0
  0
LINE
  5
12C7
  8
3
 10
127.0740959890031
 20
185.8053605178936
 30
0.0
 11
127.0740959890031
 21
161.85836051789369
 31
0.0
  0
LINE
  5
12C8
  8
3
 10
137.18009598900321
 20
185.8053605178936
 30
0.0
 11
137.18009598900321
 21
161.85836051789349
 31
0.0
  0
LINE
  5
12C9
  8
0
 10
138.12709598900321
 20
190.8053605178936
 30
0.0
 11
138.1270959890031
 21
162.8053605178934
 31
0.0
  0
LINE
  5
12CA
  8
0
 10
136.12709598900321
 20
160.80536051789349
 30
0.0
 11
138.12709598900321
 21
162.80536051789349
 31
0.0
  0
LINE
  5
12CB
  8
0
 10
128.12709598900321
 20
160.8053605178936
 30
0.0
 11
126.12709598900319
 21
162.8053605178936
 31
0.0
  0
LINE
  5
12CC
  8
0
 10
138.12709598900329
 20
162.8053605178936
 30
0.0
 11
126.12709598900319
 21
162.8053605178936
 31
0.0
  0
LINE
  5
12CD
  8
0
 10
126.1270959890031
 20
185.8053605178936
 30
0.0
 11
138.12709598900329
 21
185.8053605178936
 31
0.0
  0
LINE
  5
12CE
  8
3
 10
137.18009598900321
 20
185.8053605178936
 30
0.0
 11
138.12709598900329
 21
187.44561263266129
 31
0.0
  0
LINE
  5
12CF
  8
3
 10
127.0740959890031
 20
185.8053605178936
 30
0.0
 11
126.12709598900319
 21
187.44561263266129
 31
0.0
  0
LINE
  5
12D3
  8
0
 10
247.47260149911611
 20
160.80536051789349
 30
0.0
 11
239.47260149911611
 21
160.8053605178936
 31
0.0
  0
LINE
  5
12D4
  8
0
 10
249.47260149911611
 20
162.8053605178936
 30
0.0
 11
237.47260149911611
 21
162.8053605178936
 31
0.0
  0
LINE
  5
12D5
  8
0
 10
237.472601499116
 20
185.8053605178936
 30
0.0
 11
249.47260149911611
 21
185.8053605178936
 31
0.0
  0
LINE
  5
12D6
  8
3
 10
238.419601499116
 20
185.8053605178936
 30
0.0
 11
238.419601499116
 21
161.85836051789369
 31
0.0
  0
LINE
  5
12D7
  8
0
 10
237.47260149911611
 20
190.8053605178936
 30
0.0
 11
237.472601499116
 21
162.80536051789369
 31
0.0
  0
LINE
  5
12D8
  8
0
 10
239.47260149911611
 20
160.8053605178936
 30
0.0
 11
237.47260149911611
 21
162.8053605178936
 31
0.0
  0
LINE
  5
12D9
  8
3
 10
238.419601499116
 20
185.8053605178936
 30
0.0
 11
237.47260149911611
 21
187.44561263266129
 31
0.0
  0
LINE
  5
12DA
  8
0
 10
249.47260149911611
 20
190.8053605178936
 30
0.0
 11
249.472601499116
 21
162.8053605178934
 31
0.0
  0
LINE
  5
12DB
  8
3
 10
248.52560149911611
 20
185.8053605178936
 30
0.0
 11
248.52560149911611
 21
161.85836051789349
 31
0.0
  0
LINE
  5
12DC
  8
0
 10
247.47260149911611
 20
160.80536051789349
 30
0.0
 11
249.47260149911611
 21
162.80536051789349
 31
0.0
  0
LINE
  5
12DD
  8
3
 10
248.52560149911611
 20
185.8053605178936
 30
0.0
 11
249.47260149911611
 21
187.44561263266129
 31
0.0
  0
LINE
  5
12DF
  8
3
 10
432.59100866431498
 20
185.8053605178936
 30
0.0
 11
432.59100866431498
 21
161.85836051789369
 31
0.0
  0
LINE
  5
12E0
  8
0
 10
433.53800866431487
 20
190.8053605178936
 30
0.0
 11
433.53800866431487
 21
162.80536051789349
 31
0.0
  0
LINE
  5
12E1
  8
0
 10
421.53800866431499
 20
190.8053605178936
 30
0.0
 11
421.53800866431487
 21
162.80536051789369
 31
0.0
  0
LINE
  5
12E2
  8
3
 10
422.48500866431488
 20
185.8053605178936
 30
0.0
 11
422.48500866431488
 21
161.85836051789369
 31
0.0
  0
LINE
  5
12E3
  8
0
 10
423.53800866431499
 20
160.8053605178936
 30
0.0
 11
421.53800866431499
 21
162.8053605178936
 31
0.0
  0
LINE
  5
12E4
  8
0
 10
433.53800866431499
 20
162.8053605178936
 30
0.0
 11
421.53800866431499
 21
162.8053605178936
 31
0.0
  0
LINE
  5
12E5
  8
0
 10
431.53800866431487
 20
160.80536051789349
 30
0.0
 11
423.53800866431499
 21
160.8053605178936
 31
0.0
  0
LINE
  5
12E6
  8
0
 10
431.53800866431487
 20
160.80536051789349
 30
0.0
 11
433.53800866431487
 21
162.80536051789349
 31
0.0
  0
LINE
  5
12E7
  8
3
 10
422.48500866431488
 20
185.8053605178936
 30
0.0
 11
421.53800866431499
 21
187.44561263266129
 31
0.0
  0
LINE
  5
12E8
  8
0
 10
421.53800866431487
 20
185.8053605178936
 30
0.0
 11
433.53800866431499
 21
185.8053605178936
 31
0.0
  0
LINE
  5
12E9
  8
3
 10
432.59100866431498
 20
185.8053605178936
 30
0.0
 11
433.53800866431499
 21
187.44561263266129
 31
0.0
  0
LINE
  5
133D
  8
0
 10
239.66260149911611
 20
334.86066272205881
 30
0.0
 11
239.66260149911619
 21
333.51066272205873
 31
0.0
  0
LINE
  5
133E
  8
0
 10
247.2626014991161
 20
334.86066272205881
 30
0.0
 11
247.2626014991161
 21
333.51066272205873
 31
0.0
  0
LINE
  5
133F
  8
0
 10
245.25972341732071
 20
334.86066272205881
 30
0.0
 11
247.2626014991161
 21
334.86066272205881
 31
0.0
  0
LINE
  5
1340
  8
0
 10
245.2597234173206
 20
333.51066272205873
 30
0.0
 11
247.2626014991161
 21
333.51066272205873
 31
0.0
  0
LINE
  5
1341
  8
0
 10
239.66260149911611
 20
334.86066272205881
 30
0.0
 11
241.66547958091149
 21
334.86066272205881
 31
0.0
  0
LINE
  5
1342
  8
0
 10
239.66260149911619
 20
333.51066272205873
 30
0.0
 11
241.66547958091161
 21
333.51066272205873
 31
0.0
  0
CIRCLE
  5
1343
  8
0
 10
243.46260149911609
 20
334.18566272205868
 30
0.0
 40
3.999175415007485
  0
LINE
  5
134F
  8
0
 10
138.87709598900321
 20
232.41292793438569
 30
0.0
 11
125.37709598900319
 21
232.41292793438569
 31
0.0
  0
ARC
  5
1350
  8
0
 10
132.12709598900321
 20
222.4913605178935
 30
0.0
 40
12.0
 50
109.4670447595973
 51
124.2288663278118
  0
ARC
  5
1351
  8
0
 10
132.12709598900321
 20
222.4913605178935
 30
0.0
 40
12.0
 50
55.771133672188213
 51
70.532955240402714
  0
LINE
  5
1352
  8
0
 10
136.12627140401071
 20
233.80536051789349
 30
0.0
 11
128.12792057399579
 21
233.80536051789349
 31
0.0
  0
LINE
  5
1353
  8
0
 10
125.37709598900319
 20
232.41292793438569
 30
0.0
 11
125.37709598900319
 21
230.14278515743041
 31
0.0
  0
LINE
  5
1354
  8
0
 10
138.87709598900321
 20
232.41292793438569
 30
0.0
 11
138.87709598900321
 21
230.14278515743041
 31
0.0
  0
CIRCLE
  5
1355
  8
0
 10
243.46260149911609
 20
334.18566272205868
 30
0.0
 40
6.75
  0
ARC
  5
1356
  8
0
 10
245.82624092206831
 20
335.5503105791675
 30
0.0
 40
0.8925000000000011
 50
163.3417582272229
 51
230.59829508168929
  0
ARC
  5
1357
  8
0
 10
245.82624092206831
 20
332.82101486495009
 30
0.0
 40
0.8925000000000002
 50
129.40170491832319
 51
196.65824177277699
  0
ARC
  5
1358
  8
0
 10
244.4826014991161
 20
332.4189708983385
 30
0.0
 40
0.5099999999999997
 50
223.3417582272223
 51
16.658241772777039
  0
ARC
  5
1359
  8
0
 10
243.46260149911609
 20
331.45636700784149
 30
0.0
 40
0.8925000000000002
 50
43.341758227222343
 51
136.65824177277651
  0
ARC
  5
135A
  8
0
 10
242.44260149911619
 20
332.4189708983385
 30
0.0
 40
0.5100000000000002
 50
163.3417582272229
 51
316.65824177277773
  0
ARC
  5
135B
  8
0
 10
241.09896207616401
 20
332.82101486495009
 30
0.0
 40
0.8925000000000011
 50
343.3417582272229
 51
50.598295081676767
  0
ARC
  5
135C
  8
0
 10
244.4826014991161
 20
335.95235454577897
 30
0.0
 40
0.5100000000000003
 50
343.3417582272229
 51
136.65824177277759
  0
ARC
  5
135D
  8
0
 10
243.46260149911609
 20
336.91495843627609
 30
0.0
 40
0.8924999999999984
 50
223.3417582272223
 51
316.65824177277773
  0
ARC
  5
135E
  8
0
 10
242.44260149911619
 20
335.95235454577897
 30
0.0
 40
0.5099999999999997
 50
43.341758227222343
 51
196.65824177277699
  0
ARC
  5
135F
  8
0
 10
241.09896207616401
 20
335.5503105791675
 30
0.0
 40
0.8925000000000004
 50
309.40170491831071
 51
16.658241772777039
  0
LINE
  5
1365
  8
0
 10
236.71260149911609
 20
232.41292793438569
 30
0.0
 11
236.712601499116
 21
229.12143423128191
 31
0.0
  0
LINE
  5
1366
  8
0
 10
247.4617769141235
 20
233.80536051789349
 30
0.0
 11
239.4634260841087
 21
233.80536051789349
 31
0.0
  0
ARC
  5
1367
  8
0
 10
243.46260149911609
 20
222.4913605178935
 30
0.0
 40
12.0
 50
109.4670447595973
 51
124.2288663278118
  0
LINE
  5
1368
  8
0
 10
244.5619643440431
 20
232.41292793438569
 30
0.0
 11
236.71260149911609
 21
232.41292793438569
 31
0.0
  0
ARC
  5
1369
  8
0
 10
243.46260149911609
 20
222.4913605178935
 30
0.0
 40
12.0
 50
68.926730289442943
 51
70.532955240402714
  0
TEXT
  5
1455
  8
0
 62
     3
 10
0.0
 20
0.0
 30
0.0
 40
10.0
  1
FKR12X30-OG
  7
STANDARD1
  0
ENDSEC
  0
EOF
