  0
SECTION
  2
HEADER
  9
$ACADVER
  1
AC1009
  9
$INSBASE
 10
0.0
 20
0.0
 30
0.0
  9
$EXTMIN
 10
0.0
 20
-2.960436562073669
 30
0.0
  9
$EXTMAX
 10
303.75
 20
311.75
 30
0.0
  9
$LIMMIN
 10
0.0
 20
0.0
  9
$LIMMAX
 10
187.5
 20
135.0
  9
$ORTHOMODE
 70
     1
  9
$REGENMODE
 70
     1
  9
$FILLMODE
 70
     1
  9
$QTEXTMODE
 70
     0
  9
$MIRRTEXT
 70
     0
  9
$DRAGMODE
 70
     2
  9
$LTSCALE
 40
10.0
  9
$OSMODE
 70
    37
  9
$ATTMODE
 70
     1
  9
$TEXTSIZE
 40
4.0
  9
$TRACEWID
 40
0.05
  9
$TEXTSTYLE
  7
STANDARD
  9
$CLAYER
  8
0
  9
$CELTYPE
  6
BYLAYER
  9
$CECOLOR
 62
   256
  9
$DIMSCALE
 40
0.5
  9
$DIMASZ
 40
3.0
  9
$DIMEXO
 40
2.0
  9
$DIMDLI
 40
0.38
  9
$DIMRND
 40
0.0
  9
$DIMDLE
 40
0.0
  9
$DIMEXE
 40
2.0
  9
$DIMTP
 40
0.0
  9
$DIMTM
 40
0.0
  9
$DIMTXT
 40
3.0
  9
$DIMCEN
 40
0.0
  9
$DIMTSZ
 40
0.0
  9
$DIMTOL
 70
     0
  9
$DIMLIM
 70
     0
  9
$DIMTIH
 70
     0
  9
$DIMTOH
 70
     0
  9
$DIMSE1
 70
     0
  9
$DIMSE2
 70
     0
  9
$DIMTAD
 70
     1
  9
$DIMZIN
 70
     0
  9
$DIMBLK
  1

  9
$DIMASO
 70
     0
  9
$DIMSHO
 70
     0
  9
$DIMPOST
  1

  9
$DIMAPOST
  1

  9
$DIMALT
 70
     0
  9
$DIMALTD
 70
     2
  9
$DIMALTF
 40
25.399999999999999
  9
$DIMLFAC
 40
1.0
  9
$DIMTOFL
 70
     0
  9
$DIMTVP
 40
1.6000000000000001
  9
$DIMTIX
 70
     1
  9
$DIMSOXD
 70
     0
  9
$DIMSAH
 70
     0
  9
$DIMBLK1
  1

  9
$DIMBLK2
  1

  9
$DIMSTYLE
  2
STANDARD
  9
$DIMCLRD
 70
     0
  9
$DIMCLRE
 70
     0
  9
$DIMCLRT
 70
     0
  9
$DIMTFAC
 40
1.0
  9
$DIMGAP
 40
0.09
  9
$LUNITS
 70
     2
  9
$LUPREC
 70
     4
  9
$SKETCHINC
 40
0.1
  9
$FILLETRAD
 40
1.25
  9
$AUNITS
 70
     0
  9
$AUPREC
 70
     0
  9
$MENU
  1
E:\r13\win\SUPPORT\ACAD
  9
$ELEVATION
 40
0.0
  9
$PELEVATION
 40
0.0
  9
$THICKNESS
 40
0.0
  9
$LIMCHECK
 70
     0
  9
$BLIPMODE
 70
     0
  9
$CHAMFERA
 40
0.0
  9
$CHAMFERB
 40
0.0
  9
$SKPOLY
 70
     0
  9
$TDCREATE
 40
2449840.6143865739
  9
$TDUPDATE
 40
2456806.5554495831
  9
$TDINDWG
 40
0.2683346296
  9
$TDUSRTIMER
 40
0.2683346296
  9
$USRTIMER
 70
     1
  9
$ANGBASE
 50
0.0
  9
$ANGDIR
 70
     0
  9
$PDMODE
 70
     0
  9
$PDSIZE
 40
0.0
  9
$PLINEWID
 40
0.0
  9
$COORDS
 70
     1
  9
$SPLFRAME
 70
     0
  9
$SPLINETYPE
 70
     6
  9
$SPLINESEGS
 70
     8
  9
$ATTDIA
 70
     0
  9
$ATTREQ
 70
     1
  9
$HANDLING
 70
     1
  9
$HANDSEED
  5
1AE6
  9
$SURFTAB1
 70
     6
  9
$SURFTAB2
 70
     6
  9
$SURFTYPE
 70
     6
  9
$SURFU
 70
     6
  9
$SURFV
 70
     6
  9
$UCSNAME
  2

  9
$UCSORG
 10
0.0
 20
0.0
 30
0.0
  9
$UCSXDIR
 10
1.0
 20
0.0
 30
0.0
  9
$UCSYDIR
 10
0.0
 20
1.0
 30
0.0
  9
$PUCSNAME
  2

  9
$PUCSORG
 10
0.0
 20
0.0
 30
0.0
  9
$PUCSXDIR
 10
1.0
 20
0.0
 30
0.0
  9
$PUCSYDIR
 10
0.0
 20
1.0
 30
0.0
  9
$USERI1
 70
     0
  9
$USERI2
 70
     1
  9
$USERI3
 70
     1
  9
$USERI4
 70
     0
  9
$USERI5
 70
     0
  9
$USERR1
 40
0.0
  9
$USERR2
 40
0.0
  9
$USERR3
 40
0.0
  9
$USERR4
 40
0.0
  9
$USERR5
 40
0.0
  9
$WORLDVIEW
 70
     1
  9
$SHADEDGE
 70
     3
  9
$SHADEDIF
 70
    70
  9
$TILEMODE
 70
     1
  9
$MAXACTVP
 70
    16
  9
$PLIMCHECK
 70
     0
  9
$PEXTMIN
 10
1.0000000000000000E+020
 20
1.0000000000000000E+020
 30
1.0000000000000000E+020
  9
$PEXTMAX
 10
-1.0000000000000000E+020
 20
-1.0000000000000000E+020
 30
-1.0000000000000000E+020
  9
$PLIMMIN
 10
0.0
 20
0.0
  9
$PLIMMAX
 10
12.0
 20
9.0
  9
$UNITMODE
 70
     0
  9
$VISRETAIN
 70
     0
  9
$PLINEGEN
 70
     0
  9
$PSLTSCALE
 70
     0
  0
ENDSEC
  0
SECTION
  2
TABLES
  0
TABLE
  2
VPORT
 70
     1
  0
VPORT
  2
*ACTIVE
 70
     0
 10
0.0
 20
0.0
 11
1.0
 21
1.0
 12
314.18636995827541
 22
180.0
 13
0.0
 23
0.0
 14
5.0
 24
5.0
 15
5.0
 25
5.0
 16
0.0
 26
0.0
 36
1.0
 17
0.0
 27
0.0
 37
0.0
 40
360.0
 41
1.7454798331015291
 42
50.0
 43
0.0
 44
0.0
 50
0.0
 51
0.0
 71
     0
 72
   100
 73
     1
 74
     0
 75
     0
 76
     0
 77
     0
 78
     0
  0
ENDTAB
  0
TABLE
  2
LTYPE
 70
     3
  0
LTYPE
  2
CONTINUOUS
 70
     0
  3
Solid Line
 72
    65
 73
     0
 40
0.0
  0
LTYPE
  2
CENTER
 70
     0
  3
____ _ ____ _ ____ _ ____ _ ____ _ ____ _ ____
 72
    65
 73
     4
 40
2.0
 49
1.25
 49
-0.25
 49
0.25
 49
-0.25
  0
LTYPE
  2
PHANTOM2
 70
     0
  3
___ _ _ ___ _ _ ___ _ _ ___ _ _
 72
    65
 73
     6
 40
1.25
 49
0.625
 49
-0.125
 49
0.125
 49
-0.125
 49
0.125
 49
-0.125
  0
ENDTAB
  0
TABLE
  2
LAYER
 70
     3
  0
LAYER
  2
0
 70
     0
 62
     7
  6
CONTINUOUS
  0
LAYER
  2
1
 70
     0
 62
     1
  6
CENTER
  0
LAYER
  2
3
 70
     0
 62
     3
  6
CONTINUOUS
  0
ENDTAB
  0
TABLE
  2
STYLE
 70
     2
  0
STYLE
  2
STANDARD
 70
     0
 40
0.0
 41
1.0
 50
0.0
 71
     0
 42
4.0
  3
TXT
  4
BIGFONT
  0
STYLE
  2
STANDARD1
 70
     0
 40
0.0
 41
1.0
 50
0.0
 71
     0
 42
3.0
  3
txt
  4

  0
ENDTAB
  0
TABLE
  2
VIEW
 70
     1
  0
VIEW
  2
ALL
 70
     0
 40
179.66152299999999
 10
141.903918
 20
89.830760999999995
 41
0.0
 11
0.0
 21
0.0
 31
1.0
 12
0.0
 22
0.0
 32
0.0
 42
0.0
 43
0.0
 44
0.0
 50
0.0
 71
     0
  0
ENDTAB
  0
TABLE
  2
UCS
 70
     0
  0
ENDTAB
  0
TABLE
  2
APPID
 70
     5
  0
APPID
  2
ACAD
 70
     0
  0
APPID
  2
DCO15
 70
     0
  0
APPID
  2
ACAD_MLEADERVER
 70
     0
  0
APPID
  2
ACAD_EXEMPT_FROM_CAD_STANDARDS
 70
     0
  0
APPID
  2
ACAD_NAV_VCDISPLAY
 70
     0
  0
ENDTAB
  0
TABLE
  2
DIMSTYLE
 70
     1
  0
DIMSTYLE
  2
STANDARD
 70
     0
  3

  4

  5

  6

  7

 40
1.0
 41
0.18
 42
0.0625
 43
0.38
 44
0.18
 45
0.0
 46
0.0
 47
0.0
 48
0.0
140
0.18
141
0.09
142
0.0
143
25.399999999999999
144
1.0
145
0.0
146
1.0
147
0.09
 71
     0
 72
     0
 73
     1
 74
     1
 75
     0
 76
     0
 77
     0
 78
     0
170
     0
171
     2
172
     0
173
     0
174
     0
175
     0
176
     0
177
     0
178
     0
  0
ENDTAB
  0
ENDSEC
  0
SECTION
  2
BLOCKS
  0
BLOCK
  8
0
  2
$MODEL_SPACE
 70
     0
 10
0.0
 20
0.0
 30
0.0
  3
$MODEL_SPACE
  1

  0
ENDBLK
  5
1BD
  8
0
  0
BLOCK
 67
     1
  8
0
  2
$PAPER_SPACE
 70
     0
 10
0.0
 20
0.0
 30
0.0
  3
$PAPER_SPACE
  1

  0
ENDBLK
  5
1BB
 67
     1
  8
0
  0
ENDSEC
  0
SECTION
  2
ENTITIES
  0
TEXT
  5
1455
  8
0
 62
     3
 10
0.0
 20
0.0
 30
0.0
 40
10.0
  1
FKR12X40-RE
  7
STANDARD1
  0
LINE
  5
1574
  8
0
 10
136.49000000000001
 20
191.42370658582871
 30
0.0
 11
136.49000000000001
 21
170.0
 31
0.0
  0
LINE
  5
1575
  8
0
 10
163.49000000000001
 20
170.0
 30
0.0
 11
163.49000000000001
 21
187.0
 31
0.0
  0
LINE
  5
1576
  8
0
 10
231.20495386928221
 20
208.97
 30
0.0
 11
222.3429620906015
 21
208.97
 31
0.0
  0
LINE
  5
1577
  8
0
 10
237.95595035719069
 20
210.41185346836861
 30
0.0
 11
235.96700634837751
 21
209.74597609020771
 31
0.0
  0
LINE
  5
1578
  8
0
 10
163.49000000000001
 20
170.0
 30
0.0
 11
136.49000000000001
 21
170.0
 31
0.0
  0
LINE
  5
1579
  8
1
 10
150.0
 20
208.0
 30
0.0
 11
150.0
 21
115.0000000000023
 31
0.0
  0
LINE
  5
157A
  8
0
 10
159.5
 20
160.0
 30
0.0
 11
159.5
 21
170.0
 31
0.0
  0
LINE
  5
157B
  8
0
 10
140.5
 20
170.0
 30
0.0
 11
140.5
 21
160.0
 31
0.0
  0
LINE
  5
157C
  8
0
 10
140.5
 20
160.0
 30
0.0
 11
159.5
 21
160.0
 31
0.0
  0
LINE
  5
158A
  8
0
 10
240.86757807421279
 20
223.0
 30
0.0
 11
241.0
 21
223.0
 31
0.0
  0
LINE
  5
158B
  8
0
 10
245.0
 20
219.00000000000011
 30
0.0
 11
245.0
 21
218.16106379153209
 31
0.0
  0
ARC
  5
158C
  8
0
 10
142.49000000000001
 20
191.42370658582871
 30
0.0
 40
6.0
 50
114.1848432038977
 51
180.0
  0
ARC
  5
158D
  8
0
 10
267.03324619295222
 20
-85.893764605082254
 30
0.0
 40
310.0
 50
94.841832834640755
 51
114.1848432038977
  0
ARC
  5
158E
  8
0
 10
241.0
 20
219.00000000000011
 30
0.0
 40
4.0
 50
0.0
 51
90.0
  0
ARC
  5
158F
  8
0
 10
296.7165095576363
 20
-70.584571212237947
 30
0.0
 40
290.0
 50
105.9892849829377
 51
117.3485107169772
  0
ARC
  5
1590
  8
0
 10
222.3429620906015
 20
188.97
 30
0.0
 40
20.0
 50
90.0
 51
105.9892849829377
  0
ARC
  5
1591
  8
0
 10
231.20495386928221
 20
223.97
 30
0.0
 40
15.0
 50
270.0
 51
288.50999999999931
  0
ARC
  5
1592
  8
0
 10
235.3806315555839
 20
220.07455149066499
 30
0.0
 40
10.0
 50
284.92366289757638
 51
337.49912510177802
  0
ARC
  5
1593
  8
0
 10
240.0
 20
218.16106379153209
 30
0.0
 40
5.0
 50
337.49912510177802
 51
0.0
  0
LINE
  5
1594
  8
0
 10
136.49000000000001
 20
290.44218843540023
 30
0.0
 11
136.49000000000001
 21
295.55781156459972
 31
0.0
  0
LINE
  5
1595
  8
1
 10
150.0
 20
311.75
 30
0.0
 11
150.0
 21
274.25
 31
0.0
  0
LINE
  5
1596
  8
1
 10
250.0
 20
293.0
 30
0.0
 11
131.25
 21
292.99999999999989
 31
0.0
  0
ARC
  5
1597
  8
0
 10
238.5
 20
292.99999999999989
 30
0.0
 40
6.5
 50
270.0
 51
90.0
  0
ARC
  5
1598
  8
0
 10
150.0
 20
292.99999999999989
 30
0.0
 40
13.75
 50
190.72076149353759
 51
312.91756032855687
  0
CIRCLE
  5
1599
  8
0
 10
151.2738500434001
 20
292.99979211078289
 30
0.0
 40
8.8183418569113723
  0
ARC
  5
159A
  8
0
 10
179.21906601178799
 20
359.68882023317292
 30
0.0
 40
60.0
 50
250.67449694773609
 51
281.65751361817382
  0
LINE
  5
159B
  8
0
 10
238.5
 20
299.5
 30
0.0
 11
193.72629311151269
 21
301.12612751419232
 31
0.0
  0
ARC
  5
159C
  8
0
 10
193.36334436085701
 20
291.13271627456049
 30
0.0
 40
10.0
 50
87.920000000001451
 51
101.65751361817379
  0
ARC
  5
159D
  8
0
 10
179.21906601178799
 20
226.31117976682711
 30
0.0
 40
60.0
 50
78.342486381826163
 51
109.3255030522638
  0
LINE
  5
159E
  8
0
 10
238.5
 20
286.5
 30
0.0
 11
193.72629311151269
 21
284.87387248580768
 31
0.0
  0
ARC
  5
159F
  8
0
 10
193.36334436085701
 20
294.86728372543939
 30
0.0
 40
10.0
 50
258.34248638182618
 51
272.07999999999862
  0
ARC
  5
15A0
  8
0
 10
150.0
 20
292.99999999999989
 30
0.0
 40
13.75
 50
47.082439671443083
 51
169.27923850646241
  0
LINE
  5
15A1
  8
1
 10
250.0
 20
50.000000000000057
 30
0.0
 11
131.25
 21
50.0
 31
0.0
  0
ARC
  5
15A2
  8
0
 10
179.21906601178799
 20
-16.688820233172851
 30
0.0
 40
60.0
 50
78.342486381826163
 51
109.3255030522639
  0
ARC
  5
15A3
  8
0
 10
179.21906601178799
 20
116.6888202331729
 30
0.0
 40
60.0
 50
250.67449694773609
 51
281.65751361817382
  0
LINE
  5
15A4
  8
1
 10
150.0
 20
68.750000000000057
 30
0.0
 11
150.0
 21
31.250000000000071
 31
0.0
  0
ARC
  5
15A5
  8
0
 10
150.0
 20
50.000000000000057
 30
0.0
 40
13.75
 50
190.72076149353751
 51
312.91756032855687
  0
ARC
  5
15A6
  8
0
 10
150.0
 20
50.000000000000057
 30
0.0
 40
13.75
 50
47.082439671443097
 51
169.27923850646241
  0
LINE
  5
15A7
  8
0
 10
136.49000000000001
 20
47.44218843540034
 30
0.0
 11
136.49000000000001
 21
52.557811564599781
 31
0.0
  0
LINE
  5
15A8
  8
0
 10
238.5
 20
43.50000000000005
 30
0.0
 11
193.72629311151269
 21
41.87387248580773
 31
0.0
  0
LINE
  5
15A9
  8
0
 10
238.5
 20
56.50000000000005
 30
0.0
 11
193.72629311151269
 21
58.126127514192319
 31
0.0
  0
ARC
  5
15AA
  8
0
 10
193.36334436085701
 20
51.867283725439449
 30
0.0
 40
10.0
 50
258.34248638182618
 51
272.07999999999862
  0
ARC
  5
15AB
  8
0
 10
193.36334436085701
 20
48.132716274560657
 30
0.0
 40
10.0
 50
87.920000000001451
 51
101.65751361817379
  0
ARC
  5
15AC
  8
0
 10
238.5
 20
50.000000000000057
 30
0.0
 40
6.5
 50
270.0
 51
90.0
  0
CIRCLE
  5
15AD
  8
0
 10
150.0
 20
50.000000000000057
 30
0.0
 40
13.5
  0
CIRCLE
  5
15AE
  8
0
 10
150.0
 20
50.000000000000057
 30
0.0
 40
9.5
  0
LINE
  5
15B1
  8
0
 10
59.5
 20
160.0
 30
0.0
 11
59.5
 21
170.0
 31
0.0
  0
LINE
  5
15B2
  8
0
 10
40.500000000000107
 20
170.0
 30
0.0
 11
40.500000000000107
 21
160.0
 31
0.0
  0
LINE
  5
15B3
  8
0
 10
40.500000000000107
 20
160.0
 30
0.0
 11
59.5
 21
160.0
 31
0.0
  0
LINE
  5
15B4
  8
0
 10
56.094260292549507
 20
223.0
 30
0.0
 11
43.905739707450607
 21
223.0
 31
0.0
  0
LINE
  5
15B5
  8
0
 10
63.5
 20
170.0
 30
0.0
 11
36.500000000000107
 21
170.0
 31
0.0
  0
LINE
  5
15B6
  8
1
 10
50.0
 20
228.0
 30
0.0
 11
50.0
 21
115.0000000000035
 31
0.0
  0
LINE
  5
15B7
  8
0
 10
51.489856534568389
 20
198.16773787211011
 30
0.0
 11
48.510143465431717
 21
198.16773787211011
 31
0.0
  0
POLYLINE
  5
15B8
  8
0
 10
51.489856534568304
 20
198.16773787211014
 30
0.0
 66
     1
 70
     8
  0
VERTEX
  8
0
  5
17DA
 10
51.4899
 20
198.168
 30
0.000000
  70
    32
  0
VERTEX
  8
0
  5
17DB
 10
51.8899
 20
198.198
 30
0.000000
  70
    32
  0
VERTEX
  8
0
  5
17DC
 10
52.2858
 20
198.235
 30
0.000000
  70
    32
  0
VERTEX
  8
0
  5
17DD
 10
52.6769
 20
198.280
 30
0.000000
  70
    32
  0
VERTEX
  8
0
  5
17DE
 10
53.0621
 20
198.331
 30
0.000000
  70
    32
  0
VERTEX
  8
0
  5
17DF
 10
53.4408
 20
198.389
 30
0.000000
  70
    32
  0
VERTEX
  8
0
  5
17E0
 10
53.8120
 20
198.454
 30
0.000000
  70
    32
  0
VERTEX
  8
0
  5
17E1
 10
54.1751
 20
198.525
 30
0.000000
  70
    32
  0
VERTEX
  8
0
  5
17E2
 10
54.5291
 20
198.603
 30
0.000000
  70
    32
  0
VERTEX
  8
0
  5
17E3
 10
54.8734
 20
198.687
 30
0.000000
  70
    32
  0
VERTEX
  8
0
  5
17E4
 10
55.2071
 20
198.777
 30
0.000000
  70
    32
  0
VERTEX
  8
0
  5
17E5
 10
55.5297
 20
198.873
 30
0.000000
  70
    32
  0
VERTEX
  8
0
  5
17E6
 10
55.8403
 20
198.975
 30
0.000000
  70
    32
  0
VERTEX
  8
0
  5
17E7
 10
56.1384
 20
199.082
 30
0.000000
  70
    32
  0
VERTEX
  8
0
  5
17E8
 10
56.4232
 20
199.195
 30
0.000000
  70
    32
  0
VERTEX
  8
0
  5
17E9
 10
56.6942
 20
199.312
 30
0.000000
  70
    32
  0
VERTEX
  8
0
  5
17EA
 10
56.9508
 20
199.434
 30
0.000000
  70
    32
  0
VERTEX
  8
0
  5
17EB
 10
57.1924
 20
199.560
 30
0.000000
  70
    32
  0
VERTEX
  8
0
  5
17EC
 10
57.4185
 20
199.691
 30
0.000000
  70
    32
  0
VERTEX
  8
0
  5
17ED
 10
57.6286
 20
199.826
 30
0.000000
  70
    32
  0
VERTEX
  8
0
  5
17EE
 10
57.8222
 20
199.964
 30
0.000000
  70
    32
  0
VERTEX
  8
0
  5
17EF
 10
57.9990
 20
200.105
 30
0.000000
  70
    32
  0
VERTEX
  8
0
  5
17F0
 10
58.1586
 20
200.250
 30
0.000000
  70
    32
  0
VERTEX
  8
0
  5
17F1
 10
58.3006
 20
200.397
 30
0.000000
  70
    32
  0
VERTEX
  8
0
  5
17F2
 10
58.4247
 20
200.546
 30
0.000000
  70
    32
  0
VERTEX
  8
0
  5
17F3
 10
58.5307
 20
200.698
 30
0.000000
  70
    32
  0
VERTEX
  8
0
  5
17F4
 10
58.6182
 20
200.851
 30
0.000000
  70
    32
  0
VERTEX
  8
0
  5
17F5
 10
58.6872
 20
201.006
 30
0.000000
  70
    32
  0
VERTEX
  8
0
  5
17F6
 10
58.7375
 20
201.162
 30
0.000000
  70
    32
  0
VERTEX
  8
0
  5
17F7
 10
58.7690
 20
201.318
 30
0.000000
  70
    32
  0
VERTEX
  8
0
  5
17F8
 10
58.7815
 20
201.475
 30
0.000000
  70
    32
  0
VERTEX
  8
0
  5
17F9
 10
58.7752
 20
201.632
 30
0.000000
  70
    32
  0
VERTEX
  8
0
  5
17FA
 10
58.7499
 20
201.789
 30
0.000000
  70
    32
  0
VERTEX
  8
0
  5
17FB
 10
58.7058
 20
201.945
 30
0.000000
  70
    32
  0
VERTEX
  8
0
  5
17FC
 10
58.6429
 20
202.100
 30
0.000000
  70
    32
  0
VERTEX
  8
0
  5
17FD
 10
58.5614
 20
202.254
 30
0.000000
  70
    32
  0
VERTEX
  8
0
  5
17FE
 10
58.4615
 20
202.406
 30
0.000000
  70
    32
  0
VERTEX
  8
0
  5
17FF
 10
58.3433
 20
202.557
 30
0.000000
  70
    32
  0
VERTEX
  8
0
  5
1800
 10
58.2071
 20
202.705
 30
0.000000
  70
    32
  0
VERTEX
  8
0
  5
1801
 10
58.0533
 20
202.850
 30
0.000000
  70
    32
  0
VERTEX
  8
0
  5
1802
 10
57.8821
 20
202.992
 30
0.000000
  70
    32
  0
VERTEX
  8
0
  5
1803
 10
57.6939
 20
203.132
 30
0.000000
  70
    32
  0
VERTEX
  8
0
  5
1804
 10
57.4891
 20
203.268
 30
0.000000
  70
    32
  0
VERTEX
  8
0
  5
1805
 10
57.2682
 20
203.399
 30
0.000000
  70
    32
  0
VERTEX
  8
0
  5
1806
 10
57.0316
 20
203.527
 30
0.000000
  70
    32
  0
VERTEX
  8
0
  5
1807
 10
56.7799
 20
203.651
 30
0.000000
  70
    32
  0
VERTEX
  8
0
  5
1808
 10
56.5136
 20
203.770
 30
0.000000
  70
    32
  0
VERTEX
  8
0
  5
1809
 10
56.2332
 20
203.884
 30
0.000000
  70
    32
  0
VERTEX
  8
0
  5
180A
 10
55.9395
 20
203.993
 30
0.000000
  70
    32
  0
VERTEX
  8
0
  5
180B
 10
55.6329
 20
204.096
 30
0.000000
  70
    32
  0
VERTEX
  8
0
  5
180C
 10
55.3141
 20
204.194
 30
0.000000
  70
    32
  0
VERTEX
  8
0
  5
180D
 10
54.9840
 20
204.286
 30
0.000000
  70
    32
  0
VERTEX
  8
0
  5
180E
 10
54.6431
 20
204.372
 30
0.000000
  70
    32
  0
VERTEX
  8
0
  5
180F
 10
54.2921
 20
204.452
 30
0.000000
  70
    32
  0
VERTEX
  8
0
  5
1810
 10
53.9320
 20
204.526
 30
0.000000
  70
    32
  0
VERTEX
  8
0
  5
1811
 10
53.5633
 20
204.593
 30
0.000000
  70
    32
  0
VERTEX
  8
0
  5
1812
 10
53.1870
 20
204.653
 30
0.000000
  70
    32
  0
VERTEX
  8
0
  5
1813
 10
52.8038
 20
204.706
 30
0.000000
  70
    32
  0
VERTEX
  8
0
  5
1814
 10
52.4146
 20
204.753
 30
0.000000
  70
    32
  0
VERTEX
  8
0
  5
1815
 10
52.0202
 20
204.793
 30
0.000000
  70
    32
  0
VERTEX
  8
0
  5
1816
 10
51.6214
 20
204.825
 30
0.000000
  70
    32
  0
VERTEX
  8
0
  5
1817
 10
51.2191
 20
204.851
 30
0.000000
  70
    32
  0
VERTEX
  8
0
  5
1818
 10
50.8142
 20
204.869
 30
0.000000
  70
    32
  0
VERTEX
  8
0
  5
1819
 10
50.4075
 20
204.880
 30
0.000000
  70
    32
  0
VERTEX
  8
0
  5
181A
 10
50.0000
 20
204.883
 30
0.000000
  70
    32
  0
VERTEX
  8
0
  5
181B
 10
49.5925
 20
204.880
 30
0.000000
  70
    32
  0
VERTEX
  8
0
  5
181C
 10
49.1858
 20
204.869
 30
0.000000
  70
    32
  0
VERTEX
  8
0
  5
181D
 10
48.7809
 20
204.851
 30
0.000000
  70
    32
  0
VERTEX
  8
0
  5
181E
 10
48.3786
 20
204.825
 30
0.000000
  70
    32
  0
VERTEX
  8
0
  5
181F
 10
47.9798
 20
204.793
 30
0.000000
  70
    32
  0
VERTEX
  8
0
  5
1820
 10
47.5854
 20
204.753
 30
0.000000
  70
    32
  0
VERTEX
  8
0
  5
1821
 10
47.1962
 20
204.706
 30
0.000000
  70
    32
  0
VERTEX
  8
0
  5
1822
 10
46.8130
 20
204.653
 30
0.000000
  70
    32
  0
VERTEX
  8
0
  5
1823
 10
46.4367
 20
204.593
 30
0.000000
  70
    32
  0
VERTEX
  8
0
  5
1824
 10
46.0680
 20
204.526
 30
0.000000
  70
    32
  0
VERTEX
  8
0
  5
1825
 10
45.7079
 20
204.452
 30
0.000000
  70
    32
  0
VERTEX
  8
0
  5
1826
 10
45.3569
 20
204.372
 30
0.000000
  70
    32
  0
VERTEX
  8
0
  5
1827
 10
45.0160
 20
204.286
 30
0.000000
  70
    32
  0
VERTEX
  8
0
  5
1828
 10
44.6859
 20
204.194
 30
0.000000
  70
    32
  0
VERTEX
  8
0
  5
1829
 10
44.3671
 20
204.096
 30
0.000000
  70
    32
  0
VERTEX
  8
0
  5
182A
 10
44.0605
 20
203.993
 30
0.000000
  70
    32
  0
VERTEX
  8
0
  5
182B
 10
43.7668
 20
203.884
 30
0.000000
  70
    32
  0
VERTEX
  8
0
  5
182C
 10
43.4864
 20
203.770
 30
0.000000
  70
    32
  0
VERTEX
  8
0
  5
182D
 10
43.2201
 20
203.651
 30
0.000000
  70
    32
  0
VERTEX
  8
0
  5
182E
 10
42.9684
 20
203.527
 30
0.000000
  70
    32
  0
VERTEX
  8
0
  5
182F
 10
42.7318
 20
203.399
 30
0.000000
  70
    32
  0
VERTEX
  8
0
  5
1830
 10
42.5109
 20
203.268
 30
0.000000
  70
    32
  0
VERTEX
  8
0
  5
1831
 10
42.3061
 20
203.132
 30
0.000000
  70
    32
  0
VERTEX
  8
0
  5
1832
 10
42.1179
 20
202.992
 30
0.000000
  70
    32
  0
VERTEX
  8
0
  5
1833
 10
41.9467
 20
202.850
 30
0.000000
  70
    32
  0
VERTEX
  8
0
  5
1834
 10
41.7929
 20
202.705
 30
0.000000
  70
    32
  0
VERTEX
  8
0
  5
1835
 10
41.6567
 20
202.557
 30
0.000000
  70
    32
  0
VERTEX
  8
0
  5
1836
 10
41.5385
 20
202.406
 30
0.000000
  70
    32
  0
VERTEX
  8
0
  5
1837
 10
41.4386
 20
202.254
 30
0.000000
  70
    32
  0
VERTEX
  8
0
  5
1838
 10
41.3571
 20
202.100
 30
0.000000
  70
    32
  0
VERTEX
  8
0
  5
1839
 10
41.2942
 20
201.945
 30
0.000000
  70
    32
  0
VERTEX
  8
0
  5
183A
 10
41.2501
 20
201.789
 30
0.000000
  70
    32
  0
VERTEX
  8
0
  5
183B
 10
41.2248
 20
201.632
 30
0.000000
  70
    32
  0
VERTEX
  8
0
  5
183C
 10
41.2185
 20
201.475
 30
0.000000
  70
    32
  0
VERTEX
  8
0
  5
183D
 10
41.2310
 20
201.318
 30
0.000000
  70
    32
  0
VERTEX
  8
0
  5
183E
 10
41.2625
 20
201.162
 30
0.000000
  70
    32
  0
VERTEX
  8
0
  5
183F
 10
41.3128
 20
201.006
 30
0.000000
  70
    32
  0
VERTEX
  8
0
  5
1840
 10
41.3818
 20
200.851
 30
0.000000
  70
    32
  0
VERTEX
  8
0
  5
1841
 10
41.4693
 20
200.698
 30
0.000000
  70
    32
  0
VERTEX
  8
0
  5
1842
 10
41.5753
 20
200.546
 30
0.000000
  70
    32
  0
VERTEX
  8
0
  5
1843
 10
41.6994
 20
200.397
 30
0.000000
  70
    32
  0
VERTEX
  8
0
  5
1844
 10
41.8414
 20
200.250
 30
0.000000
  70
    32
  0
VERTEX
  8
0
  5
1845
 10
42.0010
 20
200.105
 30
0.000000
  70
    32
  0
VERTEX
  8
0
  5
1846
 10
42.1778
 20
199.964
 30
0.000000
  70
    32
  0
VERTEX
  8
0
  5
1847
 10
42.3714
 20
199.826
 30
0.000000
  70
    32
  0
VERTEX
  8
0
  5
1848
 10
42.5815
 20
199.691
 30
0.000000
  70
    32
  0
VERTEX
  8
0
  5
1849
 10
42.8076
 20
199.560
 30
0.000000
  70
    32
  0
VERTEX
  8
0
  5
184A
 10
43.0492
 20
199.434
 30
0.000000
  70
    32
  0
VERTEX
  8
0
  5
184B
 10
43.3058
 20
199.312
 30
0.000000
  70
    32
  0
VERTEX
  8
0
  5
184C
 10
43.5768
 20
199.195
 30
0.000000
  70
    32
  0
VERTEX
  8
0
  5
184D
 10
43.8616
 20
199.082
 30
0.000000
  70
    32
  0
VERTEX
  8
0
  5
184E
 10
44.1597
 20
198.975
 30
0.000000
  70
    32
  0
VERTEX
  8
0
  5
184F
 10
44.4703
 20
198.873
 30
0.000000
  70
    32
  0
VERTEX
  8
0
  5
1850
 10
44.7929
 20
198.777
 30
0.000000
  70
    32
  0
VERTEX
  8
0
  5
1851
 10
45.1266
 20
198.687
 30
0.000000
  70
    32
  0
VERTEX
  8
0
  5
1852
 10
45.4709
 20
198.603
 30
0.000000
  70
    32
  0
VERTEX
  8
0
  5
1853
 10
45.8249
 20
198.525
 30
0.000000
  70
    32
  0
VERTEX
  8
0
  5
1854
 10
46.1880
 20
198.454
 30
0.000000
  70
    32
  0
VERTEX
  8
0
  5
1855
 10
46.5592
 20
198.389
 30
0.000000
  70
    32
  0
VERTEX
  8
0
  5
1856
 10
46.9379
 20
198.331
 30
0.000000
  70
    32
  0
VERTEX
  8
0
  5
1857
 10
47.3231
 20
198.280
 30
0.000000
  70
    32
  0
VERTEX
  8
0
  5
1858
 10
47.7142
 20
198.235
 30
0.000000
  70
    32
  0
VERTEX
  8
0
  5
1859
 10
48.1101
 20
198.198
 30
0.000000
  70
    32
  0
VERTEX
  8
0
  5
185A
 10
48.5101
 20
198.168
 30
0.000000
  70
    32
  0
SEQEND
  8
0
  5
185B
  0
POLYLINE
  5
15B9
  8
0
 10
63.75
 20
201.5010984402526
 30
0.0
 66
     1
 70
     8
  0
VERTEX
  8
0
  5
185C
 10
63.7500
 20
201.501
 30
0.000000
  70
    32
  0
VERTEX
  8
0
  5
185D
 10
63.7498
 20
201.527
 30
0.000000
  70
    32
  0
VERTEX
  8
0
  5
185E
 10
63.7491
 20
201.552
 30
0.000000
  70
    32
  0
VERTEX
  8
0
  5
185F
 10
63.7480
 20
201.577
 30
0.000000
  70
    32
  0
VERTEX
  8
0
  5
1860
 10
63.7464
 20
201.603
 30
0.000000
  70
    32
  0
VERTEX
  8
0
  5
1861
 10
63.7444
 20
201.628
 30
0.000000
  70
    32
  0
VERTEX
  8
0
  5
1862
 10
63.7419
 20
201.654
 30
0.000000
  70
    32
  0
VERTEX
  8
0
  5
1863
 10
63.7390
 20
201.679
 30
0.000000
  70
    32
  0
VERTEX
  8
0
  5
1864
 10
63.7356
 20
201.705
 30
0.000000
  70
    32
  0
VERTEX
  8
0
  5
1865
 10
63.7318
 20
201.730
 30
0.000000
  70
    32
  0
VERTEX
  8
0
  5
1866
 10
63.7275
 20
201.755
 30
0.000000
  70
    32
  0
VERTEX
  8
0
  5
1867
 10
63.7228
 20
201.781
 30
0.000000
  70
    32
  0
VERTEX
  8
0
  5
1868
 10
63.7177
 20
201.806
 30
0.000000
  70
    32
  0
VERTEX
  8
0
  5
1869
 10
63.7121
 20
201.832
 30
0.000000
  70
    32
  0
VERTEX
  8
0
  5
186A
 10
63.7060
 20
201.857
 30
0.000000
  70
    32
  0
VERTEX
  8
0
  5
186B
 10
63.6995
 20
201.882
 30
0.000000
  70
    32
  0
VERTEX
  8
0
  5
186C
 10
63.6925
 20
201.908
 30
0.000000
  70
    32
  0
VERTEX
  8
0
  5
186D
 10
63.6851
 20
201.933
 30
0.000000
  70
    32
  0
VERTEX
  8
0
  5
186E
 10
63.6773
 20
201.958
 30
0.000000
  70
    32
  0
VERTEX
  8
0
  5
186F
 10
63.6690
 20
201.984
 30
0.000000
  70
    32
  0
VERTEX
  8
0
  5
1870
 10
63.6602
 20
202.009
 30
0.000000
  70
    32
  0
VERTEX
  8
0
  5
1871
 10
63.6511
 20
202.034
 30
0.000000
  70
    32
  0
VERTEX
  8
0
  5
1872
 10
63.6414
 20
202.060
 30
0.000000
  70
    32
  0
VERTEX
  8
0
  5
1873
 10
63.6313
 20
202.085
 30
0.000000
  70
    32
  0
VERTEX
  8
0
  5
1874
 10
63.6208
 20
202.110
 30
0.000000
  70
    32
  0
VERTEX
  8
0
  5
1875
 10
63.6098
 20
202.135
 30
0.000000
  70
    32
  0
VERTEX
  8
0
  5
1876
 10
63.5984
 20
202.160
 30
0.000000
  70
    32
  0
VERTEX
  8
0
  5
1877
 10
63.5866
 20
202.186
 30
0.000000
  70
    32
  0
VERTEX
  8
0
  5
1878
 10
63.5743
 20
202.211
 30
0.000000
  70
    32
  0
VERTEX
  8
0
  5
1879
 10
63.5615
 20
202.236
 30
0.000000
  70
    32
  0
VERTEX
  8
0
  5
187A
 10
63.5483
 20
202.261
 30
0.000000
  70
    32
  0
VERTEX
  8
0
  5
187B
 10
63.5347
 20
202.286
 30
0.000000
  70
    32
  0
VERTEX
  8
0
  5
187C
 10
63.5206
 20
202.311
 30
0.000000
  70
    32
  0
VERTEX
  8
0
  5
187D
 10
63.5061
 20
202.336
 30
0.000000
  70
    32
  0
VERTEX
  8
0
  5
187E
 10
63.4911
 20
202.361
 30
0.000000
  70
    32
  0
VERTEX
  8
0
  5
187F
 10
63.4757
 20
202.386
 30
0.000000
  70
    32
  0
VERTEX
  8
0
  5
1880
 10
63.4599
 20
202.411
 30
0.000000
  70
    32
  0
VERTEX
  8
0
  5
1881
 10
63.4436
 20
202.436
 30
0.000000
  70
    32
  0
VERTEX
  8
0
  5
1882
 10
63.4269
 20
202.461
 30
0.000000
  70
    32
  0
VERTEX
  8
0
  5
1883
 10
63.4098
 20
202.485
 30
0.000000
  70
    32
  0
VERTEX
  8
0
  5
1884
 10
63.3922
 20
202.510
 30
0.000000
  70
    32
  0
VERTEX
  8
0
  5
1885
 10
63.3741
 20
202.535
 30
0.000000
  70
    32
  0
VERTEX
  8
0
  5
1886
 10
63.3557
 20
202.560
 30
0.000000
  70
    32
  0
VERTEX
  8
0
  5
1887
 10
63.3367
 20
202.584
 30
0.000000
  70
    32
  0
VERTEX
  8
0
  5
1888
 10
63.3174
 20
202.609
 30
0.000000
  70
    32
  0
VERTEX
  8
0
  5
1889
 10
63.2976
 20
202.634
 30
0.000000
  70
    32
  0
VERTEX
  8
0
  5
188A
 10
63.2774
 20
202.658
 30
0.000000
  70
    32
  0
VERTEX
  8
0
  5
188B
 10
63.2568
 20
202.683
 30
0.000000
  70
    32
  0
VERTEX
  8
0
  5
188C
 10
63.2357
 20
202.707
 30
0.000000
  70
    32
  0
VERTEX
  8
0
  5
188D
 10
63.2142
 20
202.732
 30
0.000000
  70
    32
  0
VERTEX
  8
0
  5
188E
 10
63.1922
 20
202.756
 30
0.000000
  70
    32
  0
VERTEX
  8
0
  5
188F
 10
63.1699
 20
202.781
 30
0.000000
  70
    32
  0
VERTEX
  8
0
  5
1890
 10
63.1471
 20
202.805
 30
0.000000
  70
    32
  0
VERTEX
  8
0
  5
1891
 10
63.1238
 20
202.829
 30
0.000000
  70
    32
  0
VERTEX
  8
0
  5
1892
 10
63.1002
 20
202.854
 30
0.000000
  70
    32
  0
VERTEX
  8
0
  5
1893
 10
63.0761
 20
202.878
 30
0.000000
  70
    32
  0
VERTEX
  8
0
  5
1894
 10
63.0516
 20
202.902
 30
0.000000
  70
    32
  0
VERTEX
  8
0
  5
1895
 10
63.0266
 20
202.926
 30
0.000000
  70
    32
  0
VERTEX
  8
0
  5
1896
 10
63.0012
 20
202.950
 30
0.000000
  70
    32
  0
VERTEX
  8
0
  5
1897
 10
62.9755
 20
202.974
 30
0.000000
  70
    32
  0
VERTEX
  8
0
  5
1898
 10
62.9492
 20
202.998
 30
0.000000
  70
    32
  0
VERTEX
  8
0
  5
1899
 10
62.9226
 20
203.022
 30
0.000000
  70
    32
  0
VERTEX
  8
0
  5
189A
 10
62.8955
 20
203.046
 30
0.000000
  70
    32
  0
VERTEX
  8
0
  5
189B
 10
62.8680
 20
203.070
 30
0.000000
  70
    32
  0
VERTEX
  8
0
  5
189C
 10
62.8401
 20
203.094
 30
0.000000
  70
    32
  0
VERTEX
  8
0
  5
189D
 10
62.8118
 20
203.118
 30
0.000000
  70
    32
  0
VERTEX
  8
0
  5
189E
 10
62.7831
 20
203.141
 30
0.000000
  70
    32
  0
VERTEX
  8
0
  5
189F
 10
62.7539
 20
203.165
 30
0.000000
  70
    32
  0
VERTEX
  8
0
  5
18A0
 10
62.7243
 20
203.188
 30
0.000000
  70
    32
  0
VERTEX
  8
0
  5
18A1
 10
62.6943
 20
203.212
 30
0.000000
  70
    32
  0
VERTEX
  8
0
  5
18A2
 10
62.6639
 20
203.235
 30
0.000000
  70
    32
  0
VERTEX
  8
0
  5
18A3
 10
62.6331
 20
203.259
 30
0.000000
  70
    32
  0
VERTEX
  8
0
  5
18A4
 10
62.6019
 20
203.282
 30
0.000000
  70
    32
  0
VERTEX
  8
0
  5
18A5
 10
62.5702
 20
203.306
 30
0.000000
  70
    32
  0
VERTEX
  8
0
  5
18A6
 10
62.5382
 20
203.329
 30
0.000000
  70
    32
  0
VERTEX
  8
0
  5
18A7
 10
62.5057
 20
203.352
 30
0.000000
  70
    32
  0
VERTEX
  8
0
  5
18A8
 10
62.4728
 20
203.375
 30
0.000000
  70
    32
  0
VERTEX
  8
0
  5
18A9
 10
62.4395
 20
203.398
 30
0.000000
  70
    32
  0
VERTEX
  8
0
  5
18AA
 10
62.4058
 20
203.421
 30
0.000000
  70
    32
  0
VERTEX
  8
0
  5
18AB
 10
62.3718
 20
203.444
 30
0.000000
  70
    32
  0
VERTEX
  8
0
  5
18AC
 10
62.3373
 20
203.467
 30
0.000000
  70
    32
  0
VERTEX
  8
0
  5
18AD
 10
62.3024
 20
203.490
 30
0.000000
  70
    32
  0
VERTEX
  8
0
  5
18AE
 10
62.2670
 20
203.512
 30
0.000000
  70
    32
  0
VERTEX
  8
0
  5
18AF
 10
62.2313
 20
203.535
 30
0.000000
  70
    32
  0
VERTEX
  8
0
  5
18B0
 10
62.1952
 20
203.558
 30
0.000000
  70
    32
  0
VERTEX
  8
0
  5
18B1
 10
62.1587
 20
203.580
 30
0.000000
  70
    32
  0
VERTEX
  8
0
  5
18B2
 10
62.1218
 20
203.603
 30
0.000000
  70
    32
  0
VERTEX
  8
0
  5
18B3
 10
62.0845
 20
203.625
 30
0.000000
  70
    32
  0
VERTEX
  8
0
  5
18B4
 10
62.0468
 20
203.647
 30
0.000000
  70
    32
  0
VERTEX
  8
0
  5
18B5
 10
62.0088
 20
203.670
 30
0.000000
  70
    32
  0
VERTEX
  8
0
  5
18B6
 10
61.9703
 20
203.692
 30
0.000000
  70
    32
  0
VERTEX
  8
0
  5
18B7
 10
61.9314
 20
203.714
 30
0.000000
  70
    32
  0
VERTEX
  8
0
  5
18B8
 10
61.8922
 20
203.736
 30
0.000000
  70
    32
  0
VERTEX
  8
0
  5
18B9
 10
61.8525
 20
203.758
 30
0.000000
  70
    32
  0
VERTEX
  8
0
  5
18BA
 10
61.8125
 20
203.780
 30
0.000000
  70
    32
  0
VERTEX
  8
0
  5
18BB
 10
61.7721
 20
203.802
 30
0.000000
  70
    32
  0
VERTEX
  8
0
  5
18BC
 10
61.7313
 20
203.824
 30
0.000000
  70
    32
  0
VERTEX
  8
0
  5
18BD
 10
61.6901
 20
203.845
 30
0.000000
  70
    32
  0
VERTEX
  8
0
  5
18BE
 10
61.6485
 20
203.867
 30
0.000000
  70
    32
  0
VERTEX
  8
0
  5
18BF
 10
61.6065
 20
203.888
 30
0.000000
  70
    32
  0
VERTEX
  8
0
  5
18C0
 10
61.5642
 20
203.910
 30
0.000000
  70
    32
  0
VERTEX
  8
0
  5
18C1
 10
61.5215
 20
203.931
 30
0.000000
  70
    32
  0
VERTEX
  8
0
  5
18C2
 10
61.4784
 20
203.952
 30
0.000000
  70
    32
  0
VERTEX
  8
0
  5
18C3
 10
61.4350
 20
203.974
 30
0.000000
  70
    32
  0
VERTEX
  8
0
  5
18C4
 10
61.3911
 20
203.995
 30
0.000000
  70
    32
  0
VERTEX
  8
0
  5
18C5
 10
61.3469
 20
204.016
 30
0.000000
  70
    32
  0
VERTEX
  8
0
  5
18C6
 10
61.3023
 20
204.037
 30
0.000000
  70
    32
  0
VERTEX
  8
0
  5
18C7
 10
61.2574
 20
204.058
 30
0.000000
  70
    32
  0
VERTEX
  8
0
  5
18C8
 10
61.2121
 20
204.078
 30
0.000000
  70
    32
  0
VERTEX
  8
0
  5
18C9
 10
61.1664
 20
204.099
 30
0.000000
  70
    32
  0
VERTEX
  8
0
  5
18CA
 10
61.1204
 20
204.120
 30
0.000000
  70
    32
  0
VERTEX
  8
0
  5
18CB
 10
61.0740
 20
204.140
 30
0.000000
  70
    32
  0
VERTEX
  8
0
  5
18CC
 10
61.0272
 20
204.161
 30
0.000000
  70
    32
  0
VERTEX
  8
0
  5
18CD
 10
60.9801
 20
204.181
 30
0.000000
  70
    32
  0
VERTEX
  8
0
  5
18CE
 10
60.9326
 20
204.201
 30
0.000000
  70
    32
  0
VERTEX
  8
0
  5
18CF
 10
60.8847
 20
204.222
 30
0.000000
  70
    32
  0
VERTEX
  8
0
  5
18D0
 10
60.8365
 20
204.242
 30
0.000000
  70
    32
  0
VERTEX
  8
0
  5
18D1
 10
60.7880
 20
204.262
 30
0.000000
  70
    32
  0
VERTEX
  8
0
  5
18D2
 10
60.7391
 20
204.282
 30
0.000000
  70
    32
  0
VERTEX
  8
0
  5
18D3
 10
60.6898
 20
204.302
 30
0.000000
  70
    32
  0
VERTEX
  8
0
  5
18D4
 10
60.6402
 20
204.321
 30
0.000000
  70
    32
  0
VERTEX
  8
0
  5
18D5
 10
60.5902
 20
204.341
 30
0.000000
  70
    32
  0
VERTEX
  8
0
  5
18D6
 10
60.5399
 20
204.360
 30
0.000000
  70
    32
  0
VERTEX
  8
0
  5
18D7
 10
60.4893
 20
204.380
 30
0.000000
  70
    32
  0
VERTEX
  8
0
  5
18D8
 10
60.4383
 20
204.399
 30
0.000000
  70
    32
  0
VERTEX
  8
0
  5
18D9
 10
60.3870
 20
204.419
 30
0.000000
  70
    32
  0
VERTEX
  8
0
  5
18DA
 10
60.3353
 20
204.438
 30
0.000000
  70
    32
  0
VERTEX
  8
0
  5
18DB
 10
60.2833
 20
204.457
 30
0.000000
  70
    32
  0
VERTEX
  8
0
  5
18DC
 10
60.2310
 20
204.476
 30
0.000000
  70
    32
  0
SEQEND
  8
0
  5
18DD
  0
POLYLINE
  5
15BA
  8
0
 10
36.25
 20
201.5010984402526
 30
0.0
 66
     1
 70
     8
  0
VERTEX
  8
0
  5
18DE
 10
36.2500
 20
201.501
 30
0.000000
  70
    32
  0
VERTEX
  8
0
  5
18DF
 10
36.2541
 20
201.340
 30
0.000000
  70
    32
  0
VERTEX
  8
0
  5
18E0
 10
36.2666
 20
201.178
 30
0.000000
  70
    32
  0
VERTEX
  8
0
  5
18E1
 10
36.2873
 20
201.017
 30
0.000000
  70
    32
  0
VERTEX
  8
0
  5
18E2
 10
36.3162
 20
200.856
 30
0.000000
  70
    32
  0
VERTEX
  8
0
  5
18E3
 10
36.3534
 20
200.696
 30
0.000000
  70
    32
  0
VERTEX
  8
0
  5
18E4
 10
36.3988
 20
200.536
 30
0.000000
  70
    32
  0
VERTEX
  8
0
  5
18E5
 10
36.4524
 20
200.377
 30
0.000000
  70
    32
  0
VERTEX
  8
0
  5
18E6
 10
36.5142
 20
200.218
 30
0.000000
  70
    32
  0
VERTEX
  8
0
  5
18E7
 10
36.5841
 20
200.060
 30
0.000000
  70
    32
  0
VERTEX
  8
0
  5
18E8
 10
36.6621
 20
199.903
 30
0.000000
  70
    32
  0
VERTEX
  8
0
  5
18E9
 10
36.7481
 20
199.747
 30
0.000000
  70
    32
  0
VERTEX
  8
0
  5
18EA
 10
36.8421
 20
199.592
 30
0.000000
  70
    32
  0
VERTEX
  8
0
  5
18EB
 10
36.9440
 20
199.438
 30
0.000000
  70
    32
  0
VERTEX
  8
0
  5
18EC
 10
37.0538
 20
199.285
 30
0.000000
  70
    32
  0
VERTEX
  8
0
  5
18ED
 10
37.1713
 20
199.134
 30
0.000000
  70
    32
  0
VERTEX
  8
0
  5
18EE
 10
37.2967
 20
198.984
 30
0.000000
  70
    32
  0
VERTEX
  8
0
  5
18EF
 10
37.4296
 20
198.836
 30
0.000000
  70
    32
  0
VERTEX
  8
0
  5
18F0
 10
37.5701
 20
198.689
 30
0.000000
  70
    32
  0
VERTEX
  8
0
  5
18F1
 10
37.7182
 20
198.544
 30
0.000000
  70
    32
  0
VERTEX
  8
0
  5
18F2
 10
37.8736
 20
198.401
 30
0.000000
  70
    32
  0
VERTEX
  8
0
  5
18F3
 10
38.0363
 20
198.259
 30
0.000000
  70
    32
  0
VERTEX
  8
0
  5
18F4
 10
38.2062
 20
198.120
 30
0.000000
  70
    32
  0
VERTEX
  8
0
  5
18F5
 10
38.3833
 20
197.982
 30
0.000000
  70
    32
  0
VERTEX
  8
0
  5
18F6
 10
38.5673
 20
197.847
 30
0.000000
  70
    32
  0
VERTEX
  8
0
  5
18F7
 10
38.7582
 20
197.714
 30
0.000000
  70
    32
  0
VERTEX
  8
0
  5
18F8
 10
38.9559
 20
197.583
 30
0.000000
  70
    32
  0
VERTEX
  8
0
  5
18F9
 10
39.1602
 20
197.454
 30
0.000000
  70
    32
  0
VERTEX
  8
0
  5
18FA
 10
39.3711
 20
197.328
 30
0.000000
  70
    32
  0
VERTEX
  8
0
  5
18FB
 10
39.5884
 20
197.205
 30
0.000000
  70
    32
  0
VERTEX
  8
0
  5
18FC
 10
39.8119
 20
197.084
 30
0.000000
  70
    32
  0
VERTEX
  8
0
  5
18FD
 10
40.0416
 20
196.966
 30
0.000000
  70
    32
  0
VERTEX
  8
0
  5
18FE
 10
40.2773
 20
196.850
 30
0.000000
  70
    32
  0
VERTEX
  8
0
  5
18FF
 10
40.5188
 20
196.737
 30
0.000000
  70
    32
  0
VERTEX
  8
0
  5
1900
 10
40.7661
 20
196.628
 30
0.000000
  70
    32
  0
VERTEX
  8
0
  5
1901
 10
41.0189
 20
196.521
 30
0.000000
  70
    32
  0
VERTEX
  8
0
  5
1902
 10
41.2771
 20
196.417
 30
0.000000
  70
    32
  0
VERTEX
  8
0
  5
1903
 10
41.5406
 20
196.316
 30
0.000000
  70
    32
  0
VERTEX
  8
0
  5
1904
 10
41.8091
 20
196.218
 30
0.000000
  70
    32
  0
VERTEX
  8
0
  5
1905
 10
42.0826
 20
196.124
 30
0.000000
  70
    32
  0
VERTEX
  8
0
  5
1906
 10
42.3609
 20
196.032
 30
0.000000
  70
    32
  0
VERTEX
  8
0
  5
1907
 10
42.6438
 20
195.944
 30
0.000000
  70
    32
  0
VERTEX
  8
0
  5
1908
 10
42.9311
 20
195.860
 30
0.000000
  70
    32
  0
VERTEX
  8
0
  5
1909
 10
43.2226
 20
195.778
 30
0.000000
  70
    32
  0
VERTEX
  8
0
  5
190A
 10
43.5183
 20
195.700
 30
0.000000
  70
    32
  0
VERTEX
  8
0
  5
190B
 10
43.8178
 20
195.626
 30
0.000000
  70
    32
  0
VERTEX
  8
0
  5
190C
 10
44.1211
 20
195.555
 30
0.000000
  70
    32
  0
VERTEX
  8
0
  5
190D
 10
44.4279
 20
195.488
 30
0.000000
  70
    32
  0
VERTEX
  8
0
  5
190E
 10
44.7381
 20
195.424
 30
0.000000
  70
    32
  0
VERTEX
  8
0
  5
190F
 10
45.0514
 20
195.364
 30
0.000000
  70
    32
  0
VERTEX
  8
0
  5
1910
 10
45.3678
 20
195.308
 30
0.000000
  70
    32
  0
VERTEX
  8
0
  5
1911
 10
45.6869
 20
195.256
 30
0.000000
  70
    32
  0
VERTEX
  8
0
  5
1912
 10
46.0086
 20
195.207
 30
0.000000
  70
    32
  0
VERTEX
  8
0
  5
1913
 10
46.3327
 20
195.162
 30
0.000000
  70
    32
  0
VERTEX
  8
0
  5
1914
 10
46.6590
 20
195.121
 30
0.000000
  70
    32
  0
VERTEX
  8
0
  5
1915
 10
46.9874
 20
195.084
 30
0.000000
  70
    32
  0
VERTEX
  8
0
  5
1916
 10
47.3175
 20
195.050
 30
0.000000
  70
    32
  0
VERTEX
  8
0
  5
1917
 10
47.6493
 20
195.021
 30
0.000000
  70
    32
  0
VERTEX
  8
0
  5
1918
 10
47.9825
 20
194.995
 30
0.000000
  70
    32
  0
VERTEX
  8
0
  5
1919
 10
48.3169
 20
194.973
 30
0.000000
  70
    32
  0
VERTEX
  8
0
  5
191A
 10
48.6523
 20
194.955
 30
0.000000
  70
    32
  0
VERTEX
  8
0
  5
191B
 10
48.9885
 20
194.942
 30
0.000000
  70
    32
  0
VERTEX
  8
0
  5
191C
 10
49.3253
 20
194.932
 30
0.000000
  70
    32
  0
VERTEX
  8
0
  5
191D
 10
49.6626
 20
194.926
 30
0.000000
  70
    32
  0
VERTEX
  8
0
  5
191E
 10
50.0000
 20
194.924
 30
0.000000
  70
    32
  0
VERTEX
  8
0
  5
191F
 10
50.3374
 20
194.926
 30
0.000000
  70
    32
  0
VERTEX
  8
0
  5
1920
 10
50.6747
 20
194.932
 30
0.000000
  70
    32
  0
VERTEX
  8
0
  5
1921
 10
51.0115
 20
194.942
 30
0.000000
  70
    32
  0
VERTEX
  8
0
  5
1922
 10
51.3477
 20
194.955
 30
0.000000
  70
    32
  0
VERTEX
  8
0
  5
1923
 10
51.6831
 20
194.973
 30
0.000000
  70
    32
  0
VERTEX
  8
0
  5
1924
 10
52.0175
 20
194.995
 30
0.000000
  70
    32
  0
VERTEX
  8
0
  5
1925
 10
52.3507
 20
195.021
 30
0.000000
  70
    32
  0
VERTEX
  8
0
  5
1926
 10
52.6825
 20
195.050
 30
0.000000
  70
    32
  0
VERTEX
  8
0
  5
1927
 10
53.0126
 20
195.084
 30
0.000000
  70
    32
  0
VERTEX
  8
0
  5
1928
 10
53.3410
 20
195.121
 30
0.000000
  70
    32
  0
VERTEX
  8
0
  5
1929
 10
53.6673
 20
195.162
 30
0.000000
  70
    32
  0
VERTEX
  8
0
  5
192A
 10
53.9914
 20
195.207
 30
0.000000
  70
    32
  0
VERTEX
  8
0
  5
192B
 10
54.3131
 20
195.256
 30
0.000000
  70
    32
  0
VERTEX
  8
0
  5
192C
 10
54.6322
 20
195.308
 30
0.000000
  70
    32
  0
VERTEX
  8
0
  5
192D
 10
54.9486
 20
195.364
 30
0.000000
  70
    32
  0
VERTEX
  8
0
  5
192E
 10
55.2619
 20
195.424
 30
0.000000
  70
    32
  0
VERTEX
  8
0
  5
192F
 10
55.5721
 20
195.488
 30
0.000000
  70
    32
  0
VERTEX
  8
0
  5
1930
 10
55.8789
 20
195.555
 30
0.000000
  70
    32
  0
VERTEX
  8
0
  5
1931
 10
56.1822
 20
195.626
 30
0.000000
  70
    32
  0
VERTEX
  8
0
  5
1932
 10
56.4817
 20
195.700
 30
0.000000
  70
    32
  0
VERTEX
  8
0
  5
1933
 10
56.7774
 20
195.778
 30
0.000000
  70
    32
  0
VERTEX
  8
0
  5
1934
 10
57.0689
 20
195.860
 30
0.000000
  70
    32
  0
VERTEX
  8
0
  5
1935
 10
57.3562
 20
195.944
 30
0.000000
  70
    32
  0
VERTEX
  8
0
  5
1936
 10
57.6391
 20
196.032
 30
0.000000
  70
    32
  0
VERTEX
  8
0
  5
1937
 10
57.9174
 20
196.124
 30
0.000000
  70
    32
  0
VERTEX
  8
0
  5
1938
 10
58.1909
 20
196.218
 30
0.000000
  70
    32
  0
VERTEX
  8
0
  5
1939
 10
58.4594
 20
196.316
 30
0.000000
  70
    32
  0
VERTEX
  8
0
  5
193A
 10
58.7229
 20
196.417
 30
0.000000
  70
    32
  0
VERTEX
  8
0
  5
193B
 10
58.9811
 20
196.521
 30
0.000000
  70
    32
  0
VERTEX
  8
0
  5
193C
 10
59.2339
 20
196.628
 30
0.000000
  70
    32
  0
VERTEX
  8
0
  5
193D
 10
59.4812
 20
196.737
 30
0.000000
  70
    32
  0
VERTEX
  8
0
  5
193E
 10
59.7227
 20
196.850
 30
0.000000
  70
    32
  0
VERTEX
  8
0
  5
193F
 10
59.9584
 20
196.966
 30
0.000000
  70
    32
  0
VERTEX
  8
0
  5
1940
 10
60.1881
 20
197.084
 30
0.000000
  70
    32
  0
VERTEX
  8
0
  5
1941
 10
60.4116
 20
197.205
 30
0.000000
  70
    32
  0
VERTEX
  8
0
  5
1942
 10
60.6289
 20
197.328
 30
0.000000
  70
    32
  0
VERTEX
  8
0
  5
1943
 10
60.8398
 20
197.454
 30
0.000000
  70
    32
  0
VERTEX
  8
0
  5
1944
 10
61.0441
 20
197.583
 30
0.000000
  70
    32
  0
VERTEX
  8
0
  5
1945
 10
61.2418
 20
197.714
 30
0.000000
  70
    32
  0
VERTEX
  8
0
  5
1946
 10
61.4327
 20
197.847
 30
0.000000
  70
    32
  0
VERTEX
  8
0
  5
1947
 10
61.6167
 20
197.982
 30
0.000000
  70
    32
  0
VERTEX
  8
0
  5
1948
 10
61.7938
 20
198.120
 30
0.000000
  70
    32
  0
VERTEX
  8
0
  5
1949
 10
61.9637
 20
198.259
 30
0.000000
  70
    32
  0
VERTEX
  8
0
  5
194A
 10
62.1264
 20
198.401
 30
0.000000
  70
    32
  0
VERTEX
  8
0
  5
194B
 10
62.2818
 20
198.544
 30
0.000000
  70
    32
  0
VERTEX
  8
0
  5
194C
 10
62.4299
 20
198.689
 30
0.000000
  70
    32
  0
VERTEX
  8
0
  5
194D
 10
62.5704
 20
198.836
 30
0.000000
  70
    32
  0
VERTEX
  8
0
  5
194E
 10
62.7033
 20
198.984
 30
0.000000
  70
    32
  0
VERTEX
  8
0
  5
194F
 10
62.8287
 20
199.134
 30
0.000000
  70
    32
  0
VERTEX
  8
0
  5
1950
 10
62.9462
 20
199.285
 30
0.000000
  70
    32
  0
VERTEX
  8
0
  5
1951
 10
63.0560
 20
199.438
 30
0.000000
  70
    32
  0
VERTEX
  8
0
  5
1952
 10
63.1579
 20
199.592
 30
0.000000
  70
    32
  0
VERTEX
  8
0
  5
1953
 10
63.2519
 20
199.747
 30
0.000000
  70
    32
  0
VERTEX
  8
0
  5
1954
 10
63.3379
 20
199.903
 30
0.000000
  70
    32
  0
VERTEX
  8
0
  5
1955
 10
63.4159
 20
200.060
 30
0.000000
  70
    32
  0
VERTEX
  8
0
  5
1956
 10
63.4858
 20
200.218
 30
0.000000
  70
    32
  0
VERTEX
  8
0
  5
1957
 10
63.5476
 20
200.377
 30
0.000000
  70
    32
  0
VERTEX
  8
0
  5
1958
 10
63.6012
 20
200.536
 30
0.000000
  70
    32
  0
VERTEX
  8
0
  5
1959
 10
63.6466
 20
200.696
 30
0.000000
  70
    32
  0
VERTEX
  8
0
  5
195A
 10
63.6838
 20
200.856
 30
0.000000
  70
    32
  0
VERTEX
  8
0
  5
195B
 10
63.7127
 20
201.017
 30
0.000000
  70
    32
  0
VERTEX
  8
0
  5
195C
 10
63.7334
 20
201.178
 30
0.000000
  70
    32
  0
VERTEX
  8
0
  5
195D
 10
63.7459
 20
201.340
 30
0.000000
  70
    32
  0
VERTEX
  8
0
  5
195E
 10
63.7500
 20
201.501
 30
0.000000
  70
    32
  0
SEQEND
  8
0
  5
195F
  0
LINE
  5
15BB
  8
0
 10
63.75
 20
201.5010984402526
 30
0.0
 11
63.5
 21
170.0
 31
0.0
  0
LINE
  5
15BC
  8
0
 10
58.095167383574442
 20
215.4190857907758
 30
0.0
 11
56.583545780687473
 21
222.60295489836631
 31
0.0
  0
ARC
  5
15BD
  8
0
 10
56.094260292549507
 20
222.5
 30
0.0
 40
0.5
 50
11.882762862839069
 51
90.0
  0
ARC
  5
15BE
  8
0
 10
62.680650329048831
 20
211.25451479223329
 30
0.0
 40
6.0
 50
141.32779275757591
 51
207.67186019459641
  0
ARC
  5
15BF
  8
0
 10
57.605881895436603
 20
215.3161308924096
 30
0.0
 40
0.5
 50
321.32779275757582
 51
11.882762862840529
  0
LINE
  5
15C0
  8
0
 10
58.105881895436589
 20
215.3161308924096
 30
0.0
 11
58.105881895436482
 21
206.96815974703239
 31
0.0
  0
ARC
  5
15C1
  8
0
 10
66.675413038832176
 20
212.12210347803801
 30
0.0
 40
10.0
 50
201.43239566285379
 51
229.7746056342632
  0
LINE
  5
15C2
  8
0
 10
36.250000000000107
 20
201.5010984402526
 30
0.0
 11
36.500000000000107
 21
170.0
 31
0.0
  0
LINE
  5
15C3
  8
0
 10
41.904832616425658
 20
215.4190857907758
 30
0.0
 11
43.416454219312627
 21
222.60295489836631
 31
0.0
  0
ARC
  5
15C4
  8
0
 10
42.394118104563617
 20
215.3161308924096
 30
0.0
 40
0.5
 50
168.11723713715949
 51
218.67220724242409
  0
ARC
  5
15C5
  8
0
 10
43.905739707450607
 20
222.5
 30
0.0
 40
0.5
 50
90.0
 51
168.11723713716091
  0
POLYLINE
  5
15C6
  8
0
 10
39.769039163100494
 20
204.47579897961165
 30
0.0
 66
     1
 70
     8
  0
VERTEX
  8
0
  5
1960
 10
39.7690
 20
204.476
 30
0.000000
  70
    32
  0
VERTEX
  8
0
  5
1961
 10
39.7167
 20
204.457
 30
0.000000
  70
    32
  0
VERTEX
  8
0
  5
1962
 10
39.6647
 20
204.438
 30
0.000000
  70
    32
  0
VERTEX
  8
0
  5
1963
 10
39.6130
 20
204.419
 30
0.000000
  70
    32
  0
VERTEX
  8
0
  5
1964
 10
39.5617
 20
204.399
 30
0.000000
  70
    32
  0
VERTEX
  8
0
  5
1965
 10
39.5107
 20
204.380
 30
0.000000
  70
    32
  0
VERTEX
  8
0
  5
1966
 10
39.4601
 20
204.360
 30
0.000000
  70
    32
  0
VERTEX
  8
0
  5
1967
 10
39.4098
 20
204.341
 30
0.000000
  70
    32
  0
VERTEX
  8
0
  5
1968
 10
39.3598
 20
204.321
 30
0.000000
  70
    32
  0
VERTEX
  8
0
  5
1969
 10
39.3102
 20
204.302
 30
0.000000
  70
    32
  0
VERTEX
  8
0
  5
196A
 10
39.2609
 20
204.282
 30
0.000000
  70
    32
  0
VERTEX
  8
0
  5
196B
 10
39.2120
 20
204.262
 30
0.000000
  70
    32
  0
VERTEX
  8
0
  5
196C
 10
39.1635
 20
204.242
 30
0.000000
  70
    32
  0
VERTEX
  8
0
  5
196D
 10
39.1153
 20
204.222
 30
0.000000
  70
    32
  0
VERTEX
  8
0
  5
196E
 10
39.0674
 20
204.201
 30
0.000000
  70
    32
  0
VERTEX
  8
0
  5
196F
 10
39.0199
 20
204.181
 30
0.000000
  70
    32
  0
VERTEX
  8
0
  5
1970
 10
38.9728
 20
204.161
 30
0.000000
  70
    32
  0
VERTEX
  8
0
  5
1971
 10
38.9260
 20
204.140
 30
0.000000
  70
    32
  0
VERTEX
  8
0
  5
1972
 10
38.8796
 20
204.120
 30
0.000000
  70
    32
  0
VERTEX
  8
0
  5
1973
 10
38.8336
 20
204.099
 30
0.000000
  70
    32
  0
VERTEX
  8
0
  5
1974
 10
38.7879
 20
204.078
 30
0.000000
  70
    32
  0
VERTEX
  8
0
  5
1975
 10
38.7426
 20
204.058
 30
0.000000
  70
    32
  0
VERTEX
  8
0
  5
1976
 10
38.6977
 20
204.037
 30
0.000000
  70
    32
  0
VERTEX
  8
0
  5
1977
 10
38.6531
 20
204.016
 30
0.000000
  70
    32
  0
VERTEX
  8
0
  5
1978
 10
38.6089
 20
203.995
 30
0.000000
  70
    32
  0
VERTEX
  8
0
  5
1979
 10
38.5650
 20
203.974
 30
0.000000
  70
    32
  0
VERTEX
  8
0
  5
197A
 10
38.5216
 20
203.952
 30
0.000000
  70
    32
  0
VERTEX
  8
0
  5
197B
 10
38.4785
 20
203.931
 30
0.000000
  70
    32
  0
VERTEX
  8
0
  5
197C
 10
38.4358
 20
203.910
 30
0.000000
  70
    32
  0
VERTEX
  8
0
  5
197D
 10
38.3935
 20
203.888
 30
0.000000
  70
    32
  0
VERTEX
  8
0
  5
197E
 10
38.3515
 20
203.867
 30
0.000000
  70
    32
  0
VERTEX
  8
0
  5
197F
 10
38.3099
 20
203.845
 30
0.000000
  70
    32
  0
VERTEX
  8
0
  5
1980
 10
38.2687
 20
203.824
 30
0.000000
  70
    32
  0
VERTEX
  8
0
  5
1981
 10
38.2279
 20
203.802
 30
0.000000
  70
    32
  0
VERTEX
  8
0
  5
1982
 10
38.1875
 20
203.780
 30
0.000000
  70
    32
  0
VERTEX
  8
0
  5
1983
 10
38.1475
 20
203.758
 30
0.000000
  70
    32
  0
VERTEX
  8
0
  5
1984
 10
38.1078
 20
203.736
 30
0.000000
  70
    32
  0
VERTEX
  8
0
  5
1985
 10
38.0686
 20
203.714
 30
0.000000
  70
    32
  0
VERTEX
  8
0
  5
1986
 10
38.0297
 20
203.692
 30
0.000000
  70
    32
  0
VERTEX
  8
0
  5
1987
 10
37.9912
 20
203.670
 30
0.000000
  70
    32
  0
VERTEX
  8
0
  5
1988
 10
37.9532
 20
203.647
 30
0.000000
  70
    32
  0
VERTEX
  8
0
  5
1989
 10
37.9155
 20
203.625
 30
0.000000
  70
    32
  0
VERTEX
  8
0
  5
198A
 10
37.8782
 20
203.603
 30
0.000000
  70
    32
  0
VERTEX
  8
0
  5
198B
 10
37.8413
 20
203.580
 30
0.000000
  70
    32
  0
VERTEX
  8
0
  5
198C
 10
37.8048
 20
203.558
 30
0.000000
  70
    32
  0
VERTEX
  8
0
  5
198D
 10
37.7687
 20
203.535
 30
0.000000
  70
    32
  0
VERTEX
  8
0
  5
198E
 10
37.7330
 20
203.512
 30
0.000000
  70
    32
  0
VERTEX
  8
0
  5
198F
 10
37.6976
 20
203.490
 30
0.000000
  70
    32
  0
VERTEX
  8
0
  5
1990
 10
37.6627
 20
203.467
 30
0.000000
  70
    32
  0
VERTEX
  8
0
  5
1991
 10
37.6282
 20
203.444
 30
0.000000
  70
    32
  0
VERTEX
  8
0
  5
1992
 10
37.5942
 20
203.421
 30
0.000000
  70
    32
  0
VERTEX
  8
0
  5
1993
 10
37.5605
 20
203.398
 30
0.000000
  70
    32
  0
VERTEX
  8
0
  5
1994
 10
37.5272
 20
203.375
 30
0.000000
  70
    32
  0
VERTEX
  8
0
  5
1995
 10
37.4943
 20
203.352
 30
0.000000
  70
    32
  0
VERTEX
  8
0
  5
1996
 10
37.4618
 20
203.329
 30
0.000000
  70
    32
  0
VERTEX
  8
0
  5
1997
 10
37.4298
 20
203.306
 30
0.000000
  70
    32
  0
VERTEX
  8
0
  5
1998
 10
37.3981
 20
203.282
 30
0.000000
  70
    32
  0
VERTEX
  8
0
  5
1999
 10
37.3669
 20
203.259
 30
0.000000
  70
    32
  0
VERTEX
  8
0
  5
199A
 10
37.3361
 20
203.235
 30
0.000000
  70
    32
  0
VERTEX
  8
0
  5
199B
 10
37.3057
 20
203.212
 30
0.000000
  70
    32
  0
VERTEX
  8
0
  5
199C
 10
37.2757
 20
203.188
 30
0.000000
  70
    32
  0
VERTEX
  8
0
  5
199D
 10
37.2461
 20
203.165
 30
0.000000
  70
    32
  0
VERTEX
  8
0
  5
199E
 10
37.2169
 20
203.141
 30
0.000000
  70
    32
  0
VERTEX
  8
0
  5
199F
 10
37.1882
 20
203.118
 30
0.000000
  70
    32
  0
VERTEX
  8
0
  5
19A0
 10
37.1599
 20
203.094
 30
0.000000
  70
    32
  0
VERTEX
  8
0
  5
19A1
 10
37.1320
 20
203.070
 30
0.000000
  70
    32
  0
VERTEX
  8
0
  5
19A2
 10
37.1045
 20
203.046
 30
0.000000
  70
    32
  0
VERTEX
  8
0
  5
19A3
 10
37.0774
 20
203.022
 30
0.000000
  70
    32
  0
VERTEX
  8
0
  5
19A4
 10
37.0508
 20
202.998
 30
0.000000
  70
    32
  0
VERTEX
  8
0
  5
19A5
 10
37.0245
 20
202.974
 30
0.000000
  70
    32
  0
VERTEX
  8
0
  5
19A6
 10
36.9988
 20
202.950
 30
0.000000
  70
    32
  0
VERTEX
  8
0
  5
19A7
 10
36.9734
 20
202.926
 30
0.000000
  70
    32
  0
VERTEX
  8
0
  5
19A8
 10
36.9484
 20
202.902
 30
0.000000
  70
    32
  0
VERTEX
  8
0
  5
19A9
 10
36.9239
 20
202.878
 30
0.000000
  70
    32
  0
VERTEX
  8
0
  5
19AA
 10
36.8998
 20
202.854
 30
0.000000
  70
    32
  0
VERTEX
  8
0
  5
19AB
 10
36.8762
 20
202.829
 30
0.000000
  70
    32
  0
VERTEX
  8
0
  5
19AC
 10
36.8529
 20
202.805
 30
0.000000
  70
    32
  0
VERTEX
  8
0
  5
19AD
 10
36.8301
 20
202.781
 30
0.000000
  70
    32
  0
VERTEX
  8
0
  5
19AE
 10
36.8078
 20
202.756
 30
0.000000
  70
    32
  0
VERTEX
  8
0
  5
19AF
 10
36.7858
 20
202.732
 30
0.000000
  70
    32
  0
VERTEX
  8
0
  5
19B0
 10
36.7643
 20
202.707
 30
0.000000
  70
    32
  0
VERTEX
  8
0
  5
19B1
 10
36.7432
 20
202.683
 30
0.000000
  70
    32
  0
VERTEX
  8
0
  5
19B2
 10
36.7226
 20
202.658
 30
0.000000
  70
    32
  0
VERTEX
  8
0
  5
19B3
 10
36.7024
 20
202.634
 30
0.000000
  70
    32
  0
VERTEX
  8
0
  5
19B4
 10
36.6826
 20
202.609
 30
0.000000
  70
    32
  0
VERTEX
  8
0
  5
19B5
 10
36.6633
 20
202.584
 30
0.000000
  70
    32
  0
VERTEX
  8
0
  5
19B6
 10
36.6443
 20
202.560
 30
0.000000
  70
    32
  0
VERTEX
  8
0
  5
19B7
 10
36.6259
 20
202.535
 30
0.000000
  70
    32
  0
VERTEX
  8
0
  5
19B8
 10
36.6078
 20
202.510
 30
0.000000
  70
    32
  0
VERTEX
  8
0
  5
19B9
 10
36.5902
 20
202.485
 30
0.000000
  70
    32
  0
VERTEX
  8
0
  5
19BA
 10
36.5731
 20
202.461
 30
0.000000
  70
    32
  0
VERTEX
  8
0
  5
19BB
 10
36.5564
 20
202.436
 30
0.000000
  70
    32
  0
VERTEX
  8
0
  5
19BC
 10
36.5401
 20
202.411
 30
0.000000
  70
    32
  0
VERTEX
  8
0
  5
19BD
 10
36.5243
 20
202.386
 30
0.000000
  70
    32
  0
VERTEX
  8
0
  5
19BE
 10
36.5089
 20
202.361
 30
0.000000
  70
    32
  0
VERTEX
  8
0
  5
19BF
 10
36.4939
 20
202.336
 30
0.000000
  70
    32
  0
VERTEX
  8
0
  5
19C0
 10
36.4794
 20
202.311
 30
0.000000
  70
    32
  0
VERTEX
  8
0
  5
19C1
 10
36.4653
 20
202.286
 30
0.000000
  70
    32
  0
VERTEX
  8
0
  5
19C2
 10
36.4517
 20
202.261
 30
0.000000
  70
    32
  0
VERTEX
  8
0
  5
19C3
 10
36.4385
 20
202.236
 30
0.000000
  70
    32
  0
VERTEX
  8
0
  5
19C4
 10
36.4257
 20
202.211
 30
0.000000
  70
    32
  0
VERTEX
  8
0
  5
19C5
 10
36.4134
 20
202.186
 30
0.000000
  70
    32
  0
VERTEX
  8
0
  5
19C6
 10
36.4016
 20
202.160
 30
0.000000
  70
    32
  0
VERTEX
  8
0
  5
19C7
 10
36.3902
 20
202.135
 30
0.000000
  70
    32
  0
VERTEX
  8
0
  5
19C8
 10
36.3792
 20
202.110
 30
0.000000
  70
    32
  0
VERTEX
  8
0
  5
19C9
 10
36.3687
 20
202.085
 30
0.000000
  70
    32
  0
VERTEX
  8
0
  5
19CA
 10
36.3586
 20
202.060
 30
0.000000
  70
    32
  0
VERTEX
  8
0
  5
19CB
 10
36.3489
 20
202.034
 30
0.000000
  70
    32
  0
VERTEX
  8
0
  5
19CC
 10
36.3398
 20
202.009
 30
0.000000
  70
    32
  0
VERTEX
  8
0
  5
19CD
 10
36.3310
 20
201.984
 30
0.000000
  70
    32
  0
VERTEX
  8
0
  5
19CE
 10
36.3227
 20
201.958
 30
0.000000
  70
    32
  0
VERTEX
  8
0
  5
19CF
 10
36.3149
 20
201.933
 30
0.000000
  70
    32
  0
VERTEX
  8
0
  5
19D0
 10
36.3075
 20
201.908
 30
0.000000
  70
    32
  0
VERTEX
  8
0
  5
19D1
 10
36.3005
 20
201.882
 30
0.000000
  70
    32
  0
VERTEX
  8
0
  5
19D2
 10
36.2940
 20
201.857
 30
0.000000
  70
    32
  0
VERTEX
  8
0
  5
19D3
 10
36.2879
 20
201.832
 30
0.000000
  70
    32
  0
VERTEX
  8
0
  5
19D4
 10
36.2823
 20
201.806
 30
0.000000
  70
    32
  0
VERTEX
  8
0
  5
19D5
 10
36.2772
 20
201.781
 30
0.000000
  70
    32
  0
VERTEX
  8
0
  5
19D6
 10
36.2725
 20
201.755
 30
0.000000
  70
    32
  0
VERTEX
  8
0
  5
19D7
 10
36.2682
 20
201.730
 30
0.000000
  70
    32
  0
VERTEX
  8
0
  5
19D8
 10
36.2644
 20
201.705
 30
0.000000
  70
    32
  0
VERTEX
  8
0
  5
19D9
 10
36.2610
 20
201.679
 30
0.000000
  70
    32
  0
VERTEX
  8
0
  5
19DA
 10
36.2581
 20
201.654
 30
0.000000
  70
    32
  0
VERTEX
  8
0
  5
19DB
 10
36.2556
 20
201.628
 30
0.000000
  70
    32
  0
VERTEX
  8
0
  5
19DC
 10
36.2536
 20
201.603
 30
0.000000
  70
    32
  0
VERTEX
  8
0
  5
19DD
 10
36.2520
 20
201.577
 30
0.000000
  70
    32
  0
VERTEX
  8
0
  5
19DE
 10
36.2509
 20
201.552
 30
0.000000
  70
    32
  0
VERTEX
  8
0
  5
19DF
 10
36.2502
 20
201.527
 30
0.000000
  70
    32
  0
VERTEX
  8
0
  5
19E0
 10
36.2500
 20
201.501
 30
0.000000
  70
    32
  0
SEQEND
  8
0
  5
19E1
  0
LINE
  5
15C7
  8
0
 10
41.894118104563631
 20
215.3161308924096
 30
0.0
 11
41.894118104563631
 21
206.96815974703239
 31
0.0
  0
ARC
  5
15C8
  8
0
 10
37.319349670951283
 20
211.25451479223329
 30
0.0
 40
6.0
 50
332.32813980540362
 51
38.672207242424122
  0
ARC
  5
15C9
  8
0
 10
33.324586961167938
 20
212.12210347803801
 30
0.0
 40
10.0
 50
310.22539436573669
 51
338.56760433714618
  0
LINE
  5
15CA
  8
0
 10
289.14990705183351
 20
218.9999787428039
 30
0.0
 11
290.85009294816649
 21
218.9999787428039
 31
0.0
  0
LINE
  5
15CB
  8
0
 10
288.6831449670758
 20
218.33902966116401
 30
0.0
 11
291.3168550329242
 21
218.33902966116409
 31
0.0
  0
LINE
  5
15CC
  8
0
 10
283.39896939374307
 20
209.66268798985871
 30
0.0
 11
296.6010306062567
 21
209.66268798985871
 31
0.0
  0
LINE
  5
15CD
  8
0
 10
283.51293147102251
 20
211.0572219592182
 30
0.0
 11
296.48706852897732
 21
211.0572219592182
 31
0.0
  0
LINE
  5
15CE
  8
0
 10
297.11188734811822
 20
208.97
 30
0.0
 11
282.8881126518815
 21
208.97
 31
0.0
  0
LINE
  5
15CF
  8
0
 10
296.5
 20
222.75518533457159
 30
0.0
 11
296.5
 21
210.92002286788409
 31
0.0
  0
LINE
  5
15D0
  8
0
 10
303.5
 20
170.0
 30
0.0
 11
276.5
 21
170.0
 31
0.0
  0
POLYLINE
  5
15D1
  8
0
 66
     1
 10
0.0
 20
0.0
 30
0.0
  0
VERTEX
  5
17BC
  8
0
 10
282.26720915611889
 20
189.2776174858339
 30
0.0
  0
VERTEX
  5
17BD
  8
0
 10
282.11490962035651
 20
188.89699714812829
 30
0.0
  0
VERTEX
  5
17BE
  8
0
 10
281.78418205906468
 20
188.13628075264359
 30
0.0
  0
VERTEX
  5
17BF
  8
0
 10
281.42031817748148
 20
187.3778069384793
 30
0.0
  0
VERTEX
  5
17C0
  8
0
 10
281.2266440037165
 20
187.0
 30
0.0
  0
SEQEND
  5
17C1
  8
0
  0
POLYLINE
  5
15D2
  8
0
 66
     1
 10
0.0
 20
0.0
 30
0.0
  0
VERTEX
  5
17C2
  8
0
 10
282.12539052337843
 20
199.6556386380432
 30
0.0
  0
VERTEX
  5
17C3
  8
0
 10
282.5013467129038
 20
198.88987833446819
 30
0.0
  0
VERTEX
  5
17C4
  8
0
 10
283.05555817901268
 20
197.27319882937829
 30
0.0
  0
VERTEX
  5
17C5
  8
0
 10
283.33507403165851
 20
195.55510608071449
 30
0.0
  0
VERTEX
  5
17C6
  8
0
 10
283.36999999999989
 20
194.66344287855091
 30
0.0
  0
SEQEND
  5
17C7
  8
0
  0
POLYLINE
  5
15D3
  8
0
 66
     1
 10
0.0
 20
0.0
 30
0.0
  0
VERTEX
  5
17C8
  8
0
 10
283.36999999999989
 20
194.66344287855091
 30
0.0
  0
VERTEX
  5
17C9
  8
0
 10
283.33828218290409
 20
193.79397846786179
 30
0.0
  0
VERTEX
  5
17CA
  8
0
 10
283.08741012613251
 20
192.0132326809204
 30
0.0
  0
VERTEX
  5
17CB
  8
0
 10
282.59684876388752
 20
190.19427960862311
 30
0.0
  0
VERTEX
  5
17CC
  8
0
 10
282.26720915611889
 20
189.2776174858339
 30
0.0
  0
SEQEND
  5
17CD
  8
0
  0
POLYLINE
  5
15D4
  8
0
 66
     1
 10
0.0
 20
0.0
 30
0.0
  0
VERTEX
  5
17CE
  8
0
 10
281.88261692307969
 20
200.73350402897691
 30
0.0
  0
VERTEX
  5
17CF
  8
0
 10
281.88024342282603
 20
200.70687899536611
 30
0.0
  0
VERTEX
  5
17D0
  8
0
 10
281.87680733660733
 20
200.65371869341149
 30
0.0
  0
VERTEX
  5
17D1
  8
0
 10
281.8751005256745
 20
200.60069331996471
 30
0.0
  0
VERTEX
  5
17D2
  8
0
 10
281.87488830716751
 20
200.57423697378249
 30
0.0
  0
SEQEND
  5
17D3
  8
0
  0
POLYLINE
  5
15D5
  8
0
 66
     1
 10
0.0
 20
0.0
 30
0.0
  0
VERTEX
  5
17D4
  8
0
 10
281.87488830716751
 20
200.57423697378249
 30
0.0
  0
VERTEX
  5
17D5
  8
0
 10
281.88156150515618
 20
200.42545588490739
 30
0.0
  0
VERTEX
  5
17D6
  8
0
 10
281.93614440400142
 20
200.1216685888962
 30
0.0
  0
VERTEX
  5
17D7
  8
0
 10
282.04773442967831
 20
199.811892824881
 30
0.0
  0
VERTEX
  5
17D8
  8
0
 10
282.12539052337843
 20
199.6556386380432
 30
0.0
  0
SEQEND
  5
17D9
  8
0
  0
LINE
  5
15D6
  8
0
 10
282.79666499036563
 20
208.65045615030041
 30
0.0
 11
297.20333500963437
 21
208.65045615030041
 31
0.0
  0
LINE
  5
15D7
  8
0
 10
299.5
 20
160.0
 30
0.0
 11
299.5
 21
170.0
 31
0.0
  0
LINE
  5
15D8
  8
0
 10
280.5
 20
170.0
 30
0.0
 11
280.5
 21
160.0
 31
0.0
  0
LINE
  5
15D9
  8
0
 10
280.5
 20
160.0
 30
0.0
 11
299.5
 21
160.0
 31
0.0
  0
LINE
  5
15DA
  8
1
 10
290.0
 20
228.0
 30
0.0
 11
290.0
 21
115.0
 31
0.0
  0
LINE
  5
15DB
  8
0
 10
296.09426029254951
 20
223.0
 30
0.0
 11
283.90573970745049
 21
223.0
 31
0.0
  0
ARC
  5
15DC
  8
0
 10
283.90573970745049
 20
222.5
 30
0.0
 40
0.5
 50
90.0
 51
168.11723713716091
  0
ARC
  5
15DD
  8
0
 10
296.09426029254951
 20
222.5
 30
0.0
 40
0.5
 50
11.882762862839069
 51
90.0
  0
LINE
  5
15DE
  8
0
 10
298.09516738357428
 20
215.4190857907758
 30
0.0
 11
296.58354578068747
 21
222.60295489836631
 31
0.0
  0
LINE
  5
15DF
  8
0
 10
281.90483261642538
 20
215.4190857907758
 30
0.0
 11
283.41645421931253
 21
222.60295489836631
 31
0.0
  0
LINE
  5
15E0
  8
0
 10
281.8941181045634
 20
215.3161308924096
 30
0.0
 11
281.8941181045634
 21
200.8485102189847
 31
0.0
  0
ARC
  5
15E1
  8
0
 10
282.3941181045634
 20
215.3161308924096
 30
0.0
 40
0.5
 50
168.11723713715949
 51
180.0
  0
ARC
  5
15E2
  8
0
 10
297.60588189543631
 20
215.3161308924096
 30
0.0
 40
0.5
 50
0.0
 51
11.882762862840529
  0
LINE
  5
15E3
  8
0
 10
298.10588189543643
 20
215.3161308924096
 30
0.0
 11
298.10588189543643
 21
200.82574482862361
 31
0.0
  0
LINE
  5
15E4
  8
0
 10
276.25
 20
201.5010984402526
 30
0.0
 11
276.5
 21
170.0
 31
0.0
  0
LINE
  5
15E5
  8
0
 10
303.75
 20
201.5010984402526
 30
0.0
 11
303.5
 21
170.0
 31
0.0
  0
POLYLINE
  5
15E6
  8
0
 10
303.75
 20
201.5010984402526
 30
0.0
 66
     1
 70
     8
  0
VERTEX
  8
0
  5
19E2
 10
303.750
 20
201.501
 30
0.000000
  70
    32
  0
VERTEX
  8
0
  5
19E3
 10
303.750
 20
201.527
 30
0.000000
  70
    32
  0
VERTEX
  8
0
  5
19E4
 10
303.749
 20
201.552
 30
0.000000
  70
    32
  0
VERTEX
  8
0
  5
19E5
 10
303.748
 20
201.577
 30
0.000000
  70
    32
  0
VERTEX
  8
0
  5
19E6
 10
303.746
 20
201.603
 30
0.000000
  70
    32
  0
VERTEX
  8
0
  5
19E7
 10
303.744
 20
201.628
 30
0.000000
  70
    32
  0
VERTEX
  8
0
  5
19E8
 10
303.742
 20
201.654
 30
0.000000
  70
    32
  0
VERTEX
  8
0
  5
19E9
 10
303.739
 20
201.679
 30
0.000000
  70
    32
  0
VERTEX
  8
0
  5
19EA
 10
303.736
 20
201.705
 30
0.000000
  70
    32
  0
VERTEX
  8
0
  5
19EB
 10
303.732
 20
201.730
 30
0.000000
  70
    32
  0
VERTEX
  8
0
  5
19EC
 10
303.728
 20
201.755
 30
0.000000
  70
    32
  0
VERTEX
  8
0
  5
19ED
 10
303.723
 20
201.781
 30
0.000000
  70
    32
  0
VERTEX
  8
0
  5
19EE
 10
303.718
 20
201.806
 30
0.000000
  70
    32
  0
VERTEX
  8
0
  5
19EF
 10
303.712
 20
201.832
 30
0.000000
  70
    32
  0
VERTEX
  8
0
  5
19F0
 10
303.706
 20
201.857
 30
0.000000
  70
    32
  0
VERTEX
  8
0
  5
19F1
 10
303.699
 20
201.882
 30
0.000000
  70
    32
  0
VERTEX
  8
0
  5
19F2
 10
303.693
 20
201.908
 30
0.000000
  70
    32
  0
VERTEX
  8
0
  5
19F3
 10
303.685
 20
201.933
 30
0.000000
  70
    32
  0
VERTEX
  8
0
  5
19F4
 10
303.677
 20
201.958
 30
0.000000
  70
    32
  0
VERTEX
  8
0
  5
19F5
 10
303.669
 20
201.984
 30
0.000000
  70
    32
  0
VERTEX
  8
0
  5
19F6
 10
303.660
 20
202.009
 30
0.000000
  70
    32
  0
VERTEX
  8
0
  5
19F7
 10
303.651
 20
202.034
 30
0.000000
  70
    32
  0
VERTEX
  8
0
  5
19F8
 10
303.641
 20
202.060
 30
0.000000
  70
    32
  0
VERTEX
  8
0
  5
19F9
 10
303.631
 20
202.085
 30
0.000000
  70
    32
  0
VERTEX
  8
0
  5
19FA
 10
303.621
 20
202.110
 30
0.000000
  70
    32
  0
VERTEX
  8
0
  5
19FB
 10
303.610
 20
202.135
 30
0.000000
  70
    32
  0
VERTEX
  8
0
  5
19FC
 10
303.598
 20
202.160
 30
0.000000
  70
    32
  0
VERTEX
  8
0
  5
19FD
 10
303.587
 20
202.186
 30
0.000000
  70
    32
  0
VERTEX
  8
0
  5
19FE
 10
303.574
 20
202.211
 30
0.000000
  70
    32
  0
VERTEX
  8
0
  5
19FF
 10
303.562
 20
202.236
 30
0.000000
  70
    32
  0
VERTEX
  8
0
  5
1A00
 10
303.548
 20
202.261
 30
0.000000
  70
    32
  0
VERTEX
  8
0
  5
1A01
 10
303.535
 20
202.286
 30
0.000000
  70
    32
  0
VERTEX
  8
0
  5
1A02
 10
303.521
 20
202.311
 30
0.000000
  70
    32
  0
VERTEX
  8
0
  5
1A03
 10
303.506
 20
202.336
 30
0.000000
  70
    32
  0
VERTEX
  8
0
  5
1A04
 10
303.491
 20
202.361
 30
0.000000
  70
    32
  0
VERTEX
  8
0
  5
1A05
 10
303.476
 20
202.386
 30
0.000000
  70
    32
  0
VERTEX
  8
0
  5
1A06
 10
303.460
 20
202.411
 30
0.000000
  70
    32
  0
VERTEX
  8
0
  5
1A07
 10
303.444
 20
202.436
 30
0.000000
  70
    32
  0
VERTEX
  8
0
  5
1A08
 10
303.427
 20
202.461
 30
0.000000
  70
    32
  0
VERTEX
  8
0
  5
1A09
 10
303.410
 20
202.485
 30
0.000000
  70
    32
  0
VERTEX
  8
0
  5
1A0A
 10
303.392
 20
202.510
 30
0.000000
  70
    32
  0
VERTEX
  8
0
  5
1A0B
 10
303.374
 20
202.535
 30
0.000000
  70
    32
  0
VERTEX
  8
0
  5
1A0C
 10
303.356
 20
202.560
 30
0.000000
  70
    32
  0
VERTEX
  8
0
  5
1A0D
 10
303.337
 20
202.584
 30
0.000000
  70
    32
  0
VERTEX
  8
0
  5
1A0E
 10
303.317
 20
202.609
 30
0.000000
  70
    32
  0
VERTEX
  8
0
  5
1A0F
 10
303.298
 20
202.634
 30
0.000000
  70
    32
  0
VERTEX
  8
0
  5
1A10
 10
303.277
 20
202.658
 30
0.000000
  70
    32
  0
VERTEX
  8
0
  5
1A11
 10
303.257
 20
202.683
 30
0.000000
  70
    32
  0
VERTEX
  8
0
  5
1A12
 10
303.236
 20
202.707
 30
0.000000
  70
    32
  0
VERTEX
  8
0
  5
1A13
 10
303.214
 20
202.732
 30
0.000000
  70
    32
  0
VERTEX
  8
0
  5
1A14
 10
303.192
 20
202.756
 30
0.000000
  70
    32
  0
VERTEX
  8
0
  5
1A15
 10
303.170
 20
202.781
 30
0.000000
  70
    32
  0
VERTEX
  8
0
  5
1A16
 10
303.147
 20
202.805
 30
0.000000
  70
    32
  0
VERTEX
  8
0
  5
1A17
 10
303.124
 20
202.829
 30
0.000000
  70
    32
  0
VERTEX
  8
0
  5
1A18
 10
303.100
 20
202.854
 30
0.000000
  70
    32
  0
VERTEX
  8
0
  5
1A19
 10
303.076
 20
202.878
 30
0.000000
  70
    32
  0
VERTEX
  8
0
  5
1A1A
 10
303.052
 20
202.902
 30
0.000000
  70
    32
  0
VERTEX
  8
0
  5
1A1B
 10
303.027
 20
202.926
 30
0.000000
  70
    32
  0
VERTEX
  8
0
  5
1A1C
 10
303.001
 20
202.950
 30
0.000000
  70
    32
  0
VERTEX
  8
0
  5
1A1D
 10
302.975
 20
202.974
 30
0.000000
  70
    32
  0
VERTEX
  8
0
  5
1A1E
 10
302.949
 20
202.998
 30
0.000000
  70
    32
  0
VERTEX
  8
0
  5
1A1F
 10
302.923
 20
203.022
 30
0.000000
  70
    32
  0
VERTEX
  8
0
  5
1A20
 10
302.896
 20
203.046
 30
0.000000
  70
    32
  0
VERTEX
  8
0
  5
1A21
 10
302.868
 20
203.070
 30
0.000000
  70
    32
  0
VERTEX
  8
0
  5
1A22
 10
302.840
 20
203.094
 30
0.000000
  70
    32
  0
VERTEX
  8
0
  5
1A23
 10
302.812
 20
203.118
 30
0.000000
  70
    32
  0
VERTEX
  8
0
  5
1A24
 10
302.783
 20
203.141
 30
0.000000
  70
    32
  0
VERTEX
  8
0
  5
1A25
 10
302.754
 20
203.165
 30
0.000000
  70
    32
  0
VERTEX
  8
0
  5
1A26
 10
302.724
 20
203.188
 30
0.000000
  70
    32
  0
VERTEX
  8
0
  5
1A27
 10
302.694
 20
203.212
 30
0.000000
  70
    32
  0
VERTEX
  8
0
  5
1A28
 10
302.664
 20
203.235
 30
0.000000
  70
    32
  0
VERTEX
  8
0
  5
1A29
 10
302.633
 20
203.259
 30
0.000000
  70
    32
  0
VERTEX
  8
0
  5
1A2A
 10
302.602
 20
203.282
 30
0.000000
  70
    32
  0
VERTEX
  8
0
  5
1A2B
 10
302.570
 20
203.306
 30
0.000000
  70
    32
  0
VERTEX
  8
0
  5
1A2C
 10
302.538
 20
203.329
 30
0.000000
  70
    32
  0
VERTEX
  8
0
  5
1A2D
 10
302.506
 20
203.352
 30
0.000000
  70
    32
  0
VERTEX
  8
0
  5
1A2E
 10
302.473
 20
203.375
 30
0.000000
  70
    32
  0
VERTEX
  8
0
  5
1A2F
 10
302.440
 20
203.398
 30
0.000000
  70
    32
  0
VERTEX
  8
0
  5
1A30
 10
302.406
 20
203.421
 30
0.000000
  70
    32
  0
VERTEX
  8
0
  5
1A31
 10
302.372
 20
203.444
 30
0.000000
  70
    32
  0
VERTEX
  8
0
  5
1A32
 10
302.337
 20
203.467
 30
0.000000
  70
    32
  0
VERTEX
  8
0
  5
1A33
 10
302.302
 20
203.490
 30
0.000000
  70
    32
  0
VERTEX
  8
0
  5
1A34
 10
302.267
 20
203.512
 30
0.000000
  70
    32
  0
VERTEX
  8
0
  5
1A35
 10
302.231
 20
203.535
 30
0.000000
  70
    32
  0
VERTEX
  8
0
  5
1A36
 10
302.195
 20
203.558
 30
0.000000
  70
    32
  0
VERTEX
  8
0
  5
1A37
 10
302.159
 20
203.580
 30
0.000000
  70
    32
  0
VERTEX
  8
0
  5
1A38
 10
302.122
 20
203.603
 30
0.000000
  70
    32
  0
VERTEX
  8
0
  5
1A39
 10
302.085
 20
203.625
 30
0.000000
  70
    32
  0
VERTEX
  8
0
  5
1A3A
 10
302.047
 20
203.647
 30
0.000000
  70
    32
  0
VERTEX
  8
0
  5
1A3B
 10
302.009
 20
203.670
 30
0.000000
  70
    32
  0
VERTEX
  8
0
  5
1A3C
 10
301.970
 20
203.692
 30
0.000000
  70
    32
  0
VERTEX
  8
0
  5
1A3D
 10
301.931
 20
203.714
 30
0.000000
  70
    32
  0
VERTEX
  8
0
  5
1A3E
 10
301.892
 20
203.736
 30
0.000000
  70
    32
  0
VERTEX
  8
0
  5
1A3F
 10
301.853
 20
203.758
 30
0.000000
  70
    32
  0
VERTEX
  8
0
  5
1A40
 10
301.812
 20
203.780
 30
0.000000
  70
    32
  0
VERTEX
  8
0
  5
1A41
 10
301.772
 20
203.802
 30
0.000000
  70
    32
  0
VERTEX
  8
0
  5
1A42
 10
301.731
 20
203.824
 30
0.000000
  70
    32
  0
VERTEX
  8
0
  5
1A43
 10
301.690
 20
203.845
 30
0.000000
  70
    32
  0
VERTEX
  8
0
  5
1A44
 10
301.648
 20
203.867
 30
0.000000
  70
    32
  0
VERTEX
  8
0
  5
1A45
 10
301.607
 20
203.888
 30
0.000000
  70
    32
  0
VERTEX
  8
0
  5
1A46
 10
301.564
 20
203.910
 30
0.000000
  70
    32
  0
VERTEX
  8
0
  5
1A47
 10
301.522
 20
203.931
 30
0.000000
  70
    32
  0
VERTEX
  8
0
  5
1A48
 10
301.478
 20
203.952
 30
0.000000
  70
    32
  0
VERTEX
  8
0
  5
1A49
 10
301.435
 20
203.974
 30
0.000000
  70
    32
  0
VERTEX
  8
0
  5
1A4A
 10
301.391
 20
203.995
 30
0.000000
  70
    32
  0
VERTEX
  8
0
  5
1A4B
 10
301.347
 20
204.016
 30
0.000000
  70
    32
  0
VERTEX
  8
0
  5
1A4C
 10
301.302
 20
204.037
 30
0.000000
  70
    32
  0
VERTEX
  8
0
  5
1A4D
 10
301.257
 20
204.058
 30
0.000000
  70
    32
  0
VERTEX
  8
0
  5
1A4E
 10
301.212
 20
204.078
 30
0.000000
  70
    32
  0
VERTEX
  8
0
  5
1A4F
 10
301.166
 20
204.099
 30
0.000000
  70
    32
  0
VERTEX
  8
0
  5
1A50
 10
301.120
 20
204.120
 30
0.000000
  70
    32
  0
VERTEX
  8
0
  5
1A51
 10
301.074
 20
204.140
 30
0.000000
  70
    32
  0
VERTEX
  8
0
  5
1A52
 10
301.027
 20
204.161
 30
0.000000
  70
    32
  0
VERTEX
  8
0
  5
1A53
 10
300.980
 20
204.181
 30
0.000000
  70
    32
  0
VERTEX
  8
0
  5
1A54
 10
300.933
 20
204.201
 30
0.000000
  70
    32
  0
VERTEX
  8
0
  5
1A55
 10
300.885
 20
204.222
 30
0.000000
  70
    32
  0
VERTEX
  8
0
  5
1A56
 10
300.837
 20
204.242
 30
0.000000
  70
    32
  0
VERTEX
  8
0
  5
1A57
 10
300.788
 20
204.262
 30
0.000000
  70
    32
  0
VERTEX
  8
0
  5
1A58
 10
300.739
 20
204.282
 30
0.000000
  70
    32
  0
VERTEX
  8
0
  5
1A59
 10
300.690
 20
204.302
 30
0.000000
  70
    32
  0
VERTEX
  8
0
  5
1A5A
 10
300.640
 20
204.321
 30
0.000000
  70
    32
  0
VERTEX
  8
0
  5
1A5B
 10
300.590
 20
204.341
 30
0.000000
  70
    32
  0
VERTEX
  8
0
  5
1A5C
 10
300.540
 20
204.360
 30
0.000000
  70
    32
  0
VERTEX
  8
0
  5
1A5D
 10
300.489
 20
204.380
 30
0.000000
  70
    32
  0
VERTEX
  8
0
  5
1A5E
 10
300.438
 20
204.399
 30
0.000000
  70
    32
  0
VERTEX
  8
0
  5
1A5F
 10
300.387
 20
204.419
 30
0.000000
  70
    32
  0
VERTEX
  8
0
  5
1A60
 10
300.335
 20
204.438
 30
0.000000
  70
    32
  0
VERTEX
  8
0
  5
1A61
 10
300.283
 20
204.457
 30
0.000000
  70
    32
  0
VERTEX
  8
0
  5
1A62
 10
300.231
 20
204.476
 30
0.000000
  70
    32
  0
SEQEND
  8
0
  5
1A63
  0
ARC
  5
15E7
  8
0
 10
306.67541303883218
 20
212.12210347803801
 30
0.0
 40
10.0
 50
211.02381907605661
 51
229.7746056342632
  0
ARC
  5
15E8
  8
0
 10
273.32458696116782
 20
212.12210347803801
 30
0.0
 40
10.0
 50
310.22539436573669
 51
328.97618092394322
  0
POLYLINE
  5
15E9
  8
0
 10
279.7690391631005
 20
204.47579897961165
 30
0.0
 66
     1
 70
     8
  0
VERTEX
  8
0
  5
1A64
 10
279.769
 20
204.476
 30
0.000000
  70
    32
  0
VERTEX
  8
0
  5
1A65
 10
279.717
 20
204.457
 30
0.000000
  70
    32
  0
VERTEX
  8
0
  5
1A66
 10
279.665
 20
204.438
 30
0.000000
  70
    32
  0
VERTEX
  8
0
  5
1A67
 10
279.613
 20
204.419
 30
0.000000
  70
    32
  0
VERTEX
  8
0
  5
1A68
 10
279.562
 20
204.399
 30
0.000000
  70
    32
  0
VERTEX
  8
0
  5
1A69
 10
279.511
 20
204.380
 30
0.000000
  70
    32
  0
VERTEX
  8
0
  5
1A6A
 10
279.460
 20
204.360
 30
0.000000
  70
    32
  0
VERTEX
  8
0
  5
1A6B
 10
279.410
 20
204.341
 30
0.000000
  70
    32
  0
VERTEX
  8
0
  5
1A6C
 10
279.360
 20
204.321
 30
0.000000
  70
    32
  0
VERTEX
  8
0
  5
1A6D
 10
279.310
 20
204.302
 30
0.000000
  70
    32
  0
VERTEX
  8
0
  5
1A6E
 10
279.261
 20
204.282
 30
0.000000
  70
    32
  0
VERTEX
  8
0
  5
1A6F
 10
279.212
 20
204.262
 30
0.000000
  70
    32
  0
VERTEX
  8
0
  5
1A70
 10
279.163
 20
204.242
 30
0.000000
  70
    32
  0
VERTEX
  8
0
  5
1A71
 10
279.115
 20
204.222
 30
0.000000
  70
    32
  0
VERTEX
  8
0
  5
1A72
 10
279.067
 20
204.201
 30
0.000000
  70
    32
  0
VERTEX
  8
0
  5
1A73
 10
279.020
 20
204.181
 30
0.000000
  70
    32
  0
VERTEX
  8
0
  5
1A74
 10
278.973
 20
204.161
 30
0.000000
  70
    32
  0
VERTEX
  8
0
  5
1A75
 10
278.926
 20
204.140
 30
0.000000
  70
    32
  0
VERTEX
  8
0
  5
1A76
 10
278.880
 20
204.120
 30
0.000000
  70
    32
  0
VERTEX
  8
0
  5
1A77
 10
278.834
 20
204.099
 30
0.000000
  70
    32
  0
VERTEX
  8
0
  5
1A78
 10
278.788
 20
204.078
 30
0.000000
  70
    32
  0
VERTEX
  8
0
  5
1A79
 10
278.743
 20
204.058
 30
0.000000
  70
    32
  0
VERTEX
  8
0
  5
1A7A
 10
278.698
 20
204.037
 30
0.000000
  70
    32
  0
VERTEX
  8
0
  5
1A7B
 10
278.653
 20
204.016
 30
0.000000
  70
    32
  0
VERTEX
  8
0
  5
1A7C
 10
278.609
 20
203.995
 30
0.000000
  70
    32
  0
VERTEX
  8
0
  5
1A7D
 10
278.565
 20
203.974
 30
0.000000
  70
    32
  0
VERTEX
  8
0
  5
1A7E
 10
278.522
 20
203.952
 30
0.000000
  70
    32
  0
VERTEX
  8
0
  5
1A7F
 10
278.478
 20
203.931
 30
0.000000
  70
    32
  0
VERTEX
  8
0
  5
1A80
 10
278.436
 20
203.910
 30
0.000000
  70
    32
  0
VERTEX
  8
0
  5
1A81
 10
278.393
 20
203.888
 30
0.000000
  70
    32
  0
VERTEX
  8
0
  5
1A82
 10
278.352
 20
203.867
 30
0.000000
  70
    32
  0
VERTEX
  8
0
  5
1A83
 10
278.310
 20
203.845
 30
0.000000
  70
    32
  0
VERTEX
  8
0
  5
1A84
 10
278.269
 20
203.824
 30
0.000000
  70
    32
  0
VERTEX
  8
0
  5
1A85
 10
278.228
 20
203.802
 30
0.000000
  70
    32
  0
VERTEX
  8
0
  5
1A86
 10
278.188
 20
203.780
 30
0.000000
  70
    32
  0
VERTEX
  8
0
  5
1A87
 10
278.147
 20
203.758
 30
0.000000
  70
    32
  0
VERTEX
  8
0
  5
1A88
 10
278.108
 20
203.736
 30
0.000000
  70
    32
  0
VERTEX
  8
0
  5
1A89
 10
278.069
 20
203.714
 30
0.000000
  70
    32
  0
VERTEX
  8
0
  5
1A8A
 10
278.030
 20
203.692
 30
0.000000
  70
    32
  0
VERTEX
  8
0
  5
1A8B
 10
277.991
 20
203.670
 30
0.000000
  70
    32
  0
VERTEX
  8
0
  5
1A8C
 10
277.953
 20
203.647
 30
0.000000
  70
    32
  0
VERTEX
  8
0
  5
1A8D
 10
277.915
 20
203.625
 30
0.000000
  70
    32
  0
VERTEX
  8
0
  5
1A8E
 10
277.878
 20
203.603
 30
0.000000
  70
    32
  0
VERTEX
  8
0
  5
1A8F
 10
277.841
 20
203.580
 30
0.000000
  70
    32
  0
VERTEX
  8
0
  5
1A90
 10
277.805
 20
203.558
 30
0.000000
  70
    32
  0
VERTEX
  8
0
  5
1A91
 10
277.769
 20
203.535
 30
0.000000
  70
    32
  0
VERTEX
  8
0
  5
1A92
 10
277.733
 20
203.512
 30
0.000000
  70
    32
  0
VERTEX
  8
0
  5
1A93
 10
277.698
 20
203.490
 30
0.000000
  70
    32
  0
VERTEX
  8
0
  5
1A94
 10
277.663
 20
203.467
 30
0.000000
  70
    32
  0
VERTEX
  8
0
  5
1A95
 10
277.628
 20
203.444
 30
0.000000
  70
    32
  0
VERTEX
  8
0
  5
1A96
 10
277.594
 20
203.421
 30
0.000000
  70
    32
  0
VERTEX
  8
0
  5
1A97
 10
277.560
 20
203.398
 30
0.000000
  70
    32
  0
VERTEX
  8
0
  5
1A98
 10
277.527
 20
203.375
 30
0.000000
  70
    32
  0
VERTEX
  8
0
  5
1A99
 10
277.494
 20
203.352
 30
0.000000
  70
    32
  0
VERTEX
  8
0
  5
1A9A
 10
277.462
 20
203.329
 30
0.000000
  70
    32
  0
VERTEX
  8
0
  5
1A9B
 10
277.430
 20
203.306
 30
0.000000
  70
    32
  0
VERTEX
  8
0
  5
1A9C
 10
277.398
 20
203.282
 30
0.000000
  70
    32
  0
VERTEX
  8
0
  5
1A9D
 10
277.367
 20
203.259
 30
0.000000
  70
    32
  0
VERTEX
  8
0
  5
1A9E
 10
277.336
 20
203.235
 30
0.000000
  70
    32
  0
VERTEX
  8
0
  5
1A9F
 10
277.306
 20
203.212
 30
0.000000
  70
    32
  0
VERTEX
  8
0
  5
1AA0
 10
277.276
 20
203.188
 30
0.000000
  70
    32
  0
VERTEX
  8
0
  5
1AA1
 10
277.246
 20
203.165
 30
0.000000
  70
    32
  0
VERTEX
  8
0
  5
1AA2
 10
277.217
 20
203.141
 30
0.000000
  70
    32
  0
VERTEX
  8
0
  5
1AA3
 10
277.188
 20
203.118
 30
0.000000
  70
    32
  0
VERTEX
  8
0
  5
1AA4
 10
277.160
 20
203.094
 30
0.000000
  70
    32
  0
VERTEX
  8
0
  5
1AA5
 10
277.132
 20
203.070
 30
0.000000
  70
    32
  0
VERTEX
  8
0
  5
1AA6
 10
277.104
 20
203.046
 30
0.000000
  70
    32
  0
VERTEX
  8
0
  5
1AA7
 10
277.077
 20
203.022
 30
0.000000
  70
    32
  0
VERTEX
  8
0
  5
1AA8
 10
277.051
 20
202.998
 30
0.000000
  70
    32
  0
VERTEX
  8
0
  5
1AA9
 10
277.025
 20
202.974
 30
0.000000
  70
    32
  0
VERTEX
  8
0
  5
1AAA
 10
276.999
 20
202.950
 30
0.000000
  70
    32
  0
VERTEX
  8
0
  5
1AAB
 10
276.973
 20
202.926
 30
0.000000
  70
    32
  0
VERTEX
  8
0
  5
1AAC
 10
276.948
 20
202.902
 30
0.000000
  70
    32
  0
VERTEX
  8
0
  5
1AAD
 10
276.924
 20
202.878
 30
0.000000
  70
    32
  0
VERTEX
  8
0
  5
1AAE
 10
276.900
 20
202.854
 30
0.000000
  70
    32
  0
VERTEX
  8
0
  5
1AAF
 10
276.876
 20
202.829
 30
0.000000
  70
    32
  0
VERTEX
  8
0
  5
1AB0
 10
276.853
 20
202.805
 30
0.000000
  70
    32
  0
VERTEX
  8
0
  5
1AB1
 10
276.830
 20
202.781
 30
0.000000
  70
    32
  0
VERTEX
  8
0
  5
1AB2
 10
276.808
 20
202.756
 30
0.000000
  70
    32
  0
VERTEX
  8
0
  5
1AB3
 10
276.786
 20
202.732
 30
0.000000
  70
    32
  0
VERTEX
  8
0
  5
1AB4
 10
276.764
 20
202.707
 30
0.000000
  70
    32
  0
VERTEX
  8
0
  5
1AB5
 10
276.743
 20
202.683
 30
0.000000
  70
    32
  0
VERTEX
  8
0
  5
1AB6
 10
276.723
 20
202.658
 30
0.000000
  70
    32
  0
VERTEX
  8
0
  5
1AB7
 10
276.702
 20
202.634
 30
0.000000
  70
    32
  0
VERTEX
  8
0
  5
1AB8
 10
276.683
 20
202.609
 30
0.000000
  70
    32
  0
VERTEX
  8
0
  5
1AB9
 10
276.663
 20
202.584
 30
0.000000
  70
    32
  0
VERTEX
  8
0
  5
1ABA
 10
276.644
 20
202.560
 30
0.000000
  70
    32
  0
VERTEX
  8
0
  5
1ABB
 10
276.626
 20
202.535
 30
0.000000
  70
    32
  0
VERTEX
  8
0
  5
1ABC
 10
276.608
 20
202.510
 30
0.000000
  70
    32
  0
VERTEX
  8
0
  5
1ABD
 10
276.590
 20
202.485
 30
0.000000
  70
    32
  0
VERTEX
  8
0
  5
1ABE
 10
276.573
 20
202.461
 30
0.000000
  70
    32
  0
VERTEX
  8
0
  5
1ABF
 10
276.556
 20
202.436
 30
0.000000
  70
    32
  0
VERTEX
  8
0
  5
1AC0
 10
276.540
 20
202.411
 30
0.000000
  70
    32
  0
VERTEX
  8
0
  5
1AC1
 10
276.524
 20
202.386
 30
0.000000
  70
    32
  0
VERTEX
  8
0
  5
1AC2
 10
276.509
 20
202.361
 30
0.000000
  70
    32
  0
VERTEX
  8
0
  5
1AC3
 10
276.494
 20
202.336
 30
0.000000
  70
    32
  0
VERTEX
  8
0
  5
1AC4
 10
276.479
 20
202.311
 30
0.000000
  70
    32
  0
VERTEX
  8
0
  5
1AC5
 10
276.465
 20
202.286
 30
0.000000
  70
    32
  0
VERTEX
  8
0
  5
1AC6
 10
276.452
 20
202.261
 30
0.000000
  70
    32
  0
VERTEX
  8
0
  5
1AC7
 10
276.438
 20
202.236
 30
0.000000
  70
    32
  0
VERTEX
  8
0
  5
1AC8
 10
276.426
 20
202.211
 30
0.000000
  70
    32
  0
VERTEX
  8
0
  5
1AC9
 10
276.413
 20
202.186
 30
0.000000
  70
    32
  0
VERTEX
  8
0
  5
1ACA
 10
276.402
 20
202.160
 30
0.000000
  70
    32
  0
VERTEX
  8
0
  5
1ACB
 10
276.390
 20
202.135
 30
0.000000
  70
    32
  0
VERTEX
  8
0
  5
1ACC
 10
276.379
 20
202.110
 30
0.000000
  70
    32
  0
VERTEX
  8
0
  5
1ACD
 10
276.369
 20
202.085
 30
0.000000
  70
    32
  0
VERTEX
  8
0
  5
1ACE
 10
276.359
 20
202.060
 30
0.000000
  70
    32
  0
VERTEX
  8
0
  5
1ACF
 10
276.349
 20
202.034
 30
0.000000
  70
    32
  0
VERTEX
  8
0
  5
1AD0
 10
276.340
 20
202.009
 30
0.000000
  70
    32
  0
VERTEX
  8
0
  5
1AD1
 10
276.331
 20
201.984
 30
0.000000
  70
    32
  0
VERTEX
  8
0
  5
1AD2
 10
276.323
 20
201.958
 30
0.000000
  70
    32
  0
VERTEX
  8
0
  5
1AD3
 10
276.315
 20
201.933
 30
0.000000
  70
    32
  0
VERTEX
  8
0
  5
1AD4
 10
276.307
 20
201.908
 30
0.000000
  70
    32
  0
VERTEX
  8
0
  5
1AD5
 10
276.301
 20
201.882
 30
0.000000
  70
    32
  0
VERTEX
  8
0
  5
1AD6
 10
276.294
 20
201.857
 30
0.000000
  70
    32
  0
VERTEX
  8
0
  5
1AD7
 10
276.288
 20
201.832
 30
0.000000
  70
    32
  0
VERTEX
  8
0
  5
1AD8
 10
276.282
 20
201.806
 30
0.000000
  70
    32
  0
VERTEX
  8
0
  5
1AD9
 10
276.277
 20
201.781
 30
0.000000
  70
    32
  0
VERTEX
  8
0
  5
1ADA
 10
276.272
 20
201.755
 30
0.000000
  70
    32
  0
VERTEX
  8
0
  5
1ADB
 10
276.268
 20
201.730
 30
0.000000
  70
    32
  0
VERTEX
  8
0
  5
1ADC
 10
276.264
 20
201.705
 30
0.000000
  70
    32
  0
VERTEX
  8
0
  5
1ADD
 10
276.261
 20
201.679
 30
0.000000
  70
    32
  0
VERTEX
  8
0
  5
1ADE
 10
276.258
 20
201.654
 30
0.000000
  70
    32
  0
VERTEX
  8
0
  5
1ADF
 10
276.256
 20
201.628
 30
0.000000
  70
    32
  0
VERTEX
  8
0
  5
1AE0
 10
276.254
 20
201.603
 30
0.000000
  70
    32
  0
VERTEX
  8
0
  5
1AE1
 10
276.252
 20
201.577
 30
0.000000
  70
    32
  0
VERTEX
  8
0
  5
1AE2
 10
276.251
 20
201.552
 30
0.000000
  70
    32
  0
VERTEX
  8
0
  5
1AE3
 10
276.250
 20
201.527
 30
0.000000
  70
    32
  0
VERTEX
  8
0
  5
1AE4
 10
276.250
 20
201.501
 30
0.000000
  70
    32
  0
SEQEND
  8
0
  5
1AE5
  0
ARC
  5
15EA
  8
0
 10
310.15316517863312
 20
194.27411660644711
 30
0.0
 40
13.5
 50
154.9957370749575
 51
212.60358201322549
  0
ARC
  5
15EB
  8
0
 10
296.10588189543643
 20
200.82574482862361
 30
0.0
 40
2.0
 50
334.9957370749579
 51
0.0
  0
LINE
  5
15EC
  8
0
 10
297.20333500963437
 20
208.6504561503003
 30
0.0
 11
298.10573507402017
 21
200.84997836134099
 31
0.0
  0
LINE
  5
15ED
  8
0
 10
297.11188734811822
 20
208.97
 30
0.0
 11
297.20333500963437
 21
208.65045615030041
 31
0.0
  0
LINE
  5
15EE
  8
0
 10
296.48706852897732
 20
211.0572219592182
 30
0.0
 11
296.6576374469401
 21
208.97
 31
0.0
  0
ARC
  5
15EF
  8
0
 10
304.11019517162282
 20
204.99433893760519
 30
0.0
 40
20.0
 50
117.2266843968262
 51
131.85703956953211
  0
ARC
  5
15F0
  8
0
 10
295.87497726583911
 20
221.0
 30
0.0
 40
2.0
 50
90.0
 51
117.2266843968262
  0
ARC
  5
15F1
  8
0
 10
364.59884350751901
 20
270.58604072600252
 30
0.0
 40
90.0
 50
214.7914262544339
 51
219.8857855585226
  0
ARC
  5
15F2
  8
0
 10
291.09834666709622
 20
219.518174467356
 30
0.0
 40
0.5
 50
131.85703956953211
 51
214.7914262544339
  0
ARC
  5
15F3
  8
0
 10
288.97933651420323
 20
208.29425978171071
 30
0.0
 40
8.0
 50
20.204400190352381
 51
34.911162194463351
  0
ARC
  5
15F4
  8
0
 10
275.88980482837718
 20
204.99433893760519
 30
0.0
 40
20.0
 50
48.142960430467809
 51
62.773315603173693
  0
ARC
  5
15F5
  8
0
 10
284.12502273416089
 20
221.0
 30
0.0
 40
2.0
 50
62.773315603173693
 51
90.0
  0
ARC
  5
15F6
  8
0
 10
288.90165333290361
 20
219.518174467356
 30
0.0
 40
0.5
 50
325.20857374556522
 51
48.142960430467809
  0
ARC
  5
15F7
  8
0
 10
215.40115649248111
 20
270.58604072600252
 30
0.0
 40
90.0
 50
320.11421444147737
 51
325.20857374556522
  0
ARC
  5
15F8
  8
0
 10
291.0206634857966
 20
208.29425978171071
 30
0.0
 40
8.0
 50
145.0888378055366
 51
159.79559980964751
  0
LINE
  5
15F9
  8
0
 10
283.51293147102251
 20
211.0572219592182
 30
0.0
 11
283.3423625530599
 21
208.97
 31
0.0
  0
LINE
  5
15FA
  8
0
 10
282.8881126518815
 20
208.97
 30
0.0
 11
282.79666499036563
 21
208.65045615030041
 31
0.0
  0
LINE
  5
15FB
  8
0
 10
282.79666499036563
 20
208.6504561503003
 30
0.0
 11
281.89426492597948
 21
200.84997836134099
 31
0.0
  0
LINE
  5
15FC
  8
0
 10
283.5
 20
222.75518533457159
 30
0.0
 11
283.5
 21
210.92002286788409
 31
0.0
  0
LINE
  5
1618
  8
0
 10
146.19999999999999
 20
293.6749999999999
 30
0.0
 11
146.19999999999999
 21
292.32499999999987
 31
0.0
  0
LINE
  5
1619
  8
0
 10
153.80000000000001
 20
293.6749999999999
 30
0.0
 11
153.80000000000001
 21
292.32499999999987
 31
0.0
  0
LINE
  5
161A
  8
0
 10
151.7971219182046
 20
293.6749999999999
 30
0.0
 11
153.80000000000001
 21
293.6749999999999
 31
0.0
  0
LINE
  5
161B
  8
0
 10
151.79712191820451
 20
292.32499999999987
 30
0.0
 11
153.80000000000001
 21
292.32499999999987
 31
0.0
  0
LINE
  5
161C
  8
0
 10
146.19999999999999
 20
293.6749999999999
 30
0.0
 11
148.2028780817954
 21
293.6749999999999
 31
0.0
  0
LINE
  5
161D
  8
0
 10
146.19999999999999
 20
292.32499999999987
 30
0.0
 11
148.20287808179549
 21
292.32499999999987
 31
0.0
  0
CIRCLE
  5
161E
  8
0
 10
150.0
 20
292.99999999999989
 30
0.0
 40
3.999175415007485
  0
LINE
  5
161F
  8
0
 10
56.750000000000107
 20
201.6075674164922
 30
0.0
 11
43.250000000000107
 21
201.60756741649209
 31
0.0
  0
ARC
  5
1620
  8
0
 10
50.000000000000107
 20
191.68599999999989
 30
0.0
 40
12.0
 50
109.4670447595973
 51
124.2288663278126
  0
ARC
  5
1621
  8
0
 10
50.000000000000107
 20
191.68599999999989
 30
0.0
 40
12.0
 50
55.771133672187432
 51
70.532955240402643
  0
LINE
  5
1622
  8
0
 10
53.999175415007592
 20
203.0
 30
0.0
 11
46.000824584992749
 21
203.0
 31
0.0
  0
LINE
  5
1623
  8
0
 10
43.25
 20
201.60756741649209
 30
0.0
 11
43.25
 21
199.33742463953689
 31
0.0
  0
LINE
  5
1624
  8
0
 10
56.750000000000107
 20
201.6075674164922
 30
0.0
 11
56.750000000000107
 21
199.33742463953689
 31
0.0
  0
CIRCLE
  5
1625
  8
0
 10
150.0
 20
292.99999999999989
 30
0.0
 40
6.75
  0
ARC
  5
1626
  8
0
 10
152.36363942295219
 20
294.36464785710859
 30
0.0
 40
0.8925000000000011
 50
163.3417582272229
 51
230.59829508169079
  0
ARC
  5
1627
  8
0
 10
152.36363942295219
 20
291.63535214289129
 30
0.0
 40
0.8925000000000002
 50
129.40170491832501
 51
196.6582417727771
  0
ARC
  5
1628
  8
0
 10
151.02000000000001
 20
291.23330817627971
 30
0.0
 40
0.5099999999999997
 50
223.34175822722071
 51
16.658241772777121
  0
ARC
  5
1629
  8
0
 10
150.00000000000011
 20
290.2707042857827
 30
0.0
 40
0.8925000000000002
 50
43.341758227220758
 51
136.6582417727781
  0
ARC
  5
162A
  8
0
 10
148.9800000000001
 20
291.23330817627971
 30
0.0
 40
0.5100000000000002
 50
163.3417582272229
 51
316.65824177277921
  0
ARC
  5
162B
  8
0
 10
147.63636057704801
 20
291.63535214289129
 30
0.0
 40
0.8925000000000011
 50
343.3417582272229
 51
50.598295081674927
  0
ARC
  5
162C
  8
0
 10
151.02000000000001
 20
294.76669182372029
 30
0.0
 40
0.5100000000000003
 50
343.3417582272229
 51
136.65824177277921
  0
ARC
  5
162D
  8
0
 10
150.00000000000011
 20
295.72929571421719
 30
0.0
 40
0.8924999999999984
 50
223.34175822722071
 51
316.65824177277921
  0
ARC
  5
162E
  8
0
 10
148.9800000000001
 20
294.76669182372029
 30
0.0
 40
0.5099999999999997
 50
43.341758227220758
 51
196.6582417727771
  0
ARC
  5
162F
  8
0
 10
147.63636057704801
 20
294.36464785710859
 30
0.0
 40
0.8925000000000004
 50
309.40170491830912
 51
16.658241772777121
  0
LINE
  5
1630
  8
0
 10
151.08936284492719
 20
201.6075674164922
 30
0.0
 11
143.24000000000001
 21
201.60756741649209
 31
0.0
  0
LINE
  5
1631
  8
0
 10
143.24000000000001
 20
201.60756741649209
 30
0.0
 11
143.24000000000001
 21
198.31607371338819
 31
0.0
  0
LINE
  5
1632
  8
0
 10
153.9891754150074
 20
203.0
 30
0.0
 11
145.99082458499259
 21
203.0
 31
0.0
  0
ARC
  5
1633
  8
0
 10
149.99000000000001
 20
191.68599999999989
 30
0.0
 40
12.0
 50
109.4670447595973
 51
124.2288663278126
  0
ARC
  5
1634
  8
0
 10
149.99000000000001
 20
191.68599999999989
 30
0.0
 40
12.0
 50
68.926730289440343
 51
70.532955240402643
  0
LINE
  5
1641
  8
0
 10
54.0
 20
120.0
 30
0.0
 11
46.0
 21
120.0000000000001
 31
0.0
  0
LINE
  5
1642
  8
0
 10
56.0
 20
122.0
 30
0.0
 11
44.0
 21
122.0000000000001
 31
0.0
  0
LINE
  5
1643
  8
0
 10
43.999999999999879
 20
155.0
 30
0.0
 11
56.0
 21
155.0
 31
0.0
  0
LINE
  5
1644
  8
3
 10
44.946999999999889
 20
155.0
 30
0.0
 11
44.946999999999889
 21
121.0530000000001
 31
0.0
  0
LINE
  5
1645
  8
0
 10
44.0
 20
160.0
 30
0.0
 11
43.999999999999879
 21
122.0000000000001
 31
0.0
  0
LINE
  5
1646
  8
0
 10
46.0
 20
120.0000000000001
 30
0.0
 11
44.0
 21
122.0000000000001
 31
0.0
  0
LINE
  5
1647
  8
3
 10
44.946999999999889
 20
155.0
 30
0.0
 11
44.0
 21
156.6402521147678
 31
0.0
  0
LINE
  5
1648
  8
0
 10
56.0
 20
160.0
 30
0.0
 11
55.999999999999879
 21
121.9999999999999
 31
0.0
  0
LINE
  5
1649
  8
3
 10
55.052999999999997
 20
155.0
 30
0.0
 11
55.052999999999997
 21
121.053
 31
0.0
  0
LINE
  5
164A
  8
0
 10
54.0
 20
120.0
 30
0.0
 11
56.0
 21
122.0
 31
0.0
  0
LINE
  5
164B
  8
3
 10
55.052999999999997
 20
155.0
 30
0.0
 11
56.0
 21
156.6402521147678
 31
0.0
  0
LINE
  5
164C
  8
0
 10
154.0
 20
120.0
 30
0.0
 11
146.0
 21
120.0000000000001
 31
0.0
  0
LINE
  5
164D
  8
0
 10
156.0
 20
122.0
 30
0.0
 11
144.0
 21
122.0000000000001
 31
0.0
  0
LINE
  5
164E
  8
0
 10
143.99999999999989
 20
155.0
 30
0.0
 11
156.0
 21
155.0
 31
0.0
  0
LINE
  5
164F
  8
3
 10
144.94699999999989
 20
155.0
 30
0.0
 11
144.94699999999989
 21
121.0530000000001
 31
0.0
  0
LINE
  5
1650
  8
0
 10
144.0
 20
160.0
 30
0.0
 11
143.99999999999989
 21
122.0000000000001
 31
0.0
  0
LINE
  5
1651
  8
0
 10
146.0
 20
120.0000000000001
 30
0.0
 11
144.0
 21
122.0000000000001
 31
0.0
  0
LINE
  5
1652
  8
3
 10
144.94699999999989
 20
155.0
 30
0.0
 11
144.0
 21
156.6402521147678
 31
0.0
  0
LINE
  5
1653
  8
0
 10
156.0
 20
160.0
 30
0.0
 11
155.99999999999989
 21
121.9999999999999
 31
0.0
  0
LINE
  5
1654
  8
3
 10
155.053
 20
155.0
 30
0.0
 11
155.053
 21
121.053
 31
0.0
  0
LINE
  5
1655
  8
0
 10
154.0
 20
120.0
 30
0.0
 11
156.0
 21
122.0
 31
0.0
  0
LINE
  5
1656
  8
3
 10
155.053
 20
155.0
 30
0.0
 11
156.0
 21
156.6402521147678
 31
0.0
  0
LINE
  5
1657
  8
0
 10
294.0
 20
120.0
 30
0.0
 11
286.0
 21
120.0000000000001
 31
0.0
  0
LINE
  5
1658
  8
0
 10
296.0
 20
122.0
 30
0.0
 11
284.0
 21
122.0000000000001
 31
0.0
  0
LINE
  5
1659
  8
0
 10
284.0
 20
155.0
 30
0.0
 11
296.0
 21
155.0
 31
0.0
  0
LINE
  5
165A
  8
3
 10
284.94699999999989
 20
155.0
 30
0.0
 11
284.94699999999989
 21
121.0530000000001
 31
0.0
  0
LINE
  5
165B
  8
0
 10
284.0
 20
160.0
 30
0.0
 11
284.0
 21
122.0000000000001
 31
0.0
  0
LINE
  5
165C
  8
0
 10
286.0
 20
120.0000000000001
 30
0.0
 11
284.0
 21
122.0000000000001
 31
0.0
  0
LINE
  5
165D
  8
3
 10
284.94699999999989
 20
155.0
 30
0.0
 11
284.0
 21
156.6402521147678
 31
0.0
  0
LINE
  5
165E
  8
0
 10
296.0
 20
160.0
 30
0.0
 11
296.0
 21
121.9999999999999
 31
0.0
  0
LINE
  5
165F
  8
3
 10
295.05299999999988
 20
155.0
 30
0.0
 11
295.05299999999988
 21
121.053
 31
0.0
  0
LINE
  5
1660
  8
0
 10
294.0
 20
120.0
 30
0.0
 11
296.0
 21
122.0
 31
0.0
  0
LINE
  5
1661
  8
3
 10
295.05299999999988
 20
155.0
 30
0.0
 11
296.0
 21
156.6402521147678
 31
0.0
  0
CIRCLE
  5
1673
  8
3
 10
150.0
 20
50.0
 30
0.0
 40
5.0529999999999973
  0
CIRCLE
  5
1674
  8
0
 10
150.0
 20
50.0
 30
0.0
 40
6.0
  0
ENDSEC
  0
EOF
