  0
SECTION
  2
HEADER
  9
$ACADVER
  1
AC1009
  9
$INSBASE
 10
0.0
 20
0.0
 30
0.0
  9
$EXTMIN
 10
0.0
 20
-2.960436562073669
 30
0.0
  9
$EXTMAX
 10
441.27800866431511
 20
372.93566272205879
 30
0.0
  9
$LIMMIN
 10
0.0
 20
0.0
  9
$LIMMAX
 10
187.5
 20
135.0
  9
$ORTHOMODE
 70
     0
  9
$REGENMODE
 70
     1
  9
$FILLMODE
 70
     1
  9
$QTEXTMODE
 70
     0
  9
$MIRRTEXT
 70
     0
  9
$DRAGMODE
 70
     2
  9
$LTSCALE
 40
10.0
  9
$OSMODE
 70
    55
  9
$ATTMODE
 70
     1
  9
$TEXTSIZE
 40
4.0
  9
$TRACEWID
 40
0.05
  9
$TEXTSTYLE
  7
STANDARD
  9
$CLAYER
  8
0
  9
$CELTYPE
  6
BYLAYER
  9
$CECOLOR
 62
   256
  9
$DIMSCALE
 40
0.5
  9
$DIMASZ
 40
3.0
  9
$DIMEXO
 40
2.0
  9
$DIMDLI
 40
0.38
  9
$DIMRND
 40
0.0
  9
$DIMDLE
 40
0.0
  9
$DIMEXE
 40
2.0
  9
$DIMTP
 40
0.0
  9
$DIMTM
 40
0.0
  9
$DIMTXT
 40
3.0
  9
$DIMCEN
 40
0.0
  9
$DIMTSZ
 40
0.0
  9
$DIMTOL
 70
     0
  9
$DIMLIM
 70
     0
  9
$DIMTIH
 70
     0
  9
$DIMTOH
 70
     0
  9
$DIMSE1
 70
     0
  9
$DIMSE2
 70
     0
  9
$DIMTAD
 70
     1
  9
$DIMZIN
 70
     0
  9
$DIMBLK
  1

  9
$DIMASO
 70
     0
  9
$DIMSHO
 70
     0
  9
$DIMPOST
  1

  9
$DIMAPOST
  1

  9
$DIMALT
 70
     0
  9
$DIMALTD
 70
     2
  9
$DIMALTF
 40
25.399999999999999
  9
$DIMLFAC
 40
1.0
  9
$DIMTOFL
 70
     0
  9
$DIMTVP
 40
1.6000000000000001
  9
$DIMTIX
 70
     1
  9
$DIMSOXD
 70
     0
  9
$DIMSAH
 70
     0
  9
$DIMBLK1
  1

  9
$DIMBLK2
  1

  9
$DIMSTYLE
  2
STANDARD
  9
$DIMCLRD
 70
     0
  9
$DIMCLRE
 70
     0
  9
$DIMCLRT
 70
     0
  9
$DIMTFAC
 40
1.0
  9
$DIMGAP
 40
0.09
  9
$LUNITS
 70
     2
  9
$LUPREC
 70
     4
  9
$SKETCHINC
 40
0.1
  9
$FILLETRAD
 40
1.25
  9
$AUNITS
 70
     0
  9
$AUPREC
 70
     0
  9
$MENU
  1
E:\r13\win\SUPPORT\ACAD
  9
$ELEVATION
 40
0.0
  9
$PELEVATION
 40
0.0
  9
$THICKNESS
 40
0.0
  9
$LIMCHECK
 70
     0
  9
$BLIPMODE
 70
     0
  9
$CHAMFERA
 40
0.0
  9
$CHAMFERB
 40
0.0
  9
$SKPOLY
 70
     0
  9
$TDCREATE
 40
2449840.6143865739
  9
$TDUPDATE
 40
2456598.6596790631
  9
$TDINDWG
 40
0.2520498264
  9
$TDUSRTIMER
 40
0.2520498264
  9
$USRTIMER
 70
     1
  9
$ANGBASE
 50
0.0
  9
$ANGDIR
 70
     0
  9
$PDMODE
 70
     0
  9
$PDSIZE
 40
0.0
  9
$PLINEWID
 40
0.0
  9
$COORDS
 70
     1
  9
$SPLFRAME
 70
     0
  9
$SPLINETYPE
 70
     6
  9
$SPLINESEGS
 70
     8
  9
$ATTDIA
 70
     0
  9
$ATTREQ
 70
     1
  9
$HANDLING
 70
     1
  9
$HANDSEED
  5
1823
  9
$SURFTAB1
 70
     6
  9
$SURFTAB2
 70
     6
  9
$SURFTYPE
 70
     6
  9
$SURFU
 70
     6
  9
$SURFV
 70
     6
  9
$UCSNAME
  2

  9
$UCSORG
 10
0.0
 20
0.0
 30
0.0
  9
$UCSXDIR
 10
1.0
 20
0.0
 30
0.0
  9
$UCSYDIR
 10
0.0
 20
1.0
 30
0.0
  9
$PUCSNAME
  2

  9
$PUCSORG
 10
0.0
 20
0.0
 30
0.0
  9
$PUCSXDIR
 10
1.0
 20
0.0
 30
0.0
  9
$PUCSYDIR
 10
0.0
 20
1.0
 30
0.0
  9
$USERI1
 70
     0
  9
$USERI2
 70
     1
  9
$USERI3
 70
     1
  9
$USERI4
 70
     0
  9
$USERI5
 70
     0
  9
$USERR1
 40
0.0
  9
$USERR2
 40
0.0
  9
$USERR3
 40
0.0
  9
$USERR4
 40
0.0
  9
$USERR5
 40
0.0
  9
$WORLDVIEW
 70
     1
  9
$SHADEDGE
 70
     3
  9
$SHADEDIF
 70
    70
  9
$TILEMODE
 70
     1
  9
$MAXACTVP
 70
    16
  9
$PLIMCHECK
 70
     0
  9
$PEXTMIN
 10
1.0000000000000000E+020
 20
1.0000000000000000E+020
 30
1.0000000000000000E+020
  9
$PEXTMAX
 10
-1.0000000000000000E+020
 20
-1.0000000000000000E+020
 30
-1.0000000000000000E+020
  9
$PLIMMIN
 10
0.0
 20
0.0
  9
$PLIMMAX
 10
12.0
 20
9.0
  9
$UNITMODE
 70
     0
  9
$VISRETAIN
 70
     0
  9
$PLINEGEN
 70
     0
  9
$PSLTSCALE
 70
     0
  0
ENDSEC
  0
SECTION
  2
TABLES
  0
TABLE
  2
VPORT
 70
     1
  0
VPORT
  2
*ACTIVE
 70
     0
 10
0.0
 20
0.0
 11
1.0
 21
1.0
 12
220.63900535958811
 22
242.00644847551581
 13
0.0
 23
0.0
 14
5.0
 24
5.0
 15
5.0
 25
5.0
 16
0.0
 26
0.0
 36
1.0
 17
0.0
 27
0.0
 37
0.0
 40
494.27471679335878
 41
1.7807262569832401
 42
50.0
 43
0.0
 44
0.0
 50
0.0
 51
0.0
 71
     0
 72
   100
 73
     1
 74
     0
 75
     0
 76
     0
 77
     0
 78
     0
  0
ENDTAB
  0
TABLE
  2
LTYPE
 70
     3
  0
LTYPE
  2
CONTINUOUS
 70
     0
  3
Solid Line
 72
    65
 73
     0
 40
0.0
  0
LTYPE
  2
CENTER
 70
     0
  3
____ _ ____ _ ____ _ ____ _ ____ _ ____ _ ____
 72
    65
 73
     4
 40
2.0
 49
1.25
 49
-0.25
 49
0.25
 49
-0.25
  0
LTYPE
  2
PHANTOM2
 70
     0
  3
___ _ _ ___ _ _ ___ _ _ ___ _ _
 72
    65
 73
     6
 40
1.25
 49
0.625
 49
-0.125
 49
0.125
 49
-0.125
 49
0.125
 49
-0.125
  0
ENDTAB
  0
TABLE
  2
LAYER
 70
     3
  0
LAYER
  2
0
 70
     0
 62
     7
  6
CONTINUOUS
  0
LAYER
  2
1
 70
     0
 62
     1
  6
CENTER
  0
LAYER
  2
3
 70
     0
 62
     3
  6
CONTINUOUS
  0
ENDTAB
  0
TABLE
  2
STYLE
 70
     2
  0
STYLE
  2
STANDARD
 70
     0
 40
0.0
 41
1.0
 50
0.0
 71
     0
 42
4.0
  3
TXT
  4
BIGFONT
  0
STYLE
  2
STANDARD1
 70
     0
 40
0.0
 41
1.0
 50
0.0
 71
     0
 42
3.0
  3
txt
  4

  0
ENDTAB
  0
TABLE
  2
VIEW
 70
     1
  0
VIEW
  2
ALL
 70
     0
 40
179.66152299999999
 10
141.903918
 20
89.830760999999995
 41
0.0
 11
0.0
 21
0.0
 31
1.0
 12
0.0
 22
0.0
 32
0.0
 42
0.0
 43
0.0
 44
0.0
 50
0.0
 71
     0
  0
ENDTAB
  0
TABLE
  2
UCS
 70
     0
  0
ENDTAB
  0
TABLE
  2
APPID
 70
     4
  0
APPID
  2
ACAD
 70
     0
  0
APPID
  2
DCO15
 70
     0
  0
APPID
  2
ACAD_MLEADERVER
 70
     0
  0
APPID
  2
ACAD_NAV_VCDISPLAY
 70
     0
  0
ENDTAB
  0
TABLE
  2
DIMSTYLE
 70
     1
  0
DIMSTYLE
  2
STANDARD
 70
     0
  3

  4

  5

  6

  7

 40
1.0
 41
0.18
 42
0.0625
 43
0.38
 44
0.18
 45
0.0
 46
0.0
 47
0.0
 48
0.0
140
0.18
141
0.09
142
0.0
143
25.399999999999999
144
1.0
145
0.0
146
1.0
147
0.09
 71
     0
 72
     0
 73
     1
 74
     1
 75
     0
 76
     0
 77
     0
 78
     0
170
     0
171
     2
172
     0
173
     0
174
     0
175
     0
176
     0
177
     0
178
     0
  0
ENDTAB
  0
ENDSEC
  0
SECTION
  2
BLOCKS
  0
BLOCK
  8
0
  2
$MODEL_SPACE
 70
     0
 10
0.0
 20
0.0
 30
0.0
  3
$MODEL_SPACE
  1

  0
ENDBLK
  5
1BD
  8
0
  0
BLOCK
 67
     1
  8
0
  2
$PAPER_SPACE
 70
     0
 10
0.0
 20
0.0
 30
0.0
  3
$PAPER_SPACE
  1

  0
ENDBLK
  5
1BB
 67
     1
  8
0
  0
ENDSEC
  0
SECTION
  2
ENTITIES
  0
LINE
  5
11FE
  8
0
 10
229.96260149911609
 20
242.22906710372229
 30
0.0
 11
229.96260149911609
 21
220.8053605178936
 31
0.0
  0
LINE
  5
11FF
  8
0
 10
256.96260149911609
 20
220.8053605178936
 30
0.0
 11
256.96260149911609
 21
237.80536051789349
 31
0.0
  0
LINE
  5
1200
  8
0
 10
324.67755536839832
 20
259.77536051789349
 30
0.0
 11
315.81556358971761
 21
259.77536051789349
 31
0.0
  0
LINE
  5
1201
  8
0
 10
331.42855185630663
 20
261.2172139862621
 30
0.0
 11
329.43960784749328
 21
260.55133660810122
 31
0.0
  0
LINE
  5
1202
  8
0
 10
256.96260149911609
 20
220.8053605178936
 30
0.0
 11
229.96260149911609
 21
220.8053605178936
 31
0.0
  0
LINE
  5
1203
  8
1
 10
243.46260149911609
 20
258.80536051789352
 30
0.0
 11
243.46260149911609
 21
155.8053605178936
 31
0.0
  0
LINE
  5
1205
  8
0
 10
252.97260149911611
 20
210.8053605178936
 30
0.0
 11
252.97260149911611
 21
220.8053605178936
 31
0.0
  0
LINE
  5
1206
  8
0
 10
233.97260149911611
 20
220.8053605178936
 30
0.0
 11
233.97260149911611
 21
210.8053605178936
 31
0.0
  0
LINE
  5
1208
  8
0
 10
233.97260149911611
 20
210.8053605178936
 30
0.0
 11
252.97260149911611
 21
210.8053605178936
 31
0.0
  0
LINE
  5
1216
  8
0
 10
334.34017957332878
 20
273.80536051789352
 30
0.0
 11
334.47260149911602
 21
273.80536051789358
 31
0.0
  0
LINE
  5
1217
  8
0
 10
338.47260149911608
 20
269.80536051789358
 30
0.0
 11
338.47260149911608
 21
268.96642430942558
 31
0.0
  0
ARC
  5
1218
  8
0
 10
235.96260149911609
 20
242.22906710372229
 30
0.0
 40
6.0
 50
114.1848432038958
 51
180.0
  0
ARC
  5
1219
  8
0
 10
360.50584769206819
 20
-35.088404087188678
 30
0.0
 40
310.0
 50
94.841832834640755
 51
114.18484320389619
  0
ARC
  5
121A
  8
0
 10
334.47260149911608
 20
269.80536051789358
 30
0.0
 40
4.0
 50
0.0
 51
90.0
  0
ARC
  5
121B
  8
0
 10
390.18911105675221
 20
-19.779210694344439
 30
0.0
 40
290.0
 50
105.9892849829359
 51
117.3485107169774
  0
ARC
  5
121C
  8
0
 10
315.81556358971761
 20
239.7753605178936
 30
0.0
 40
20.0
 50
90.0
 51
105.9892849829359
  0
ARC
  5
121D
  8
0
 10
324.67755536839832
 20
274.77536051789349
 30
0.0
 40
15.0
 50
270.0
 51
288.50999999999942
  0
ARC
  5
121E
  8
0
 10
328.8532330546999
 20
270.87991200855862
 30
0.0
 40
10.0
 50
284.92366289757967
 51
337.4991251017791
  0
ARC
  5
121F
  8
0
 10
333.47260149911608
 20
268.96642430942558
 30
0.0
 40
5.0
 50
337.4991251017791
 51
0.0
  0
LINE
  5
1220
  8
0
 10
229.9526014991161
 20
351.62785115745902
 30
0.0
 11
229.9526014991161
 21
356.7434742866584
 31
0.0
  0
LINE
  5
122D
  8
1
 10
243.46260149911609
 20
372.93566272205879
 30
0.0
 11
243.46260149911609
 21
335.43566272205879
 31
0.0
  0
LINE
  5
122E
  8
1
 10
343.46260149911609
 20
354.18566272205879
 30
0.0
 11
224.712601499116
 21
354.18566272205879
 31
0.0
  0
ARC
  5
122F
  8
0
 10
331.96260149911609
 20
354.18566272205879
 30
0.0
 40
6.5
 50
270.0
 51
90.0
  0
ARC
  5
1230
  8
0
 10
243.46260149911609
 20
354.18566272205879
 30
0.0
 40
13.75
 50
190.72076149353649
 51
312.917560328555
  0
CIRCLE
  5
1232
  8
0
 10
244.73645154251611
 20
354.18545483284157
 30
0.0
 40
8.8183418569113723
  0
ARC
  5
1233
  8
0
 10
272.68166751090411
 20
420.8744829552316
 30
0.0
 40
60.0
 50
250.67449694773779
 51
281.65751361817053
  0
LINE
  5
1234
  8
0
 10
331.96260149911609
 20
360.68566272205868
 30
0.0
 11
287.18889461062872
 21
362.311790236251
 31
0.0
  0
ARC
  5
1235
  8
0
 10
286.82594585997299
 20
352.31837899661929
 30
0.0
 40
10.0
 50
87.919999999999831
 51
101.6575136181721
  0
ARC
  5
1236
  8
0
 10
272.68166751090411
 20
287.49684248888582
 30
0.0
 40
60.0
 50
78.34248638182946
 51
109.32550305226221
  0
LINE
  5
1237
  8
0
 10
331.96260149911609
 20
347.68566272205879
 30
0.0
 11
287.18889461062872
 21
346.05953520786647
 31
0.0
  0
ARC
  5
1238
  8
0
 10
286.82594585997299
 20
356.05294644749807
 30
0.0
 40
10.0
 50
258.34248638182788
 51
272.0800000000001
  0
ARC
  5
1239
  8
0
 10
243.46260149911609
 20
354.18566272205879
 30
0.0
 40
13.75
 50
47.08243967144503
 51
169.27923850646351
  0
LINE
  5
123A
  8
1
 10
343.46260149911609
 20
80.881372164038495
 30
0.0
 11
224.712601499116
 21
80.881372164038396
 31
0.0
  0
ARC
  5
123B
  8
0
 10
272.68166751090411
 20
14.19255193086553
 30
0.0
 40
60.0
 50
78.34248638182946
 51
109.32550305226221
  0
ARC
  5
123C
  8
0
 10
272.68166751090411
 20
147.57019239721129
 30
0.0
 40
60.0
 50
250.67449694773779
 51
281.65751361817053
  0
LINE
  5
123D
  8
1
 10
243.46260149911609
 20
99.631372164038453
 30
0.0
 11
243.46260149911609
 21
62.131372164038503
 31
0.0
  0
ARC
  5
123E
  8
0
 10
243.46260149911609
 20
80.881372164038495
 30
0.0
 40
13.75
 50
190.72076149353649
 51
312.917560328555
  0
ARC
  5
123F
  8
0
 10
243.46260149911609
 20
80.881372164038495
 30
0.0
 40
13.75
 50
47.08243967144503
 51
169.27923850646351
  0
LINE
  5
1240
  8
0
 10
229.9526014991161
 20
78.323560599438736
 30
0.0
 11
229.9526014991161
 21
83.439183728638156
 31
0.0
  0
LINE
  5
1241
  8
0
 10
331.96260149911609
 20
74.38137216403851
 30
0.0
 11
287.18889461062872
 21
72.755244649846134
 31
0.0
  0
LINE
  5
1242
  8
0
 10
331.96260149911609
 20
87.381372164038453
 30
0.0
 11
287.18889461062872
 21
89.007499678230772
 31
0.0
  0
ARC
  5
1243
  8
0
 10
286.82594585997299
 20
82.748655889477902
 30
0.0
 40
10.0
 50
258.34248638182788
 51
272.0800000000001
  0
ARC
  5
1244
  8
0
 10
286.82594585997299
 20
79.01408843859906
 30
0.0
 40
10.0
 50
87.919999999999831
 51
101.6575136181721
  0
ARC
  5
1245
  8
0
 10
331.96260149911609
 20
80.881372164038453
 30
0.0
 40
6.5
 50
270.0
 51
90.0
  0
CIRCLE
  5
1246
  8
0
 10
243.46260149911609
 20
80.881372164038495
 30
0.0
 40
13.5
  0
CIRCLE
  5
1247
  8
0
 10
243.46260149911609
 20
80.881372164038495
 30
0.0
 40
9.5
  0
CIRCLE
  5
1248
  8
3
 10
243.46260149911609
 20
80.881372164038396
 30
0.0
 40
5.0
  0
CIRCLE
  5
1249
  8
0
 10
243.46260149911609
 20
80.881372164038396
 30
0.0
 40
6.0
  0
LINE
  5
124C
  8
0
 10
141.62709598900321
 20
210.8053605178936
 30
0.0
 11
141.62709598900321
 21
220.8053605178936
 31
0.0
  0
LINE
  5
124D
  8
0
 10
122.62709598900319
 20
220.8053605178936
 30
0.0
 11
122.62709598900319
 21
210.8053605178936
 31
0.0
  0
LINE
  5
124F
  8
0
 10
122.62709598900319
 20
210.8053605178936
 30
0.0
 11
141.62709598900321
 21
210.8053605178936
 31
0.0
  0
LINE
  5
1250
  8
0
 10
138.2213562815526
 20
273.80536051789352
 30
0.0
 11
126.0328356964537
 21
273.80536051789358
 31
0.0
  0
LINE
  5
1251
  8
0
 10
118.62709598900319
 20
237.8053605178936
 30
0.0
 11
118.62709598900319
 21
220.8053605178936
 31
0.0
  0
LINE
  5
1252
  8
0
 10
145.62709598900321
 20
220.8053605178936
 30
0.0
 11
118.62709598900319
 21
220.8053605178936
 31
0.0
  0
LINE
  5
1253
  8
1
 10
132.12709598900321
 20
278.80536051789352
 30
0.0
 11
132.12709598900321
 21
155.8053605178936
 31
0.0
  0
LINE
  5
1254
  8
0
 10
133.61695252357151
 20
248.97309839000371
 30
0.0
 11
130.6372394544349
 21
248.97309839000371
 31
0.0
  0
POLYLINE
  5
1255
  8
0
 10
133.61695252357151
 20
248.97309839000363
 30
0.0
 66
     1
 70
     8
  0
VERTEX
  8
0
  5
1517
 10
133.617
 20
248.973
 30
0.000000
  70
    32
  0
VERTEX
  8
0
  5
1518
 10
134.017
 20
249.003
 30
0.000000
  70
    32
  0
VERTEX
  8
0
  5
1519
 10
134.413
 20
249.041
 30
0.000000
  70
    32
  0
VERTEX
  8
0
  5
151A
 10
134.804
 20
249.085
 30
0.000000
  70
    32
  0
VERTEX
  8
0
  5
151B
 10
135.189
 20
249.136
 30
0.000000
  70
    32
  0
VERTEX
  8
0
  5
151C
 10
135.568
 20
249.194
 30
0.000000
  70
    32
  0
VERTEX
  8
0
  5
151D
 10
135.939
 20
249.259
 30
0.000000
  70
    32
  0
VERTEX
  8
0
  5
151E
 10
136.302
 20
249.331
 30
0.000000
  70
    32
  0
VERTEX
  8
0
  5
151F
 10
136.656
 20
249.409
 30
0.000000
  70
    32
  0
VERTEX
  8
0
  5
1520
 10
137.000
 20
249.493
 30
0.000000
  70
    32
  0
VERTEX
  8
0
  5
1521
 10
137.334
 20
249.583
 30
0.000000
  70
    32
  0
VERTEX
  8
0
  5
1522
 10
137.657
 20
249.679
 30
0.000000
  70
    32
  0
VERTEX
  8
0
  5
1523
 10
137.967
 20
249.780
 30
0.000000
  70
    32
  0
VERTEX
  8
0
  5
1524
 10
138.265
 20
249.888
 30
0.000000
  70
    32
  0
VERTEX
  8
0
  5
1525
 10
138.550
 20
250.000
 30
0.000000
  70
    32
  0
VERTEX
  8
0
  5
1526
 10
138.821
 20
250.117
 30
0.000000
  70
    32
  0
VERTEX
  8
0
  5
1527
 10
139.078
 20
250.239
 30
0.000000
  70
    32
  0
VERTEX
  8
0
  5
1528
 10
139.319
 20
250.366
 30
0.000000
  70
    32
  0
VERTEX
  8
0
  5
1529
 10
139.546
 20
250.496
 30
0.000000
  70
    32
  0
VERTEX
  8
0
  5
152A
 10
139.756
 20
250.631
 30
0.000000
  70
    32
  0
VERTEX
  8
0
  5
152B
 10
139.949
 20
250.769
 30
0.000000
  70
    32
  0
VERTEX
  8
0
  5
152C
 10
140.126
 20
250.911
 30
0.000000
  70
    32
  0
VERTEX
  8
0
  5
152D
 10
140.286
 20
251.055
 30
0.000000
  70
    32
  0
VERTEX
  8
0
  5
152E
 10
140.428
 20
251.202
 30
0.000000
  70
    32
  0
VERTEX
  8
0
  5
152F
 10
140.552
 20
251.352
 30
0.000000
  70
    32
  0
VERTEX
  8
0
  5
1530
 10
140.658
 20
251.503
 30
0.000000
  70
    32
  0
VERTEX
  8
0
  5
1531
 10
140.745
 20
251.657
 30
0.000000
  70
    32
  0
VERTEX
  8
0
  5
1532
 10
140.814
 20
251.811
 30
0.000000
  70
    32
  0
VERTEX
  8
0
  5
1533
 10
140.865
 20
251.967
 30
0.000000
  70
    32
  0
VERTEX
  8
0
  5
1534
 10
140.896
 20
252.124
 30
0.000000
  70
    32
  0
VERTEX
  8
0
  5
1535
 10
140.909
 20
252.281
 30
0.000000
  70
    32
  0
VERTEX
  8
0
  5
1536
 10
140.902
 20
252.438
 30
0.000000
  70
    32
  0
VERTEX
  8
0
  5
1537
 10
140.877
 20
252.594
 30
0.000000
  70
    32
  0
VERTEX
  8
0
  5
1538
 10
140.833
 20
252.751
 30
0.000000
  70
    32
  0
VERTEX
  8
0
  5
1539
 10
140.770
 20
252.906
 30
0.000000
  70
    32
  0
VERTEX
  8
0
  5
153A
 10
140.689
 20
253.059
 30
0.000000
  70
    32
  0
VERTEX
  8
0
  5
153B
 10
140.589
 20
253.212
 30
0.000000
  70
    32
  0
VERTEX
  8
0
  5
153C
 10
140.470
 20
253.362
 30
0.000000
  70
    32
  0
VERTEX
  8
0
  5
153D
 10
140.334
 20
253.510
 30
0.000000
  70
    32
  0
VERTEX
  8
0
  5
153E
 10
140.180
 20
253.655
 30
0.000000
  70
    32
  0
VERTEX
  8
0
  5
153F
 10
140.009
 20
253.798
 30
0.000000
  70
    32
  0
VERTEX
  8
0
  5
1540
 10
139.821
 20
253.937
 30
0.000000
  70
    32
  0
VERTEX
  8
0
  5
1541
 10
139.616
 20
254.073
 30
0.000000
  70
    32
  0
VERTEX
  8
0
  5
1542
 10
139.395
 20
254.205
 30
0.000000
  70
    32
  0
VERTEX
  8
0
  5
1543
 10
139.159
 20
254.333
 30
0.000000
  70
    32
  0
VERTEX
  8
0
  5
1544
 10
138.907
 20
254.456
 30
0.000000
  70
    32
  0
VERTEX
  8
0
  5
1545
 10
138.641
 20
254.575
 30
0.000000
  70
    32
  0
VERTEX
  8
0
  5
1546
 10
138.360
 20
254.689
 30
0.000000
  70
    32
  0
VERTEX
  8
0
  5
1547
 10
138.067
 20
254.798
 30
0.000000
  70
    32
  0
VERTEX
  8
0
  5
1548
 10
137.760
 20
254.901
 30
0.000000
  70
    32
  0
VERTEX
  8
0
  5
1549
 10
137.441
 20
254.999
 30
0.000000
  70
    32
  0
VERTEX
  8
0
  5
154A
 10
137.111
 20
255.091
 30
0.000000
  70
    32
  0
VERTEX
  8
0
  5
154B
 10
136.770
 20
255.177
 30
0.000000
  70
    32
  0
VERTEX
  8
0
  5
154C
 10
136.419
 20
255.257
 30
0.000000
  70
    32
  0
VERTEX
  8
0
  5
154D
 10
136.059
 20
255.331
 30
0.000000
  70
    32
  0
VERTEX
  8
0
  5
154E
 10
135.690
 20
255.398
 30
0.000000
  70
    32
  0
VERTEX
  8
0
  5
154F
 10
135.314
 20
255.458
 30
0.000000
  70
    32
  0
VERTEX
  8
0
  5
1550
 10
134.931
 20
255.512
 30
0.000000
  70
    32
  0
VERTEX
  8
0
  5
1551
 10
134.542
 20
255.558
 30
0.000000
  70
    32
  0
VERTEX
  8
0
  5
1552
 10
134.147
 20
255.598
 30
0.000000
  70
    32
  0
VERTEX
  8
0
  5
1553
 10
133.748
 20
255.631
 30
0.000000
  70
    32
  0
VERTEX
  8
0
  5
1554
 10
133.346
 20
255.656
 30
0.000000
  70
    32
  0
VERTEX
  8
0
  5
1555
 10
132.941
 20
255.674
 30
0.000000
  70
    32
  0
VERTEX
  8
0
  5
1556
 10
132.535
 20
255.685
 30
0.000000
  70
    32
  0
VERTEX
  8
0
  5
1557
 10
132.127
 20
255.689
 30
0.000000
  70
    32
  0
VERTEX
  8
0
  5
1558
 10
131.720
 20
255.685
 30
0.000000
  70
    32
  0
VERTEX
  8
0
  5
1559
 10
131.313
 20
255.674
 30
0.000000
  70
    32
  0
VERTEX
  8
0
  5
155A
 10
130.908
 20
255.656
 30
0.000000
  70
    32
  0
VERTEX
  8
0
  5
155B
 10
130.506
 20
255.631
 30
0.000000
  70
    32
  0
VERTEX
  8
0
  5
155C
 10
130.107
 20
255.598
 30
0.000000
  70
    32
  0
VERTEX
  8
0
  5
155D
 10
129.713
 20
255.558
 30
0.000000
  70
    32
  0
VERTEX
  8
0
  5
155E
 10
129.323
 20
255.512
 30
0.000000
  70
    32
  0
VERTEX
  8
0
  5
155F
 10
128.940
 20
255.458
 30
0.000000
  70
    32
  0
VERTEX
  8
0
  5
1560
 10
128.564
 20
255.398
 30
0.000000
  70
    32
  0
VERTEX
  8
0
  5
1561
 10
128.195
 20
255.331
 30
0.000000
  70
    32
  0
VERTEX
  8
0
  5
1562
 10
127.835
 20
255.257
 30
0.000000
  70
    32
  0
VERTEX
  8
0
  5
1563
 10
127.484
 20
255.177
 30
0.000000
  70
    32
  0
VERTEX
  8
0
  5
1564
 10
127.143
 20
255.091
 30
0.000000
  70
    32
  0
VERTEX
  8
0
  5
1565
 10
126.813
 20
254.999
 30
0.000000
  70
    32
  0
VERTEX
  8
0
  5
1566
 10
126.494
 20
254.901
 30
0.000000
  70
    32
  0
VERTEX
  8
0
  5
1567
 10
126.188
 20
254.798
 30
0.000000
  70
    32
  0
VERTEX
  8
0
  5
1568
 10
125.894
 20
254.689
 30
0.000000
  70
    32
  0
VERTEX
  8
0
  5
1569
 10
125.613
 20
254.575
 30
0.000000
  70
    32
  0
VERTEX
  8
0
  5
156A
 10
125.347
 20
254.456
 30
0.000000
  70
    32
  0
VERTEX
  8
0
  5
156B
 10
125.095
 20
254.333
 30
0.000000
  70
    32
  0
VERTEX
  8
0
  5
156C
 10
124.859
 20
254.205
 30
0.000000
  70
    32
  0
VERTEX
  8
0
  5
156D
 10
124.638
 20
254.073
 30
0.000000
  70
    32
  0
VERTEX
  8
0
  5
156E
 10
124.433
 20
253.937
 30
0.000000
  70
    32
  0
VERTEX
  8
0
  5
156F
 10
124.245
 20
253.798
 30
0.000000
  70
    32
  0
VERTEX
  8
0
  5
1570
 10
124.074
 20
253.655
 30
0.000000
  70
    32
  0
VERTEX
  8
0
  5
1571
 10
123.920
 20
253.510
 30
0.000000
  70
    32
  0
VERTEX
  8
0
  5
1572
 10
123.784
 20
253.362
 30
0.000000
  70
    32
  0
VERTEX
  8
0
  5
1573
 10
123.666
 20
253.212
 30
0.000000
  70
    32
  0
VERTEX
  8
0
  5
1574
 10
123.566
 20
253.059
 30
0.000000
  70
    32
  0
VERTEX
  8
0
  5
1575
 10
123.484
 20
252.906
 30
0.000000
  70
    32
  0
VERTEX
  8
0
  5
1576
 10
123.421
 20
252.751
 30
0.000000
  70
    32
  0
VERTEX
  8
0
  5
1577
 10
123.377
 20
252.594
 30
0.000000
  70
    32
  0
VERTEX
  8
0
  5
1578
 10
123.352
 20
252.438
 30
0.000000
  70
    32
  0
VERTEX
  8
0
  5
1579
 10
123.346
 20
252.281
 30
0.000000
  70
    32
  0
VERTEX
  8
0
  5
157A
 10
123.358
 20
252.124
 30
0.000000
  70
    32
  0
VERTEX
  8
0
  5
157B
 10
123.390
 20
251.967
 30
0.000000
  70
    32
  0
VERTEX
  8
0
  5
157C
 10
123.440
 20
251.811
 30
0.000000
  70
    32
  0
VERTEX
  8
0
  5
157D
 10
123.509
 20
251.657
 30
0.000000
  70
    32
  0
VERTEX
  8
0
  5
157E
 10
123.596
 20
251.503
 30
0.000000
  70
    32
  0
VERTEX
  8
0
  5
157F
 10
123.702
 20
251.352
 30
0.000000
  70
    32
  0
VERTEX
  8
0
  5
1580
 10
123.826
 20
251.202
 30
0.000000
  70
    32
  0
VERTEX
  8
0
  5
1581
 10
123.968
 20
251.055
 30
0.000000
  70
    32
  0
VERTEX
  8
0
  5
1582
 10
124.128
 20
250.911
 30
0.000000
  70
    32
  0
VERTEX
  8
0
  5
1583
 10
124.305
 20
250.769
 30
0.000000
  70
    32
  0
VERTEX
  8
0
  5
1584
 10
124.499
 20
250.631
 30
0.000000
  70
    32
  0
VERTEX
  8
0
  5
1585
 10
124.709
 20
250.496
 30
0.000000
  70
    32
  0
VERTEX
  8
0
  5
1586
 10
124.935
 20
250.366
 30
0.000000
  70
    32
  0
VERTEX
  8
0
  5
1587
 10
125.176
 20
250.239
 30
0.000000
  70
    32
  0
VERTEX
  8
0
  5
1588
 10
125.433
 20
250.117
 30
0.000000
  70
    32
  0
VERTEX
  8
0
  5
1589
 10
125.704
 20
250.000
 30
0.000000
  70
    32
  0
VERTEX
  8
0
  5
158A
 10
125.989
 20
249.888
 30
0.000000
  70
    32
  0
VERTEX
  8
0
  5
158B
 10
126.287
 20
249.780
 30
0.000000
  70
    32
  0
VERTEX
  8
0
  5
158C
 10
126.597
 20
249.679
 30
0.000000
  70
    32
  0
VERTEX
  8
0
  5
158D
 10
126.920
 20
249.583
 30
0.000000
  70
    32
  0
VERTEX
  8
0
  5
158E
 10
127.254
 20
249.493
 30
0.000000
  70
    32
  0
VERTEX
  8
0
  5
158F
 10
127.598
 20
249.409
 30
0.000000
  70
    32
  0
VERTEX
  8
0
  5
1590
 10
127.952
 20
249.331
 30
0.000000
  70
    32
  0
VERTEX
  8
0
  5
1591
 10
128.315
 20
249.259
 30
0.000000
  70
    32
  0
VERTEX
  8
0
  5
1592
 10
128.686
 20
249.194
 30
0.000000
  70
    32
  0
VERTEX
  8
0
  5
1593
 10
129.065
 20
249.136
 30
0.000000
  70
    32
  0
VERTEX
  8
0
  5
1594
 10
129.450
 20
249.085
 30
0.000000
  70
    32
  0
VERTEX
  8
0
  5
1595
 10
129.841
 20
249.041
 30
0.000000
  70
    32
  0
VERTEX
  8
0
  5
1596
 10
130.237
 20
249.003
 30
0.000000
  70
    32
  0
VERTEX
  8
0
  5
1597
 10
130.637
 20
248.973
 30
0.000000
  70
    32
  0
SEQEND
  8
0
  5
1598
  0
POLYLINE
  5
1256
  8
0
 10
145.87709598900321
 20
252.3064589581461
 30
0.0
 66
     1
 70
     8
  0
VERTEX
  8
0
  5
1599
 10
145.877
 20
252.306
 30
0.000000
  70
    32
  0
VERTEX
  8
0
  5
159A
 10
145.877
 20
252.332
 30
0.000000
  70
    32
  0
VERTEX
  8
0
  5
159B
 10
145.876
 20
252.357
 30
0.000000
  70
    32
  0
VERTEX
  8
0
  5
159C
 10
145.875
 20
252.383
 30
0.000000
  70
    32
  0
VERTEX
  8
0
  5
159D
 10
145.874
 20
252.408
 30
0.000000
  70
    32
  0
VERTEX
  8
0
  5
159E
 10
145.871
 20
252.434
 30
0.000000
  70
    32
  0
VERTEX
  8
0
  5
159F
 10
145.869
 20
252.459
 30
0.000000
  70
    32
  0
VERTEX
  8
0
  5
15A0
 10
145.866
 20
252.485
 30
0.000000
  70
    32
  0
VERTEX
  8
0
  5
15A1
 10
145.863
 20
252.510
 30
0.000000
  70
    32
  0
VERTEX
  8
0
  5
15A2
 10
145.859
 20
252.535
 30
0.000000
  70
    32
  0
VERTEX
  8
0
  5
15A3
 10
145.855
 20
252.561
 30
0.000000
  70
    32
  0
VERTEX
  8
0
  5
15A4
 10
145.850
 20
252.586
 30
0.000000
  70
    32
  0
VERTEX
  8
0
  5
15A5
 10
145.845
 20
252.612
 30
0.000000
  70
    32
  0
VERTEX
  8
0
  5
15A6
 10
145.839
 20
252.637
 30
0.000000
  70
    32
  0
VERTEX
  8
0
  5
15A7
 10
145.833
 20
252.662
 30
0.000000
  70
    32
  0
VERTEX
  8
0
  5
15A8
 10
145.827
 20
252.688
 30
0.000000
  70
    32
  0
VERTEX
  8
0
  5
15A9
 10
145.820
 20
252.713
 30
0.000000
  70
    32
  0
VERTEX
  8
0
  5
15AA
 10
145.812
 20
252.738
 30
0.000000
  70
    32
  0
VERTEX
  8
0
  5
15AB
 10
145.804
 20
252.764
 30
0.000000
  70
    32
  0
VERTEX
  8
0
  5
15AC
 10
145.796
 20
252.789
 30
0.000000
  70
    32
  0
VERTEX
  8
0
  5
15AD
 10
145.787
 20
252.814
 30
0.000000
  70
    32
  0
VERTEX
  8
0
  5
15AE
 10
145.778
 20
252.840
 30
0.000000
  70
    32
  0
VERTEX
  8
0
  5
15AF
 10
145.769
 20
252.865
 30
0.000000
  70
    32
  0
VERTEX
  8
0
  5
15B0
 10
145.758
 20
252.890
 30
0.000000
  70
    32
  0
VERTEX
  8
0
  5
15B1
 10
145.748
 20
252.915
 30
0.000000
  70
    32
  0
VERTEX
  8
0
  5
15B2
 10
145.737
 20
252.941
 30
0.000000
  70
    32
  0
VERTEX
  8
0
  5
15B3
 10
145.726
 20
252.966
 30
0.000000
  70
    32
  0
VERTEX
  8
0
  5
15B4
 10
145.714
 20
252.991
 30
0.000000
  70
    32
  0
VERTEX
  8
0
  5
15B5
 10
145.701
 20
253.016
 30
0.000000
  70
    32
  0
VERTEX
  8
0
  5
15B6
 10
145.689
 20
253.041
 30
0.000000
  70
    32
  0
VERTEX
  8
0
  5
15B7
 10
145.675
 20
253.066
 30
0.000000
  70
    32
  0
VERTEX
  8
0
  5
15B8
 10
145.662
 20
253.091
 30
0.000000
  70
    32
  0
VERTEX
  8
0
  5
15B9
 10
145.648
 20
253.116
 30
0.000000
  70
    32
  0
VERTEX
  8
0
  5
15BA
 10
145.633
 20
253.141
 30
0.000000
  70
    32
  0
VERTEX
  8
0
  5
15BB
 10
145.618
 20
253.166
 30
0.000000
  70
    32
  0
VERTEX
  8
0
  5
15BC
 10
145.603
 20
253.191
 30
0.000000
  70
    32
  0
VERTEX
  8
0
  5
15BD
 10
145.587
 20
253.216
 30
0.000000
  70
    32
  0
VERTEX
  8
0
  5
15BE
 10
145.571
 20
253.241
 30
0.000000
  70
    32
  0
VERTEX
  8
0
  5
15BF
 10
145.554
 20
253.266
 30
0.000000
  70
    32
  0
VERTEX
  8
0
  5
15C0
 10
145.537
 20
253.291
 30
0.000000
  70
    32
  0
VERTEX
  8
0
  5
15C1
 10
145.519
 20
253.316
 30
0.000000
  70
    32
  0
VERTEX
  8
0
  5
15C2
 10
145.501
 20
253.340
 30
0.000000
  70
    32
  0
VERTEX
  8
0
  5
15C3
 10
145.483
 20
253.365
 30
0.000000
  70
    32
  0
VERTEX
  8
0
  5
15C4
 10
145.464
 20
253.390
 30
0.000000
  70
    32
  0
VERTEX
  8
0
  5
15C5
 10
145.445
 20
253.415
 30
0.000000
  70
    32
  0
VERTEX
  8
0
  5
15C6
 10
145.425
 20
253.439
 30
0.000000
  70
    32
  0
VERTEX
  8
0
  5
15C7
 10
145.405
 20
253.464
 30
0.000000
  70
    32
  0
VERTEX
  8
0
  5
15C8
 10
145.384
 20
253.488
 30
0.000000
  70
    32
  0
VERTEX
  8
0
  5
15C9
 10
145.363
 20
253.513
 30
0.000000
  70
    32
  0
VERTEX
  8
0
  5
15CA
 10
145.341
 20
253.537
 30
0.000000
  70
    32
  0
VERTEX
  8
0
  5
15CB
 10
145.319
 20
253.562
 30
0.000000
  70
    32
  0
VERTEX
  8
0
  5
15CC
 10
145.297
 20
253.586
 30
0.000000
  70
    32
  0
VERTEX
  8
0
  5
15CD
 10
145.274
 20
253.610
 30
0.000000
  70
    32
  0
VERTEX
  8
0
  5
15CE
 10
145.251
 20
253.635
 30
0.000000
  70
    32
  0
VERTEX
  8
0
  5
15CF
 10
145.227
 20
253.659
 30
0.000000
  70
    32
  0
VERTEX
  8
0
  5
15D0
 10
145.203
 20
253.683
 30
0.000000
  70
    32
  0
VERTEX
  8
0
  5
15D1
 10
145.179
 20
253.707
 30
0.000000
  70
    32
  0
VERTEX
  8
0
  5
15D2
 10
145.154
 20
253.732
 30
0.000000
  70
    32
  0
VERTEX
  8
0
  5
15D3
 10
145.128
 20
253.756
 30
0.000000
  70
    32
  0
VERTEX
  8
0
  5
15D4
 10
145.103
 20
253.780
 30
0.000000
  70
    32
  0
VERTEX
  8
0
  5
15D5
 10
145.076
 20
253.804
 30
0.000000
  70
    32
  0
VERTEX
  8
0
  5
15D6
 10
145.050
 20
253.828
 30
0.000000
  70
    32
  0
VERTEX
  8
0
  5
15D7
 10
145.023
 20
253.852
 30
0.000000
  70
    32
  0
VERTEX
  8
0
  5
15D8
 10
144.995
 20
253.875
 30
0.000000
  70
    32
  0
VERTEX
  8
0
  5
15D9
 10
144.967
 20
253.899
 30
0.000000
  70
    32
  0
VERTEX
  8
0
  5
15DA
 10
144.939
 20
253.923
 30
0.000000
  70
    32
  0
VERTEX
  8
0
  5
15DB
 10
144.910
 20
253.947
 30
0.000000
  70
    32
  0
VERTEX
  8
0
  5
15DC
 10
144.881
 20
253.970
 30
0.000000
  70
    32
  0
VERTEX
  8
0
  5
15DD
 10
144.851
 20
253.994
 30
0.000000
  70
    32
  0
VERTEX
  8
0
  5
15DE
 10
144.821
 20
254.017
 30
0.000000
  70
    32
  0
VERTEX
  8
0
  5
15DF
 10
144.791
 20
254.041
 30
0.000000
  70
    32
  0
VERTEX
  8
0
  5
15E0
 10
144.760
 20
254.064
 30
0.000000
  70
    32
  0
VERTEX
  8
0
  5
15E1
 10
144.729
 20
254.088
 30
0.000000
  70
    32
  0
VERTEX
  8
0
  5
15E2
 10
144.697
 20
254.111
 30
0.000000
  70
    32
  0
VERTEX
  8
0
  5
15E3
 10
144.665
 20
254.134
 30
0.000000
  70
    32
  0
VERTEX
  8
0
  5
15E4
 10
144.633
 20
254.157
 30
0.000000
  70
    32
  0
VERTEX
  8
0
  5
15E5
 10
144.600
 20
254.180
 30
0.000000
  70
    32
  0
VERTEX
  8
0
  5
15E6
 10
144.567
 20
254.203
 30
0.000000
  70
    32
  0
VERTEX
  8
0
  5
15E7
 10
144.533
 20
254.226
 30
0.000000
  70
    32
  0
VERTEX
  8
0
  5
15E8
 10
144.499
 20
254.249
 30
0.000000
  70
    32
  0
VERTEX
  8
0
  5
15E9
 10
144.464
 20
254.272
 30
0.000000
  70
    32
  0
VERTEX
  8
0
  5
15EA
 10
144.429
 20
254.295
 30
0.000000
  70
    32
  0
VERTEX
  8
0
  5
15EB
 10
144.394
 20
254.318
 30
0.000000
  70
    32
  0
VERTEX
  8
0
  5
15EC
 10
144.358
 20
254.340
 30
0.000000
  70
    32
  0
VERTEX
  8
0
  5
15ED
 10
144.322
 20
254.363
 30
0.000000
  70
    32
  0
VERTEX
  8
0
  5
15EE
 10
144.286
 20
254.386
 30
0.000000
  70
    32
  0
VERTEX
  8
0
  5
15EF
 10
144.249
 20
254.408
 30
0.000000
  70
    32
  0
VERTEX
  8
0
  5
15F0
 10
144.212
 20
254.431
 30
0.000000
  70
    32
  0
VERTEX
  8
0
  5
15F1
 10
144.174
 20
254.453
 30
0.000000
  70
    32
  0
VERTEX
  8
0
  5
15F2
 10
144.136
 20
254.475
 30
0.000000
  70
    32
  0
VERTEX
  8
0
  5
15F3
 10
144.097
 20
254.497
 30
0.000000
  70
    32
  0
VERTEX
  8
0
  5
15F4
 10
144.059
 20
254.519
 30
0.000000
  70
    32
  0
VERTEX
  8
0
  5
15F5
 10
144.019
 20
254.541
 30
0.000000
  70
    32
  0
VERTEX
  8
0
  5
15F6
 10
143.980
 20
254.563
 30
0.000000
  70
    32
  0
VERTEX
  8
0
  5
15F7
 10
143.940
 20
254.585
 30
0.000000
  70
    32
  0
VERTEX
  8
0
  5
15F8
 10
143.899
 20
254.607
 30
0.000000
  70
    32
  0
VERTEX
  8
0
  5
15F9
 10
143.858
 20
254.629
 30
0.000000
  70
    32
  0
VERTEX
  8
0
  5
15FA
 10
143.817
 20
254.651
 30
0.000000
  70
    32
  0
VERTEX
  8
0
  5
15FB
 10
143.776
 20
254.672
 30
0.000000
  70
    32
  0
VERTEX
  8
0
  5
15FC
 10
143.734
 20
254.694
 30
0.000000
  70
    32
  0
VERTEX
  8
0
  5
15FD
 10
143.691
 20
254.715
 30
0.000000
  70
    32
  0
VERTEX
  8
0
  5
15FE
 10
143.649
 20
254.737
 30
0.000000
  70
    32
  0
VERTEX
  8
0
  5
15FF
 10
143.606
 20
254.758
 30
0.000000
  70
    32
  0
VERTEX
  8
0
  5
1600
 10
143.562
 20
254.779
 30
0.000000
  70
    32
  0
VERTEX
  8
0
  5
1601
 10
143.518
 20
254.800
 30
0.000000
  70
    32
  0
VERTEX
  8
0
  5
1602
 10
143.474
 20
254.821
 30
0.000000
  70
    32
  0
VERTEX
  8
0
  5
1603
 10
143.429
 20
254.842
 30
0.000000
  70
    32
  0
VERTEX
  8
0
  5
1604
 10
143.384
 20
254.863
 30
0.000000
  70
    32
  0
VERTEX
  8
0
  5
1605
 10
143.339
 20
254.884
 30
0.000000
  70
    32
  0
VERTEX
  8
0
  5
1606
 10
143.294
 20
254.905
 30
0.000000
  70
    32
  0
VERTEX
  8
0
  5
1607
 10
143.247
 20
254.925
 30
0.000000
  70
    32
  0
VERTEX
  8
0
  5
1608
 10
143.201
 20
254.946
 30
0.000000
  70
    32
  0
VERTEX
  8
0
  5
1609
 10
143.154
 20
254.966
 30
0.000000
  70
    32
  0
VERTEX
  8
0
  5
160A
 10
143.107
 20
254.987
 30
0.000000
  70
    32
  0
VERTEX
  8
0
  5
160B
 10
143.060
 20
255.007
 30
0.000000
  70
    32
  0
VERTEX
  8
0
  5
160C
 10
143.012
 20
255.027
 30
0.000000
  70
    32
  0
VERTEX
  8
0
  5
160D
 10
142.964
 20
255.047
 30
0.000000
  70
    32
  0
VERTEX
  8
0
  5
160E
 10
142.915
 20
255.067
 30
0.000000
  70
    32
  0
VERTEX
  8
0
  5
160F
 10
142.866
 20
255.087
 30
0.000000
  70
    32
  0
VERTEX
  8
0
  5
1610
 10
142.817
 20
255.107
 30
0.000000
  70
    32
  0
VERTEX
  8
0
  5
1611
 10
142.767
 20
255.127
 30
0.000000
  70
    32
  0
VERTEX
  8
0
  5
1612
 10
142.717
 20
255.146
 30
0.000000
  70
    32
  0
VERTEX
  8
0
  5
1613
 10
142.667
 20
255.166
 30
0.000000
  70
    32
  0
VERTEX
  8
0
  5
1614
 10
142.616
 20
255.185
 30
0.000000
  70
    32
  0
VERTEX
  8
0
  5
1615
 10
142.565
 20
255.205
 30
0.000000
  70
    32
  0
VERTEX
  8
0
  5
1616
 10
142.514
 20
255.224
 30
0.000000
  70
    32
  0
VERTEX
  8
0
  5
1617
 10
142.462
 20
255.243
 30
0.000000
  70
    32
  0
VERTEX
  8
0
  5
1618
 10
142.410
 20
255.262
 30
0.000000
  70
    32
  0
VERTEX
  8
0
  5
1619
 10
142.358
 20
255.281
 30
0.000000
  70
    32
  0
SEQEND
  8
0
  5
161A
  0
POLYLINE
  5
1257
  8
0
 10
118.37709598900321
 20
252.3064589581461
 30
0.0
 66
     1
 70
     8
  0
VERTEX
  8
0
  5
161B
 10
118.377
 20
252.306
 30
0.000000
  70
    32
  0
VERTEX
  8
0
  5
161C
 10
118.381
 20
252.145
 30
0.000000
  70
    32
  0
VERTEX
  8
0
  5
161D
 10
118.394
 20
251.984
 30
0.000000
  70
    32
  0
VERTEX
  8
0
  5
161E
 10
118.414
 20
251.823
 30
0.000000
  70
    32
  0
VERTEX
  8
0
  5
161F
 10
118.443
 20
251.662
 30
0.000000
  70
    32
  0
VERTEX
  8
0
  5
1620
 10
118.481
 20
251.501
 30
0.000000
  70
    32
  0
VERTEX
  8
0
  5
1621
 10
118.526
 20
251.341
 30
0.000000
  70
    32
  0
VERTEX
  8
0
  5
1622
 10
118.580
 20
251.182
 30
0.000000
  70
    32
  0
VERTEX
  8
0
  5
1623
 10
118.641
 20
251.023
 30
0.000000
  70
    32
  0
VERTEX
  8
0
  5
1624
 10
118.711
 20
250.865
 30
0.000000
  70
    32
  0
VERTEX
  8
0
  5
1625
 10
118.789
 20
250.708
 30
0.000000
  70
    32
  0
VERTEX
  8
0
  5
1626
 10
118.875
 20
250.552
 30
0.000000
  70
    32
  0
VERTEX
  8
0
  5
1627
 10
118.969
 20
250.397
 30
0.000000
  70
    32
  0
VERTEX
  8
0
  5
1628
 10
119.071
 20
250.243
 30
0.000000
  70
    32
  0
VERTEX
  8
0
  5
1629
 10
119.181
 20
250.091
 30
0.000000
  70
    32
  0
VERTEX
  8
0
  5
162A
 10
119.298
 20
249.939
 30
0.000000
  70
    32
  0
VERTEX
  8
0
  5
162B
 10
119.424
 20
249.789
 30
0.000000
  70
    32
  0
VERTEX
  8
0
  5
162C
 10
119.557
 20
249.641
 30
0.000000
  70
    32
  0
VERTEX
  8
0
  5
162D
 10
119.697
 20
249.494
 30
0.000000
  70
    32
  0
VERTEX
  8
0
  5
162E
 10
119.845
 20
249.349
 30
0.000000
  70
    32
  0
VERTEX
  8
0
  5
162F
 10
120.001
 20
249.206
 30
0.000000
  70
    32
  0
VERTEX
  8
0
  5
1630
 10
120.163
 20
249.064
 30
0.000000
  70
    32
  0
VERTEX
  8
0
  5
1631
 10
120.333
 20
248.925
 30
0.000000
  70
    32
  0
VERTEX
  8
0
  5
1632
 10
120.510
 20
248.788
 30
0.000000
  70
    32
  0
VERTEX
  8
0
  5
1633
 10
120.694
 20
248.652
 30
0.000000
  70
    32
  0
VERTEX
  8
0
  5
1634
 10
120.885
 20
248.519
 30
0.000000
  70
    32
  0
VERTEX
  8
0
  5
1635
 10
121.083
 20
248.388
 30
0.000000
  70
    32
  0
VERTEX
  8
0
  5
1636
 10
121.287
 20
248.260
 30
0.000000
  70
    32
  0
VERTEX
  8
0
  5
1637
 10
121.498
 20
248.134
 30
0.000000
  70
    32
  0
VERTEX
  8
0
  5
1638
 10
121.715
 20
248.010
 30
0.000000
  70
    32
  0
VERTEX
  8
0
  5
1639
 10
121.939
 20
247.889
 30
0.000000
  70
    32
  0
VERTEX
  8
0
  5
163A
 10
122.169
 20
247.771
 30
0.000000
  70
    32
  0
VERTEX
  8
0
  5
163B
 10
122.404
 20
247.656
 30
0.000000
  70
    32
  0
VERTEX
  8
0
  5
163C
 10
122.646
 20
247.543
 30
0.000000
  70
    32
  0
VERTEX
  8
0
  5
163D
 10
122.893
 20
247.433
 30
0.000000
  70
    32
  0
VERTEX
  8
0
  5
163E
 10
123.146
 20
247.326
 30
0.000000
  70
    32
  0
VERTEX
  8
0
  5
163F
 10
123.404
 20
247.222
 30
0.000000
  70
    32
  0
VERTEX
  8
0
  5
1640
 10
123.668
 20
247.121
 30
0.000000
  70
    32
  0
VERTEX
  8
0
  5
1641
 10
123.936
 20
247.023
 30
0.000000
  70
    32
  0
VERTEX
  8
0
  5
1642
 10
124.210
 20
246.929
 30
0.000000
  70
    32
  0
VERTEX
  8
0
  5
1643
 10
124.488
 20
246.838
 30
0.000000
  70
    32
  0
VERTEX
  8
0
  5
1644
 10
124.771
 20
246.750
 30
0.000000
  70
    32
  0
VERTEX
  8
0
  5
1645
 10
125.058
 20
246.665
 30
0.000000
  70
    32
  0
VERTEX
  8
0
  5
1646
 10
125.350
 20
246.584
 30
0.000000
  70
    32
  0
VERTEX
  8
0
  5
1647
 10
125.645
 20
246.506
 30
0.000000
  70
    32
  0
VERTEX
  8
0
  5
1648
 10
125.945
 20
246.431
 30
0.000000
  70
    32
  0
VERTEX
  8
0
  5
1649
 10
126.248
 20
246.361
 30
0.000000
  70
    32
  0
VERTEX
  8
0
  5
164A
 10
126.555
 20
246.293
 30
0.000000
  70
    32
  0
VERTEX
  8
0
  5
164B
 10
126.865
 20
246.230
 30
0.000000
  70
    32
  0
VERTEX
  8
0
  5
164C
 10
127.179
 20
246.170
 30
0.000000
  70
    32
  0
VERTEX
  8
0
  5
164D
 10
127.495
 20
246.114
 30
0.000000
  70
    32
  0
VERTEX
  8
0
  5
164E
 10
127.814
 20
246.061
 30
0.000000
  70
    32
  0
VERTEX
  8
0
  5
164F
 10
128.136
 20
246.012
 30
0.000000
  70
    32
  0
VERTEX
  8
0
  5
1650
 10
128.460
 20
245.967
 30
0.000000
  70
    32
  0
VERTEX
  8
0
  5
1651
 10
128.786
 20
245.926
 30
0.000000
  70
    32
  0
VERTEX
  8
0
  5
1652
 10
129.114
 20
245.889
 30
0.000000
  70
    32
  0
VERTEX
  8
0
  5
1653
 10
129.445
 20
245.855
 30
0.000000
  70
    32
  0
VERTEX
  8
0
  5
1654
 10
129.776
 20
245.826
 30
0.000000
  70
    32
  0
VERTEX
  8
0
  5
1655
 10
130.110
 20
245.800
 30
0.000000
  70
    32
  0
VERTEX
  8
0
  5
1656
 10
130.444
 20
245.779
 30
0.000000
  70
    32
  0
VERTEX
  8
0
  5
1657
 10
130.779
 20
245.761
 30
0.000000
  70
    32
  0
VERTEX
  8
0
  5
1658
 10
131.116
 20
245.747
 30
0.000000
  70
    32
  0
VERTEX
  8
0
  5
1659
 10
131.452
 20
245.737
 30
0.000000
  70
    32
  0
VERTEX
  8
0
  5
165A
 10
131.790
 20
245.731
 30
0.000000
  70
    32
  0
VERTEX
  8
0
  5
165B
 10
132.127
 20
245.729
 30
0.000000
  70
    32
  0
VERTEX
  8
0
  5
165C
 10
132.465
 20
245.731
 30
0.000000
  70
    32
  0
VERTEX
  8
0
  5
165D
 10
132.802
 20
245.737
 30
0.000000
  70
    32
  0
VERTEX
  8
0
  5
165E
 10
133.139
 20
245.747
 30
0.000000
  70
    32
  0
VERTEX
  8
0
  5
165F
 10
133.475
 20
245.761
 30
0.000000
  70
    32
  0
VERTEX
  8
0
  5
1660
 10
133.810
 20
245.779
 30
0.000000
  70
    32
  0
VERTEX
  8
0
  5
1661
 10
134.145
 20
245.800
 30
0.000000
  70
    32
  0
VERTEX
  8
0
  5
1662
 10
134.478
 20
245.826
 30
0.000000
  70
    32
  0
VERTEX
  8
0
  5
1663
 10
134.810
 20
245.855
 30
0.000000
  70
    32
  0
VERTEX
  8
0
  5
1664
 10
135.140
 20
245.889
 30
0.000000
  70
    32
  0
VERTEX
  8
0
  5
1665
 10
135.468
 20
245.926
 30
0.000000
  70
    32
  0
VERTEX
  8
0
  5
1666
 10
135.794
 20
245.967
 30
0.000000
  70
    32
  0
VERTEX
  8
0
  5
1667
 10
136.119
 20
246.012
 30
0.000000
  70
    32
  0
VERTEX
  8
0
  5
1668
 10
136.440
 20
246.061
 30
0.000000
  70
    32
  0
VERTEX
  8
0
  5
1669
 10
136.759
 20
246.114
 30
0.000000
  70
    32
  0
VERTEX
  8
0
  5
166A
 10
137.076
 20
246.170
 30
0.000000
  70
    32
  0
VERTEX
  8
0
  5
166B
 10
137.389
 20
246.230
 30
0.000000
  70
    32
  0
VERTEX
  8
0
  5
166C
 10
137.699
 20
246.293
 30
0.000000
  70
    32
  0
VERTEX
  8
0
  5
166D
 10
138.006
 20
246.361
 30
0.000000
  70
    32
  0
VERTEX
  8
0
  5
166E
 10
138.309
 20
246.431
 30
0.000000
  70
    32
  0
VERTEX
  8
0
  5
166F
 10
138.609
 20
246.506
 30
0.000000
  70
    32
  0
VERTEX
  8
0
  5
1670
 10
138.904
 20
246.584
 30
0.000000
  70
    32
  0
VERTEX
  8
0
  5
1671
 10
139.196
 20
246.665
 30
0.000000
  70
    32
  0
VERTEX
  8
0
  5
1672
 10
139.483
 20
246.750
 30
0.000000
  70
    32
  0
VERTEX
  8
0
  5
1673
 10
139.766
 20
246.838
 30
0.000000
  70
    32
  0
VERTEX
  8
0
  5
1674
 10
140.044
 20
246.929
 30
0.000000
  70
    32
  0
VERTEX
  8
0
  5
1675
 10
140.318
 20
247.023
 30
0.000000
  70
    32
  0
VERTEX
  8
0
  5
1676
 10
140.587
 20
247.121
 30
0.000000
  70
    32
  0
VERTEX
  8
0
  5
1677
 10
140.850
 20
247.222
 30
0.000000
  70
    32
  0
VERTEX
  8
0
  5
1678
 10
141.108
 20
247.326
 30
0.000000
  70
    32
  0
VERTEX
  8
0
  5
1679
 10
141.361
 20
247.433
 30
0.000000
  70
    32
  0
VERTEX
  8
0
  5
167A
 10
141.608
 20
247.543
 30
0.000000
  70
    32
  0
VERTEX
  8
0
  5
167B
 10
141.850
 20
247.656
 30
0.000000
  70
    32
  0
VERTEX
  8
0
  5
167C
 10
142.085
 20
247.771
 30
0.000000
  70
    32
  0
VERTEX
  8
0
  5
167D
 10
142.315
 20
247.889
 30
0.000000
  70
    32
  0
VERTEX
  8
0
  5
167E
 10
142.539
 20
248.010
 30
0.000000
  70
    32
  0
VERTEX
  8
0
  5
167F
 10
142.756
 20
248.134
 30
0.000000
  70
    32
  0
VERTEX
  8
0
  5
1680
 10
142.967
 20
248.260
 30
0.000000
  70
    32
  0
VERTEX
  8
0
  5
1681
 10
143.171
 20
248.388
 30
0.000000
  70
    32
  0
VERTEX
  8
0
  5
1682
 10
143.369
 20
248.519
 30
0.000000
  70
    32
  0
VERTEX
  8
0
  5
1683
 10
143.560
 20
248.652
 30
0.000000
  70
    32
  0
VERTEX
  8
0
  5
1684
 10
143.744
 20
248.788
 30
0.000000
  70
    32
  0
VERTEX
  8
0
  5
1685
 10
143.921
 20
248.925
 30
0.000000
  70
    32
  0
VERTEX
  8
0
  5
1686
 10
144.091
 20
249.064
 30
0.000000
  70
    32
  0
VERTEX
  8
0
  5
1687
 10
144.254
 20
249.206
 30
0.000000
  70
    32
  0
VERTEX
  8
0
  5
1688
 10
144.409
 20
249.349
 30
0.000000
  70
    32
  0
VERTEX
  8
0
  5
1689
 10
144.557
 20
249.494
 30
0.000000
  70
    32
  0
VERTEX
  8
0
  5
168A
 10
144.697
 20
249.641
 30
0.000000
  70
    32
  0
VERTEX
  8
0
  5
168B
 10
144.830
 20
249.789
 30
0.000000
  70
    32
  0
VERTEX
  8
0
  5
168C
 10
144.956
 20
249.939
 30
0.000000
  70
    32
  0
VERTEX
  8
0
  5
168D
 10
145.073
 20
250.091
 30
0.000000
  70
    32
  0
VERTEX
  8
0
  5
168E
 10
145.183
 20
250.243
 30
0.000000
  70
    32
  0
VERTEX
  8
0
  5
168F
 10
145.285
 20
250.397
 30
0.000000
  70
    32
  0
VERTEX
  8
0
  5
1690
 10
145.379
 20
250.552
 30
0.000000
  70
    32
  0
VERTEX
  8
0
  5
1691
 10
145.465
 20
250.708
 30
0.000000
  70
    32
  0
VERTEX
  8
0
  5
1692
 10
145.543
 20
250.865
 30
0.000000
  70
    32
  0
VERTEX
  8
0
  5
1693
 10
145.613
 20
251.023
 30
0.000000
  70
    32
  0
VERTEX
  8
0
  5
1694
 10
145.675
 20
251.182
 30
0.000000
  70
    32
  0
VERTEX
  8
0
  5
1695
 10
145.728
 20
251.341
 30
0.000000
  70
    32
  0
VERTEX
  8
0
  5
1696
 10
145.774
 20
251.501
 30
0.000000
  70
    32
  0
VERTEX
  8
0
  5
1697
 10
145.811
 20
251.662
 30
0.000000
  70
    32
  0
VERTEX
  8
0
  5
1698
 10
145.840
 20
251.823
 30
0.000000
  70
    32
  0
VERTEX
  8
0
  5
1699
 10
145.861
 20
251.984
 30
0.000000
  70
    32
  0
VERTEX
  8
0
  5
169A
 10
145.873
 20
252.145
 30
0.000000
  70
    32
  0
VERTEX
  8
0
  5
169B
 10
145.877
 20
252.306
 30
0.000000
  70
    32
  0
SEQEND
  8
0
  5
169C
  0
LINE
  5
1258
  8
0
 10
145.87709598900321
 20
252.3064589581461
 30
0.0
 11
145.62709598900321
 21
220.8053605178936
 31
0.0
  0
LINE
  5
1259
  8
0
 10
140.22226337257749
 20
266.22444630866943
 30
0.0
 11
138.7106417696906
 21
273.40831541625982
 31
0.0
  0
ARC
  5
125A
  8
0
 10
138.2213562815526
 20
273.30536051789352
 30
0.0
 40
0.5
 50
11.882762862839719
 51
90.0
  0
ARC
  5
125B
  8
0
 10
144.80774631805201
 20
262.05987531012681
 30
0.0
 40
6.0
 50
141.32779275757619
 51
207.67186019459629
  0
ARC
  5
125C
  8
0
 10
139.73297788443969
 20
266.12149141030318
 30
0.0
 40
0.5
 50
321.32779275757628
 51
11.88276286284132
  0
LINE
  5
125D
  8
0
 10
140.23297788443969
 20
266.12149141030318
 30
0.0
 11
140.23297788443961
 21
257.77352026492599
 31
0.0
  0
ARC
  5
125E
  8
0
 10
148.8025090278353
 20
262.92746399593159
 30
0.0
 40
10.0
 50
201.4323956628549
 51
229.77460563426351
  0
LINE
  5
125F
  8
0
 10
118.37709598900319
 20
252.3064589581461
 30
0.0
 11
118.62709598900319
 21
220.8053605178936
 31
0.0
  0
LINE
  5
1260
  8
0
 10
124.0319286054288
 20
266.22444630866943
 30
0.0
 11
125.54355020831581
 21
273.40831541625982
 31
0.0
  0
ARC
  5
1261
  8
0
 10
124.5212140935667
 20
266.12149141030318
 30
0.0
 40
0.5
 50
168.1172371371587
 51
218.67220724242381
  0
ARC
  5
1262
  8
0
 10
126.0328356964537
 20
273.30536051789352
 30
0.0
 40
0.5
 50
90.0
 51
168.1172371371602
  0
POLYLINE
  5
1263
  8
0
 10
121.8961351521037
 20
255.28115949750514
 30
0.0
 66
     1
 70
     8
  0
VERTEX
  8
0
  5
169D
 10
121.896
 20
255.281
 30
0.000000
  70
    32
  0
VERTEX
  8
0
  5
169E
 10
121.844
 20
255.262
 30
0.000000
  70
    32
  0
VERTEX
  8
0
  5
169F
 10
121.792
 20
255.243
 30
0.000000
  70
    32
  0
VERTEX
  8
0
  5
16A0
 10
121.740
 20
255.224
 30
0.000000
  70
    32
  0
VERTEX
  8
0
  5
16A1
 10
121.689
 20
255.205
 30
0.000000
  70
    32
  0
VERTEX
  8
0
  5
16A2
 10
121.638
 20
255.185
 30
0.000000
  70
    32
  0
VERTEX
  8
0
  5
16A3
 10
121.587
 20
255.166
 30
0.000000
  70
    32
  0
VERTEX
  8
0
  5
16A4
 10
121.537
 20
255.146
 30
0.000000
  70
    32
  0
VERTEX
  8
0
  5
16A5
 10
121.487
 20
255.127
 30
0.000000
  70
    32
  0
VERTEX
  8
0
  5
16A6
 10
121.437
 20
255.107
 30
0.000000
  70
    32
  0
VERTEX
  8
0
  5
16A7
 10
121.388
 20
255.087
 30
0.000000
  70
    32
  0
VERTEX
  8
0
  5
16A8
 10
121.339
 20
255.067
 30
0.000000
  70
    32
  0
VERTEX
  8
0
  5
16A9
 10
121.291
 20
255.047
 30
0.000000
  70
    32
  0
VERTEX
  8
0
  5
16AA
 10
121.242
 20
255.027
 30
0.000000
  70
    32
  0
VERTEX
  8
0
  5
16AB
 10
121.195
 20
255.007
 30
0.000000
  70
    32
  0
VERTEX
  8
0
  5
16AC
 10
121.147
 20
254.987
 30
0.000000
  70
    32
  0
VERTEX
  8
0
  5
16AD
 10
121.100
 20
254.966
 30
0.000000
  70
    32
  0
VERTEX
  8
0
  5
16AE
 10
121.053
 20
254.946
 30
0.000000
  70
    32
  0
VERTEX
  8
0
  5
16AF
 10
121.007
 20
254.925
 30
0.000000
  70
    32
  0
VERTEX
  8
0
  5
16B0
 10
120.961
 20
254.905
 30
0.000000
  70
    32
  0
VERTEX
  8
0
  5
16B1
 10
120.915
 20
254.884
 30
0.000000
  70
    32
  0
VERTEX
  8
0
  5
16B2
 10
120.870
 20
254.863
 30
0.000000
  70
    32
  0
VERTEX
  8
0
  5
16B3
 10
120.825
 20
254.842
 30
0.000000
  70
    32
  0
VERTEX
  8
0
  5
16B4
 10
120.780
 20
254.821
 30
0.000000
  70
    32
  0
VERTEX
  8
0
  5
16B5
 10
120.736
 20
254.800
 30
0.000000
  70
    32
  0
VERTEX
  8
0
  5
16B6
 10
120.692
 20
254.779
 30
0.000000
  70
    32
  0
VERTEX
  8
0
  5
16B7
 10
120.649
 20
254.758
 30
0.000000
  70
    32
  0
VERTEX
  8
0
  5
16B8
 10
120.606
 20
254.737
 30
0.000000
  70
    32
  0
VERTEX
  8
0
  5
16B9
 10
120.563
 20
254.715
 30
0.000000
  70
    32
  0
VERTEX
  8
0
  5
16BA
 10
120.521
 20
254.694
 30
0.000000
  70
    32
  0
VERTEX
  8
0
  5
16BB
 10
120.479
 20
254.672
 30
0.000000
  70
    32
  0
VERTEX
  8
0
  5
16BC
 10
120.437
 20
254.651
 30
0.000000
  70
    32
  0
VERTEX
  8
0
  5
16BD
 10
120.396
 20
254.629
 30
0.000000
  70
    32
  0
VERTEX
  8
0
  5
16BE
 10
120.355
 20
254.607
 30
0.000000
  70
    32
  0
VERTEX
  8
0
  5
16BF
 10
120.315
 20
254.585
 30
0.000000
  70
    32
  0
VERTEX
  8
0
  5
16C0
 10
120.275
 20
254.563
 30
0.000000
  70
    32
  0
VERTEX
  8
0
  5
16C1
 10
120.235
 20
254.541
 30
0.000000
  70
    32
  0
VERTEX
  8
0
  5
16C2
 10
120.196
 20
254.519
 30
0.000000
  70
    32
  0
VERTEX
  8
0
  5
16C3
 10
120.157
 20
254.497
 30
0.000000
  70
    32
  0
VERTEX
  8
0
  5
16C4
 10
120.118
 20
254.475
 30
0.000000
  70
    32
  0
VERTEX
  8
0
  5
16C5
 10
120.080
 20
254.453
 30
0.000000
  70
    32
  0
VERTEX
  8
0
  5
16C6
 10
120.043
 20
254.431
 30
0.000000
  70
    32
  0
VERTEX
  8
0
  5
16C7
 10
120.005
 20
254.408
 30
0.000000
  70
    32
  0
VERTEX
  8
0
  5
16C8
 10
119.968
 20
254.386
 30
0.000000
  70
    32
  0
VERTEX
  8
0
  5
16C9
 10
119.932
 20
254.363
 30
0.000000
  70
    32
  0
VERTEX
  8
0
  5
16CA
 10
119.896
 20
254.340
 30
0.000000
  70
    32
  0
VERTEX
  8
0
  5
16CB
 10
119.860
 20
254.318
 30
0.000000
  70
    32
  0
VERTEX
  8
0
  5
16CC
 10
119.825
 20
254.295
 30
0.000000
  70
    32
  0
VERTEX
  8
0
  5
16CD
 10
119.790
 20
254.272
 30
0.000000
  70
    32
  0
VERTEX
  8
0
  5
16CE
 10
119.755
 20
254.249
 30
0.000000
  70
    32
  0
VERTEX
  8
0
  5
16CF
 10
119.721
 20
254.226
 30
0.000000
  70
    32
  0
VERTEX
  8
0
  5
16D0
 10
119.688
 20
254.203
 30
0.000000
  70
    32
  0
VERTEX
  8
0
  5
16D1
 10
119.654
 20
254.180
 30
0.000000
  70
    32
  0
VERTEX
  8
0
  5
16D2
 10
119.621
 20
254.157
 30
0.000000
  70
    32
  0
VERTEX
  8
0
  5
16D3
 10
119.589
 20
254.134
 30
0.000000
  70
    32
  0
VERTEX
  8
0
  5
16D4
 10
119.557
 20
254.111
 30
0.000000
  70
    32
  0
VERTEX
  8
0
  5
16D5
 10
119.525
 20
254.088
 30
0.000000
  70
    32
  0
VERTEX
  8
0
  5
16D6
 10
119.494
 20
254.064
 30
0.000000
  70
    32
  0
VERTEX
  8
0
  5
16D7
 10
119.463
 20
254.041
 30
0.000000
  70
    32
  0
VERTEX
  8
0
  5
16D8
 10
119.433
 20
254.017
 30
0.000000
  70
    32
  0
VERTEX
  8
0
  5
16D9
 10
119.403
 20
253.994
 30
0.000000
  70
    32
  0
VERTEX
  8
0
  5
16DA
 10
119.373
 20
253.970
 30
0.000000
  70
    32
  0
VERTEX
  8
0
  5
16DB
 10
119.344
 20
253.947
 30
0.000000
  70
    32
  0
VERTEX
  8
0
  5
16DC
 10
119.315
 20
253.923
 30
0.000000
  70
    32
  0
VERTEX
  8
0
  5
16DD
 10
119.287
 20
253.899
 30
0.000000
  70
    32
  0
VERTEX
  8
0
  5
16DE
 10
119.259
 20
253.875
 30
0.000000
  70
    32
  0
VERTEX
  8
0
  5
16DF
 10
119.232
 20
253.852
 30
0.000000
  70
    32
  0
VERTEX
  8
0
  5
16E0
 10
119.205
 20
253.828
 30
0.000000
  70
    32
  0
VERTEX
  8
0
  5
16E1
 10
119.178
 20
253.804
 30
0.000000
  70
    32
  0
VERTEX
  8
0
  5
16E2
 10
119.152
 20
253.780
 30
0.000000
  70
    32
  0
VERTEX
  8
0
  5
16E3
 10
119.126
 20
253.756
 30
0.000000
  70
    32
  0
VERTEX
  8
0
  5
16E4
 10
119.100
 20
253.732
 30
0.000000
  70
    32
  0
VERTEX
  8
0
  5
16E5
 10
119.076
 20
253.707
 30
0.000000
  70
    32
  0
VERTEX
  8
0
  5
16E6
 10
119.051
 20
253.683
 30
0.000000
  70
    32
  0
VERTEX
  8
0
  5
16E7
 10
119.027
 20
253.659
 30
0.000000
  70
    32
  0
VERTEX
  8
0
  5
16E8
 10
119.003
 20
253.635
 30
0.000000
  70
    32
  0
VERTEX
  8
0
  5
16E9
 10
118.980
 20
253.610
 30
0.000000
  70
    32
  0
VERTEX
  8
0
  5
16EA
 10
118.957
 20
253.586
 30
0.000000
  70
    32
  0
VERTEX
  8
0
  5
16EB
 10
118.935
 20
253.562
 30
0.000000
  70
    32
  0
VERTEX
  8
0
  5
16EC
 10
118.913
 20
253.537
 30
0.000000
  70
    32
  0
VERTEX
  8
0
  5
16ED
 10
118.891
 20
253.513
 30
0.000000
  70
    32
  0
VERTEX
  8
0
  5
16EE
 10
118.870
 20
253.488
 30
0.000000
  70
    32
  0
VERTEX
  8
0
  5
16EF
 10
118.850
 20
253.464
 30
0.000000
  70
    32
  0
VERTEX
  8
0
  5
16F0
 10
118.829
 20
253.439
 30
0.000000
  70
    32
  0
VERTEX
  8
0
  5
16F1
 10
118.810
 20
253.415
 30
0.000000
  70
    32
  0
VERTEX
  8
0
  5
16F2
 10
118.790
 20
253.390
 30
0.000000
  70
    32
  0
VERTEX
  8
0
  5
16F3
 10
118.771
 20
253.365
 30
0.000000
  70
    32
  0
VERTEX
  8
0
  5
16F4
 10
118.753
 20
253.340
 30
0.000000
  70
    32
  0
VERTEX
  8
0
  5
16F5
 10
118.735
 20
253.316
 30
0.000000
  70
    32
  0
VERTEX
  8
0
  5
16F6
 10
118.717
 20
253.291
 30
0.000000
  70
    32
  0
VERTEX
  8
0
  5
16F7
 10
118.700
 20
253.266
 30
0.000000
  70
    32
  0
VERTEX
  8
0
  5
16F8
 10
118.683
 20
253.241
 30
0.000000
  70
    32
  0
VERTEX
  8
0
  5
16F9
 10
118.667
 20
253.216
 30
0.000000
  70
    32
  0
VERTEX
  8
0
  5
16FA
 10
118.651
 20
253.191
 30
0.000000
  70
    32
  0
VERTEX
  8
0
  5
16FB
 10
118.636
 20
253.166
 30
0.000000
  70
    32
  0
VERTEX
  8
0
  5
16FC
 10
118.621
 20
253.141
 30
0.000000
  70
    32
  0
VERTEX
  8
0
  5
16FD
 10
118.606
 20
253.116
 30
0.000000
  70
    32
  0
VERTEX
  8
0
  5
16FE
 10
118.592
 20
253.091
 30
0.000000
  70
    32
  0
VERTEX
  8
0
  5
16FF
 10
118.579
 20
253.066
 30
0.000000
  70
    32
  0
VERTEX
  8
0
  5
1700
 10
118.566
 20
253.041
 30
0.000000
  70
    32
  0
VERTEX
  8
0
  5
1701
 10
118.553
 20
253.016
 30
0.000000
  70
    32
  0
VERTEX
  8
0
  5
1702
 10
118.541
 20
252.991
 30
0.000000
  70
    32
  0
VERTEX
  8
0
  5
1703
 10
118.529
 20
252.966
 30
0.000000
  70
    32
  0
VERTEX
  8
0
  5
1704
 10
118.517
 20
252.941
 30
0.000000
  70
    32
  0
VERTEX
  8
0
  5
1705
 10
118.506
 20
252.915
 30
0.000000
  70
    32
  0
VERTEX
  8
0
  5
1706
 10
118.496
 20
252.890
 30
0.000000
  70
    32
  0
VERTEX
  8
0
  5
1707
 10
118.486
 20
252.865
 30
0.000000
  70
    32
  0
VERTEX
  8
0
  5
1708
 10
118.476
 20
252.840
 30
0.000000
  70
    32
  0
VERTEX
  8
0
  5
1709
 10
118.467
 20
252.814
 30
0.000000
  70
    32
  0
VERTEX
  8
0
  5
170A
 10
118.458
 20
252.789
 30
0.000000
  70
    32
  0
VERTEX
  8
0
  5
170B
 10
118.450
 20
252.764
 30
0.000000
  70
    32
  0
VERTEX
  8
0
  5
170C
 10
118.442
 20
252.738
 30
0.000000
  70
    32
  0
VERTEX
  8
0
  5
170D
 10
118.435
 20
252.713
 30
0.000000
  70
    32
  0
VERTEX
  8
0
  5
170E
 10
118.428
 20
252.688
 30
0.000000
  70
    32
  0
VERTEX
  8
0
  5
170F
 10
118.421
 20
252.662
 30
0.000000
  70
    32
  0
VERTEX
  8
0
  5
1710
 10
118.415
 20
252.637
 30
0.000000
  70
    32
  0
VERTEX
  8
0
  5
1711
 10
118.409
 20
252.612
 30
0.000000
  70
    32
  0
VERTEX
  8
0
  5
1712
 10
118.404
 20
252.586
 30
0.000000
  70
    32
  0
VERTEX
  8
0
  5
1713
 10
118.400
 20
252.561
 30
0.000000
  70
    32
  0
VERTEX
  8
0
  5
1714
 10
118.395
 20
252.535
 30
0.000000
  70
    32
  0
VERTEX
  8
0
  5
1715
 10
118.391
 20
252.510
 30
0.000000
  70
    32
  0
VERTEX
  8
0
  5
1716
 10
118.388
 20
252.485
 30
0.000000
  70
    32
  0
VERTEX
  8
0
  5
1717
 10
118.385
 20
252.459
 30
0.000000
  70
    32
  0
VERTEX
  8
0
  5
1718
 10
118.383
 20
252.434
 30
0.000000
  70
    32
  0
VERTEX
  8
0
  5
1719
 10
118.381
 20
252.408
 30
0.000000
  70
    32
  0
VERTEX
  8
0
  5
171A
 10
118.379
 20
252.383
 30
0.000000
  70
    32
  0
VERTEX
  8
0
  5
171B
 10
118.378
 20
252.357
 30
0.000000
  70
    32
  0
VERTEX
  8
0
  5
171C
 10
118.377
 20
252.332
 30
0.000000
  70
    32
  0
VERTEX
  8
0
  5
171D
 10
118.377
 20
252.306
 30
0.000000
  70
    32
  0
SEQEND
  8
0
  5
171E
  0
LINE
  5
1264
  8
0
 10
124.0212140935667
 20
266.12149141030318
 30
0.0
 11
124.0212140935667
 21
257.77352026492599
 31
0.0
  0
ARC
  5
1265
  8
0
 10
119.44644565995431
 20
262.05987531012681
 30
0.0
 40
6.0
 50
332.32813980540368
 51
38.672207242423767
  0
ARC
  5
1266
  8
0
 10
115.451682950171
 20
262.92746399593159
 30
0.0
 40
10.0
 50
310.22539436573652
 51
338.5676043371451
  0
LINE
  5
1267
  8
0
 10
426.6779157161485
 20
269.80533926069751
 30
0.0
 11
428.37810161248137
 21
269.80533926069751
 31
0.0
  0
LINE
  5
1268
  8
0
 10
426.2111536313908
 20
269.14439017905761
 30
0.0
 11
428.84486369723908
 21
269.14439017905761
 31
0.0
  0
LINE
  5
1269
  8
0
 10
420.92697805805818
 20
260.4680485077522
 30
0.0
 11
434.12903927057181
 21
260.4680485077522
 31
0.0
  0
LINE
  5
126A
  8
0
 10
421.04094013533762
 20
261.86258247711169
 30
0.0
 11
434.01507719329243
 21
261.86258247711169
 31
0.0
  0
LINE
  5
126B
  8
0
 10
434.63989601243333
 20
259.77536051789349
 30
0.0
 11
420.41612131619672
 21
259.77536051789349
 31
0.0
  0
LINE
  5
126C
  8
0
 10
434.02800866431488
 20
273.56054585246511
 30
0.0
 11
434.02800866431488
 21
261.7253833857776
 31
0.0
  0
LINE
  5
126D
  8
0
 10
441.02800866431488
 20
220.8053605178936
 30
0.0
 11
414.028008664315
 21
220.8053605178936
 31
0.0
  0
POLYLINE
  5
126E
  8
0
 66
     1
 10
0.0
 20
0.0
 30
0.0
  0
VERTEX
  5
14C1
  8
0
 10
419.795217820434
 20
240.0829780037275
 30
0.0
  0
VERTEX
  5
14C2
  8
0
 10
419.6429182846714
 20
239.7023576660219
 30
0.0
  0
VERTEX
  5
14C3
  8
0
 10
419.31219072337967
 20
238.94164127053719
 30
0.0
  0
VERTEX
  5
14C4
  8
0
 10
418.94832684179642
 20
238.1831674563729
 30
0.0
  0
VERTEX
  5
14C5
  8
0
 10
418.7546526680315
 20
237.80536051789349
 30
0.0
  0
SEQEND
  5
14C6
  8
0
  0
POLYLINE
  5
126F
  8
0
 66
     1
 10
0.0
 20
0.0
 30
0.0
  0
VERTEX
  5
14C7
  8
0
 10
419.65339918769342
 20
250.46099915593669
 30
0.0
  0
VERTEX
  5
14C8
  8
0
 10
420.02935537721868
 20
249.6952388523618
 30
0.0
  0
VERTEX
  5
14C9
  8
0
 10
420.58356684332779
 20
248.07855934727189
 30
0.0
  0
VERTEX
  5
14CA
  8
0
 10
420.86308269597362
 20
246.36046659860801
 30
0.0
  0
VERTEX
  5
14CB
  8
0
 10
420.898008664315
 20
245.46880339644451
 30
0.0
  0
SEQEND
  5
14CC
  8
0
  0
POLYLINE
  5
1270
  8
0
 66
     1
 10
0.0
 20
0.0
 30
0.0
  0
VERTEX
  5
14CD
  8
0
 10
420.898008664315
 20
245.46880339644451
 30
0.0
  0
VERTEX
  5
14CE
  8
0
 10
420.8662908472192
 20
244.5993389857554
 30
0.0
  0
VERTEX
  5
14CF
  8
0
 10
420.61541879044728
 20
242.818593198814
 30
0.0
  0
VERTEX
  5
14D0
  8
0
 10
420.12485742820257
 20
240.9996401265166
 30
0.0
  0
VERTEX
  5
14D1
  8
0
 10
419.795217820434
 20
240.0829780037275
 30
0.0
  0
SEQEND
  5
14D2
  8
0
  0
POLYLINE
  5
1271
  8
0
 66
     1
 10
0.0
 20
0.0
 30
0.0
  0
VERTEX
  5
14D3
  8
0
 10
419.41062558739458
 20
251.5388645468704
 30
0.0
  0
VERTEX
  5
14D4
  8
0
 10
419.40825208714091
 20
251.51223951325969
 30
0.0
  0
VERTEX
  5
14D5
  8
0
 10
419.40481600092238
 20
251.45907921130501
 30
0.0
  0
VERTEX
  5
14D6
  8
0
 10
419.40310918998961
 20
251.40605383785831
 30
0.0
  0
VERTEX
  5
14D7
  8
0
 10
419.40289697148262
 20
251.37959749167601
 30
0.0
  0
SEQEND
  5
14D8
  8
0
  0
POLYLINE
  5
1272
  8
0
 66
     1
 10
0.0
 20
0.0
 30
0.0
  0
VERTEX
  5
14D9
  8
0
 10
419.40289697148262
 20
251.37959749167601
 30
0.0
  0
VERTEX
  5
14DA
  8
0
 10
419.40957016947118
 20
251.230816402801
 30
0.0
  0
VERTEX
  5
14DB
  8
0
 10
419.46415306831648
 20
250.92702910678969
 30
0.0
  0
VERTEX
  5
14DC
  8
0
 10
419.57574309399331
 20
250.61725334277449
 30
0.0
  0
VERTEX
  5
14DD
  8
0
 10
419.65339918769342
 20
250.46099915593669
 30
0.0
  0
SEQEND
  5
14DE
  8
0
  0
LINE
  5
1273
  8
0
 10
420.32467365468062
 20
259.4558166681939
 30
0.0
 11
434.73134367394943
 21
259.4558166681939
 31
0.0
  0
LINE
  5
1274
  8
0
 10
437.02800866431488
 20
210.8053605178936
 30
0.0
 11
437.02800866431488
 21
220.8053605178936
 31
0.0
  0
LINE
  5
1275
  8
0
 10
418.028008664315
 20
220.8053605178936
 30
0.0
 11
418.028008664315
 21
210.8053605178936
 31
0.0
  0
LINE
  5
1276
  8
0
 10
418.028008664315
 20
210.8053605178936
 30
0.0
 11
437.02800866431488
 21
210.8053605178936
 31
0.0
  0
LINE
  5
1277
  8
1
 10
427.528008664315
 20
278.80536051789352
 30
0.0
 11
427.52800866431488
 21
155.8053605178936
 31
0.0
  0
LINE
  5
1278
  8
0
 10
433.62226895686439
 20
273.80536051789352
 30
0.0
 11
421.43374837176549
 21
273.80536051789352
 31
0.0
  0
ARC
  5
1279
  8
0
 10
421.43374837176549
 20
273.30536051789352
 30
0.0
 40
0.5
 50
90.0
 51
168.1172371371602
  0
ARC
  5
127A
  8
0
 10
433.62226895686439
 20
273.30536051789352
 30
0.0
 40
0.5
 50
11.882762862839719
 51
90.0
  0
LINE
  5
127B
  8
0
 10
435.6231760478895
 20
266.22444630866943
 30
0.0
 11
434.11155444500241
 21
273.40831541625982
 31
0.0
  0
LINE
  5
127C
  8
0
 10
419.4328412807406
 20
266.22444630866943
 30
0.0
 11
420.94446288362752
 21
273.40831541625982
 31
0.0
  0
LINE
  5
127D
  8
0
 10
419.42212676887851
 20
266.12149141030318
 30
0.0
 11
419.42212676887851
 21
251.6538707368781
 31
0.0
  0
ARC
  5
127E
  8
0
 10
419.92212676887851
 20
266.12149141030318
 30
0.0
 40
0.5
 50
168.1172371371587
 51
180.0
  0
ARC
  5
127F
  8
0
 10
435.13389055975148
 20
266.12149141030318
 30
0.0
 40
0.5
 50
0.0
 51
11.88276286284132
  0
LINE
  5
1280
  8
0
 10
435.63389055975148
 20
266.12149141030318
 30
0.0
 11
435.63389055975142
 21
251.6311053465171
 31
0.0
  0
LINE
  5
1281
  8
0
 10
413.778008664315
 20
252.3064589581461
 30
0.0
 11
414.028008664315
 21
220.8053605178936
 31
0.0
  0
LINE
  5
1282
  8
0
 10
441.27800866431488
 20
252.3064589581461
 30
0.0
 11
441.02800866431488
 21
220.8053605178936
 31
0.0
  0
POLYLINE
  5
1283
  8
0
 10
441.278008664315
 20
252.3064589581461
 30
0.0
 66
     1
 70
     8
  0
VERTEX
  8
0
  5
171F
 10
441.278
 20
252.306
 30
0.000000
  70
    32
  0
VERTEX
  8
0
  5
1720
 10
441.278
 20
252.332
 30
0.000000
  70
    32
  0
VERTEX
  8
0
  5
1721
 10
441.277
 20
252.357
 30
0.000000
  70
    32
  0
VERTEX
  8
0
  5
1722
 10
441.276
 20
252.383
 30
0.000000
  70
    32
  0
VERTEX
  8
0
  5
1723
 10
441.274
 20
252.408
 30
0.000000
  70
    32
  0
VERTEX
  8
0
  5
1724
 10
441.272
 20
252.434
 30
0.000000
  70
    32
  0
VERTEX
  8
0
  5
1725
 10
441.270
 20
252.459
 30
0.000000
  70
    32
  0
VERTEX
  8
0
  5
1726
 10
441.267
 20
252.485
 30
0.000000
  70
    32
  0
VERTEX
  8
0
  5
1727
 10
441.264
 20
252.510
 30
0.000000
  70
    32
  0
VERTEX
  8
0
  5
1728
 10
441.260
 20
252.535
 30
0.000000
  70
    32
  0
VERTEX
  8
0
  5
1729
 10
441.256
 20
252.561
 30
0.000000
  70
    32
  0
VERTEX
  8
0
  5
172A
 10
441.251
 20
252.586
 30
0.000000
  70
    32
  0
VERTEX
  8
0
  5
172B
 10
441.246
 20
252.612
 30
0.000000
  70
    32
  0
VERTEX
  8
0
  5
172C
 10
441.240
 20
252.637
 30
0.000000
  70
    32
  0
VERTEX
  8
0
  5
172D
 10
441.234
 20
252.662
 30
0.000000
  70
    32
  0
VERTEX
  8
0
  5
172E
 10
441.227
 20
252.688
 30
0.000000
  70
    32
  0
VERTEX
  8
0
  5
172F
 10
441.221
 20
252.713
 30
0.000000
  70
    32
  0
VERTEX
  8
0
  5
1730
 10
441.213
 20
252.738
 30
0.000000
  70
    32
  0
VERTEX
  8
0
  5
1731
 10
441.205
 20
252.764
 30
0.000000
  70
    32
  0
VERTEX
  8
0
  5
1732
 10
441.197
 20
252.789
 30
0.000000
  70
    32
  0
VERTEX
  8
0
  5
1733
 10
441.188
 20
252.814
 30
0.000000
  70
    32
  0
VERTEX
  8
0
  5
1734
 10
441.179
 20
252.840
 30
0.000000
  70
    32
  0
VERTEX
  8
0
  5
1735
 10
441.169
 20
252.865
 30
0.000000
  70
    32
  0
VERTEX
  8
0
  5
1736
 10
441.159
 20
252.890
 30
0.000000
  70
    32
  0
VERTEX
  8
0
  5
1737
 10
441.149
 20
252.915
 30
0.000000
  70
    32
  0
VERTEX
  8
0
  5
1738
 10
441.138
 20
252.941
 30
0.000000
  70
    32
  0
VERTEX
  8
0
  5
1739
 10
441.126
 20
252.966
 30
0.000000
  70
    32
  0
VERTEX
  8
0
  5
173A
 10
441.115
 20
252.991
 30
0.000000
  70
    32
  0
VERTEX
  8
0
  5
173B
 10
441.102
 20
253.016
 30
0.000000
  70
    32
  0
VERTEX
  8
0
  5
173C
 10
441.090
 20
253.041
 30
0.000000
  70
    32
  0
VERTEX
  8
0
  5
173D
 10
441.076
 20
253.066
 30
0.000000
  70
    32
  0
VERTEX
  8
0
  5
173E
 10
441.063
 20
253.091
 30
0.000000
  70
    32
  0
VERTEX
  8
0
  5
173F
 10
441.049
 20
253.116
 30
0.000000
  70
    32
  0
VERTEX
  8
0
  5
1740
 10
441.034
 20
253.141
 30
0.000000
  70
    32
  0
VERTEX
  8
0
  5
1741
 10
441.019
 20
253.166
 30
0.000000
  70
    32
  0
VERTEX
  8
0
  5
1742
 10
441.004
 20
253.191
 30
0.000000
  70
    32
  0
VERTEX
  8
0
  5
1743
 10
440.988
 20
253.216
 30
0.000000
  70
    32
  0
VERTEX
  8
0
  5
1744
 10
440.972
 20
253.241
 30
0.000000
  70
    32
  0
VERTEX
  8
0
  5
1745
 10
440.955
 20
253.266
 30
0.000000
  70
    32
  0
VERTEX
  8
0
  5
1746
 10
440.938
 20
253.291
 30
0.000000
  70
    32
  0
VERTEX
  8
0
  5
1747
 10
440.920
 20
253.316
 30
0.000000
  70
    32
  0
VERTEX
  8
0
  5
1748
 10
440.902
 20
253.340
 30
0.000000
  70
    32
  0
VERTEX
  8
0
  5
1749
 10
440.884
 20
253.365
 30
0.000000
  70
    32
  0
VERTEX
  8
0
  5
174A
 10
440.865
 20
253.390
 30
0.000000
  70
    32
  0
VERTEX
  8
0
  5
174B
 10
440.845
 20
253.415
 30
0.000000
  70
    32
  0
VERTEX
  8
0
  5
174C
 10
440.826
 20
253.439
 30
0.000000
  70
    32
  0
VERTEX
  8
0
  5
174D
 10
440.805
 20
253.464
 30
0.000000
  70
    32
  0
VERTEX
  8
0
  5
174E
 10
440.785
 20
253.488
 30
0.000000
  70
    32
  0
VERTEX
  8
0
  5
174F
 10
440.764
 20
253.513
 30
0.000000
  70
    32
  0
VERTEX
  8
0
  5
1750
 10
440.742
 20
253.537
 30
0.000000
  70
    32
  0
VERTEX
  8
0
  5
1751
 10
440.720
 20
253.562
 30
0.000000
  70
    32
  0
VERTEX
  8
0
  5
1752
 10
440.698
 20
253.586
 30
0.000000
  70
    32
  0
VERTEX
  8
0
  5
1753
 10
440.675
 20
253.610
 30
0.000000
  70
    32
  0
VERTEX
  8
0
  5
1754
 10
440.652
 20
253.635
 30
0.000000
  70
    32
  0
VERTEX
  8
0
  5
1755
 10
440.628
 20
253.659
 30
0.000000
  70
    32
  0
VERTEX
  8
0
  5
1756
 10
440.604
 20
253.683
 30
0.000000
  70
    32
  0
VERTEX
  8
0
  5
1757
 10
440.580
 20
253.707
 30
0.000000
  70
    32
  0
VERTEX
  8
0
  5
1758
 10
440.555
 20
253.732
 30
0.000000
  70
    32
  0
VERTEX
  8
0
  5
1759
 10
440.529
 20
253.756
 30
0.000000
  70
    32
  0
VERTEX
  8
0
  5
175A
 10
440.503
 20
253.780
 30
0.000000
  70
    32
  0
VERTEX
  8
0
  5
175B
 10
440.477
 20
253.804
 30
0.000000
  70
    32
  0
VERTEX
  8
0
  5
175C
 10
440.451
 20
253.828
 30
0.000000
  70
    32
  0
VERTEX
  8
0
  5
175D
 10
440.424
 20
253.852
 30
0.000000
  70
    32
  0
VERTEX
  8
0
  5
175E
 10
440.396
 20
253.875
 30
0.000000
  70
    32
  0
VERTEX
  8
0
  5
175F
 10
440.368
 20
253.899
 30
0.000000
  70
    32
  0
VERTEX
  8
0
  5
1760
 10
440.340
 20
253.923
 30
0.000000
  70
    32
  0
VERTEX
  8
0
  5
1761
 10
440.311
 20
253.947
 30
0.000000
  70
    32
  0
VERTEX
  8
0
  5
1762
 10
440.282
 20
253.970
 30
0.000000
  70
    32
  0
VERTEX
  8
0
  5
1763
 10
440.252
 20
253.994
 30
0.000000
  70
    32
  0
VERTEX
  8
0
  5
1764
 10
440.222
 20
254.017
 30
0.000000
  70
    32
  0
VERTEX
  8
0
  5
1765
 10
440.192
 20
254.041
 30
0.000000
  70
    32
  0
VERTEX
  8
0
  5
1766
 10
440.161
 20
254.064
 30
0.000000
  70
    32
  0
VERTEX
  8
0
  5
1767
 10
440.130
 20
254.088
 30
0.000000
  70
    32
  0
VERTEX
  8
0
  5
1768
 10
440.098
 20
254.111
 30
0.000000
  70
    32
  0
VERTEX
  8
0
  5
1769
 10
440.066
 20
254.134
 30
0.000000
  70
    32
  0
VERTEX
  8
0
  5
176A
 10
440.034
 20
254.157
 30
0.000000
  70
    32
  0
VERTEX
  8
0
  5
176B
 10
440.001
 20
254.180
 30
0.000000
  70
    32
  0
VERTEX
  8
0
  5
176C
 10
439.968
 20
254.203
 30
0.000000
  70
    32
  0
VERTEX
  8
0
  5
176D
 10
439.934
 20
254.226
 30
0.000000
  70
    32
  0
VERTEX
  8
0
  5
176E
 10
439.900
 20
254.249
 30
0.000000
  70
    32
  0
VERTEX
  8
0
  5
176F
 10
439.865
 20
254.272
 30
0.000000
  70
    32
  0
VERTEX
  8
0
  5
1770
 10
439.830
 20
254.295
 30
0.000000
  70
    32
  0
VERTEX
  8
0
  5
1771
 10
439.795
 20
254.318
 30
0.000000
  70
    32
  0
VERTEX
  8
0
  5
1772
 10
439.759
 20
254.340
 30
0.000000
  70
    32
  0
VERTEX
  8
0
  5
1773
 10
439.723
 20
254.363
 30
0.000000
  70
    32
  0
VERTEX
  8
0
  5
1774
 10
439.687
 20
254.386
 30
0.000000
  70
    32
  0
VERTEX
  8
0
  5
1775
 10
439.650
 20
254.408
 30
0.000000
  70
    32
  0
VERTEX
  8
0
  5
1776
 10
439.613
 20
254.431
 30
0.000000
  70
    32
  0
VERTEX
  8
0
  5
1777
 10
439.575
 20
254.453
 30
0.000000
  70
    32
  0
VERTEX
  8
0
  5
1778
 10
439.537
 20
254.475
 30
0.000000
  70
    32
  0
VERTEX
  8
0
  5
1779
 10
439.498
 20
254.497
 30
0.000000
  70
    32
  0
VERTEX
  8
0
  5
177A
 10
439.459
 20
254.519
 30
0.000000
  70
    32
  0
VERTEX
  8
0
  5
177B
 10
439.420
 20
254.541
 30
0.000000
  70
    32
  0
VERTEX
  8
0
  5
177C
 10
439.381
 20
254.563
 30
0.000000
  70
    32
  0
VERTEX
  8
0
  5
177D
 10
439.340
 20
254.585
 30
0.000000
  70
    32
  0
VERTEX
  8
0
  5
177E
 10
439.300
 20
254.607
 30
0.000000
  70
    32
  0
VERTEX
  8
0
  5
177F
 10
439.259
 20
254.629
 30
0.000000
  70
    32
  0
VERTEX
  8
0
  5
1780
 10
439.218
 20
254.651
 30
0.000000
  70
    32
  0
VERTEX
  8
0
  5
1781
 10
439.177
 20
254.672
 30
0.000000
  70
    32
  0
VERTEX
  8
0
  5
1782
 10
439.135
 20
254.694
 30
0.000000
  70
    32
  0
VERTEX
  8
0
  5
1783
 10
439.092
 20
254.715
 30
0.000000
  70
    32
  0
VERTEX
  8
0
  5
1784
 10
439.050
 20
254.737
 30
0.000000
  70
    32
  0
VERTEX
  8
0
  5
1785
 10
439.006
 20
254.758
 30
0.000000
  70
    32
  0
VERTEX
  8
0
  5
1786
 10
438.963
 20
254.779
 30
0.000000
  70
    32
  0
VERTEX
  8
0
  5
1787
 10
438.919
 20
254.800
 30
0.000000
  70
    32
  0
VERTEX
  8
0
  5
1788
 10
438.875
 20
254.821
 30
0.000000
  70
    32
  0
VERTEX
  8
0
  5
1789
 10
438.830
 20
254.842
 30
0.000000
  70
    32
  0
VERTEX
  8
0
  5
178A
 10
438.785
 20
254.863
 30
0.000000
  70
    32
  0
VERTEX
  8
0
  5
178B
 10
438.740
 20
254.884
 30
0.000000
  70
    32
  0
VERTEX
  8
0
  5
178C
 10
438.694
 20
254.905
 30
0.000000
  70
    32
  0
VERTEX
  8
0
  5
178D
 10
438.648
 20
254.925
 30
0.000000
  70
    32
  0
VERTEX
  8
0
  5
178E
 10
438.602
 20
254.946
 30
0.000000
  70
    32
  0
VERTEX
  8
0
  5
178F
 10
438.555
 20
254.966
 30
0.000000
  70
    32
  0
VERTEX
  8
0
  5
1790
 10
438.508
 20
254.987
 30
0.000000
  70
    32
  0
VERTEX
  8
0
  5
1791
 10
438.461
 20
255.007
 30
0.000000
  70
    32
  0
VERTEX
  8
0
  5
1792
 10
438.413
 20
255.027
 30
0.000000
  70
    32
  0
VERTEX
  8
0
  5
1793
 10
438.365
 20
255.047
 30
0.000000
  70
    32
  0
VERTEX
  8
0
  5
1794
 10
438.316
 20
255.067
 30
0.000000
  70
    32
  0
VERTEX
  8
0
  5
1795
 10
438.267
 20
255.087
 30
0.000000
  70
    32
  0
VERTEX
  8
0
  5
1796
 10
438.218
 20
255.107
 30
0.000000
  70
    32
  0
VERTEX
  8
0
  5
1797
 10
438.168
 20
255.127
 30
0.000000
  70
    32
  0
VERTEX
  8
0
  5
1798
 10
438.118
 20
255.146
 30
0.000000
  70
    32
  0
VERTEX
  8
0
  5
1799
 10
438.068
 20
255.166
 30
0.000000
  70
    32
  0
VERTEX
  8
0
  5
179A
 10
438.017
 20
255.185
 30
0.000000
  70
    32
  0
VERTEX
  8
0
  5
179B
 10
437.966
 20
255.205
 30
0.000000
  70
    32
  0
VERTEX
  8
0
  5
179C
 10
437.915
 20
255.224
 30
0.000000
  70
    32
  0
VERTEX
  8
0
  5
179D
 10
437.863
 20
255.243
 30
0.000000
  70
    32
  0
VERTEX
  8
0
  5
179E
 10
437.811
 20
255.262
 30
0.000000
  70
    32
  0
VERTEX
  8
0
  5
179F
 10
437.759
 20
255.281
 30
0.000000
  70
    32
  0
SEQEND
  8
0
  5
17A0
  0
ARC
  5
1284
  8
0
 10
444.20342170314711
 20
262.92746399593159
 30
0.0
 40
10.0
 50
211.0238190760582
 51
229.77460563426351
  0
ARC
  5
1285
  8
0
 10
410.85259562548282
 20
262.92746399593159
 30
0.0
 40
10.0
 50
310.22539436573652
 51
328.97618092394111
  0
POLYLINE
  5
1286
  8
0
 10
417.2970478274155
 20
255.28115949750514
 30
0.0
 66
     1
 70
     8
  0
VERTEX
  8
0
  5
17A1
 10
417.297
 20
255.281
 30
0.000000
  70
    32
  0
VERTEX
  8
0
  5
17A2
 10
417.245
 20
255.262
 30
0.000000
  70
    32
  0
VERTEX
  8
0
  5
17A3
 10
417.193
 20
255.243
 30
0.000000
  70
    32
  0
VERTEX
  8
0
  5
17A4
 10
417.141
 20
255.224
 30
0.000000
  70
    32
  0
VERTEX
  8
0
  5
17A5
 10
417.090
 20
255.205
 30
0.000000
  70
    32
  0
VERTEX
  8
0
  5
17A6
 10
417.039
 20
255.185
 30
0.000000
  70
    32
  0
VERTEX
  8
0
  5
17A7
 10
416.988
 20
255.166
 30
0.000000
  70
    32
  0
VERTEX
  8
0
  5
17A8
 10
416.938
 20
255.146
 30
0.000000
  70
    32
  0
VERTEX
  8
0
  5
17A9
 10
416.888
 20
255.127
 30
0.000000
  70
    32
  0
VERTEX
  8
0
  5
17AA
 10
416.838
 20
255.107
 30
0.000000
  70
    32
  0
VERTEX
  8
0
  5
17AB
 10
416.789
 20
255.087
 30
0.000000
  70
    32
  0
VERTEX
  8
0
  5
17AC
 10
416.740
 20
255.067
 30
0.000000
  70
    32
  0
VERTEX
  8
0
  5
17AD
 10
416.691
 20
255.047
 30
0.000000
  70
    32
  0
VERTEX
  8
0
  5
17AE
 10
416.643
 20
255.027
 30
0.000000
  70
    32
  0
VERTEX
  8
0
  5
17AF
 10
416.595
 20
255.007
 30
0.000000
  70
    32
  0
VERTEX
  8
0
  5
17B0
 10
416.548
 20
254.987
 30
0.000000
  70
    32
  0
VERTEX
  8
0
  5
17B1
 10
416.501
 20
254.966
 30
0.000000
  70
    32
  0
VERTEX
  8
0
  5
17B2
 10
416.454
 20
254.946
 30
0.000000
  70
    32
  0
VERTEX
  8
0
  5
17B3
 10
416.408
 20
254.925
 30
0.000000
  70
    32
  0
VERTEX
  8
0
  5
17B4
 10
416.362
 20
254.905
 30
0.000000
  70
    32
  0
VERTEX
  8
0
  5
17B5
 10
416.316
 20
254.884
 30
0.000000
  70
    32
  0
VERTEX
  8
0
  5
17B6
 10
416.271
 20
254.863
 30
0.000000
  70
    32
  0
VERTEX
  8
0
  5
17B7
 10
416.226
 20
254.842
 30
0.000000
  70
    32
  0
VERTEX
  8
0
  5
17B8
 10
416.181
 20
254.821
 30
0.000000
  70
    32
  0
VERTEX
  8
0
  5
17B9
 10
416.137
 20
254.800
 30
0.000000
  70
    32
  0
VERTEX
  8
0
  5
17BA
 10
416.093
 20
254.779
 30
0.000000
  70
    32
  0
VERTEX
  8
0
  5
17BB
 10
416.050
 20
254.758
 30
0.000000
  70
    32
  0
VERTEX
  8
0
  5
17BC
 10
416.007
 20
254.737
 30
0.000000
  70
    32
  0
VERTEX
  8
0
  5
17BD
 10
415.964
 20
254.715
 30
0.000000
  70
    32
  0
VERTEX
  8
0
  5
17BE
 10
415.921
 20
254.694
 30
0.000000
  70
    32
  0
VERTEX
  8
0
  5
17BF
 10
415.880
 20
254.672
 30
0.000000
  70
    32
  0
VERTEX
  8
0
  5
17C0
 10
415.838
 20
254.651
 30
0.000000
  70
    32
  0
VERTEX
  8
0
  5
17C1
 10
415.797
 20
254.629
 30
0.000000
  70
    32
  0
VERTEX
  8
0
  5
17C2
 10
415.756
 20
254.607
 30
0.000000
  70
    32
  0
VERTEX
  8
0
  5
17C3
 10
415.716
 20
254.585
 30
0.000000
  70
    32
  0
VERTEX
  8
0
  5
17C4
 10
415.675
 20
254.563
 30
0.000000
  70
    32
  0
VERTEX
  8
0
  5
17C5
 10
415.636
 20
254.541
 30
0.000000
  70
    32
  0
VERTEX
  8
0
  5
17C6
 10
415.597
 20
254.519
 30
0.000000
  70
    32
  0
VERTEX
  8
0
  5
17C7
 10
415.558
 20
254.497
 30
0.000000
  70
    32
  0
VERTEX
  8
0
  5
17C8
 10
415.519
 20
254.475
 30
0.000000
  70
    32
  0
VERTEX
  8
0
  5
17C9
 10
415.481
 20
254.453
 30
0.000000
  70
    32
  0
VERTEX
  8
0
  5
17CA
 10
415.443
 20
254.431
 30
0.000000
  70
    32
  0
VERTEX
  8
0
  5
17CB
 10
415.406
 20
254.408
 30
0.000000
  70
    32
  0
VERTEX
  8
0
  5
17CC
 10
415.369
 20
254.386
 30
0.000000
  70
    32
  0
VERTEX
  8
0
  5
17CD
 10
415.333
 20
254.363
 30
0.000000
  70
    32
  0
VERTEX
  8
0
  5
17CE
 10
415.297
 20
254.340
 30
0.000000
  70
    32
  0
VERTEX
  8
0
  5
17CF
 10
415.261
 20
254.318
 30
0.000000
  70
    32
  0
VERTEX
  8
0
  5
17D0
 10
415.226
 20
254.295
 30
0.000000
  70
    32
  0
VERTEX
  8
0
  5
17D1
 10
415.191
 20
254.272
 30
0.000000
  70
    32
  0
VERTEX
  8
0
  5
17D2
 10
415.156
 20
254.249
 30
0.000000
  70
    32
  0
VERTEX
  8
0
  5
17D3
 10
415.122
 20
254.226
 30
0.000000
  70
    32
  0
VERTEX
  8
0
  5
17D4
 10
415.088
 20
254.203
 30
0.000000
  70
    32
  0
VERTEX
  8
0
  5
17D5
 10
415.055
 20
254.180
 30
0.000000
  70
    32
  0
VERTEX
  8
0
  5
17D6
 10
415.022
 20
254.157
 30
0.000000
  70
    32
  0
VERTEX
  8
0
  5
17D7
 10
414.990
 20
254.134
 30
0.000000
  70
    32
  0
VERTEX
  8
0
  5
17D8
 10
414.958
 20
254.111
 30
0.000000
  70
    32
  0
VERTEX
  8
0
  5
17D9
 10
414.926
 20
254.088
 30
0.000000
  70
    32
  0
VERTEX
  8
0
  5
17DA
 10
414.895
 20
254.064
 30
0.000000
  70
    32
  0
VERTEX
  8
0
  5
17DB
 10
414.864
 20
254.041
 30
0.000000
  70
    32
  0
VERTEX
  8
0
  5
17DC
 10
414.834
 20
254.017
 30
0.000000
  70
    32
  0
VERTEX
  8
0
  5
17DD
 10
414.804
 20
253.994
 30
0.000000
  70
    32
  0
VERTEX
  8
0
  5
17DE
 10
414.774
 20
253.970
 30
0.000000
  70
    32
  0
VERTEX
  8
0
  5
17DF
 10
414.745
 20
253.947
 30
0.000000
  70
    32
  0
VERTEX
  8
0
  5
17E0
 10
414.716
 20
253.923
 30
0.000000
  70
    32
  0
VERTEX
  8
0
  5
17E1
 10
414.688
 20
253.899
 30
0.000000
  70
    32
  0
VERTEX
  8
0
  5
17E2
 10
414.660
 20
253.875
 30
0.000000
  70
    32
  0
VERTEX
  8
0
  5
17E3
 10
414.632
 20
253.852
 30
0.000000
  70
    32
  0
VERTEX
  8
0
  5
17E4
 10
414.605
 20
253.828
 30
0.000000
  70
    32
  0
VERTEX
  8
0
  5
17E5
 10
414.579
 20
253.804
 30
0.000000
  70
    32
  0
VERTEX
  8
0
  5
17E6
 10
414.553
 20
253.780
 30
0.000000
  70
    32
  0
VERTEX
  8
0
  5
17E7
 10
414.527
 20
253.756
 30
0.000000
  70
    32
  0
VERTEX
  8
0
  5
17E8
 10
414.501
 20
253.732
 30
0.000000
  70
    32
  0
VERTEX
  8
0
  5
17E9
 10
414.476
 20
253.707
 30
0.000000
  70
    32
  0
VERTEX
  8
0
  5
17EA
 10
414.452
 20
253.683
 30
0.000000
  70
    32
  0
VERTEX
  8
0
  5
17EB
 10
414.428
 20
253.659
 30
0.000000
  70
    32
  0
VERTEX
  8
0
  5
17EC
 10
414.404
 20
253.635
 30
0.000000
  70
    32
  0
VERTEX
  8
0
  5
17ED
 10
414.381
 20
253.610
 30
0.000000
  70
    32
  0
VERTEX
  8
0
  5
17EE
 10
414.358
 20
253.586
 30
0.000000
  70
    32
  0
VERTEX
  8
0
  5
17EF
 10
414.336
 20
253.562
 30
0.000000
  70
    32
  0
VERTEX
  8
0
  5
17F0
 10
414.314
 20
253.537
 30
0.000000
  70
    32
  0
VERTEX
  8
0
  5
17F1
 10
414.292
 20
253.513
 30
0.000000
  70
    32
  0
VERTEX
  8
0
  5
17F2
 10
414.271
 20
253.488
 30
0.000000
  70
    32
  0
VERTEX
  8
0
  5
17F3
 10
414.251
 20
253.464
 30
0.000000
  70
    32
  0
VERTEX
  8
0
  5
17F4
 10
414.230
 20
253.439
 30
0.000000
  70
    32
  0
VERTEX
  8
0
  5
17F5
 10
414.211
 20
253.415
 30
0.000000
  70
    32
  0
VERTEX
  8
0
  5
17F6
 10
414.191
 20
253.390
 30
0.000000
  70
    32
  0
VERTEX
  8
0
  5
17F7
 10
414.172
 20
253.365
 30
0.000000
  70
    32
  0
VERTEX
  8
0
  5
17F8
 10
414.154
 20
253.340
 30
0.000000
  70
    32
  0
VERTEX
  8
0
  5
17F9
 10
414.136
 20
253.316
 30
0.000000
  70
    32
  0
VERTEX
  8
0
  5
17FA
 10
414.118
 20
253.291
 30
0.000000
  70
    32
  0
VERTEX
  8
0
  5
17FB
 10
414.101
 20
253.266
 30
0.000000
  70
    32
  0
VERTEX
  8
0
  5
17FC
 10
414.084
 20
253.241
 30
0.000000
  70
    32
  0
VERTEX
  8
0
  5
17FD
 10
414.068
 20
253.216
 30
0.000000
  70
    32
  0
VERTEX
  8
0
  5
17FE
 10
414.052
 20
253.191
 30
0.000000
  70
    32
  0
VERTEX
  8
0
  5
17FF
 10
414.037
 20
253.166
 30
0.000000
  70
    32
  0
VERTEX
  8
0
  5
1800
 10
414.022
 20
253.141
 30
0.000000
  70
    32
  0
VERTEX
  8
0
  5
1801
 10
414.007
 20
253.116
 30
0.000000
  70
    32
  0
VERTEX
  8
0
  5
1802
 10
413.993
 20
253.091
 30
0.000000
  70
    32
  0
VERTEX
  8
0
  5
1803
 10
413.980
 20
253.066
 30
0.000000
  70
    32
  0
VERTEX
  8
0
  5
1804
 10
413.966
 20
253.041
 30
0.000000
  70
    32
  0
VERTEX
  8
0
  5
1805
 10
413.954
 20
253.016
 30
0.000000
  70
    32
  0
VERTEX
  8
0
  5
1806
 10
413.941
 20
252.991
 30
0.000000
  70
    32
  0
VERTEX
  8
0
  5
1807
 10
413.930
 20
252.966
 30
0.000000
  70
    32
  0
VERTEX
  8
0
  5
1808
 10
413.918
 20
252.941
 30
0.000000
  70
    32
  0
VERTEX
  8
0
  5
1809
 10
413.907
 20
252.915
 30
0.000000
  70
    32
  0
VERTEX
  8
0
  5
180A
 10
413.897
 20
252.890
 30
0.000000
  70
    32
  0
VERTEX
  8
0
  5
180B
 10
413.887
 20
252.865
 30
0.000000
  70
    32
  0
VERTEX
  8
0
  5
180C
 10
413.877
 20
252.840
 30
0.000000
  70
    32
  0
VERTEX
  8
0
  5
180D
 10
413.868
 20
252.814
 30
0.000000
  70
    32
  0
VERTEX
  8
0
  5
180E
 10
413.859
 20
252.789
 30
0.000000
  70
    32
  0
VERTEX
  8
0
  5
180F
 10
413.851
 20
252.764
 30
0.000000
  70
    32
  0
VERTEX
  8
0
  5
1810
 10
413.843
 20
252.738
 30
0.000000
  70
    32
  0
VERTEX
  8
0
  5
1811
 10
413.835
 20
252.713
 30
0.000000
  70
    32
  0
VERTEX
  8
0
  5
1812
 10
413.829
 20
252.688
 30
0.000000
  70
    32
  0
VERTEX
  8
0
  5
1813
 10
413.822
 20
252.662
 30
0.000000
  70
    32
  0
VERTEX
  8
0
  5
1814
 10
413.816
 20
252.637
 30
0.000000
  70
    32
  0
VERTEX
  8
0
  5
1815
 10
413.810
 20
252.612
 30
0.000000
  70
    32
  0
VERTEX
  8
0
  5
1816
 10
413.805
 20
252.586
 30
0.000000
  70
    32
  0
VERTEX
  8
0
  5
1817
 10
413.800
 20
252.561
 30
0.000000
  70
    32
  0
VERTEX
  8
0
  5
1818
 10
413.796
 20
252.535
 30
0.000000
  70
    32
  0
VERTEX
  8
0
  5
1819
 10
413.792
 20
252.510
 30
0.000000
  70
    32
  0
VERTEX
  8
0
  5
181A
 10
413.789
 20
252.485
 30
0.000000
  70
    32
  0
VERTEX
  8
0
  5
181B
 10
413.786
 20
252.459
 30
0.000000
  70
    32
  0
VERTEX
  8
0
  5
181C
 10
413.784
 20
252.434
 30
0.000000
  70
    32
  0
VERTEX
  8
0
  5
181D
 10
413.782
 20
252.408
 30
0.000000
  70
    32
  0
VERTEX
  8
0
  5
181E
 10
413.780
 20
252.383
 30
0.000000
  70
    32
  0
VERTEX
  8
0
  5
181F
 10
413.779
 20
252.357
 30
0.000000
  70
    32
  0
VERTEX
  8
0
  5
1820
 10
413.778
 20
252.332
 30
0.000000
  70
    32
  0
VERTEX
  8
0
  5
1821
 10
413.778
 20
252.306
 30
0.000000
  70
    32
  0
SEQEND
  8
0
  5
1822
  0
ARC
  5
1287
  8
0
 10
447.68117384294823
 20
245.07947712434071
 30
0.0
 40
13.5
 50
154.9957370749591
 51
212.6035820132258
  0
ARC
  5
1288
  8
0
 10
433.63389055975131
 20
251.6311053465171
 30
0.0
 40
2.0
 50
334.99573707495921
 51
0.0
  0
LINE
  5
1289
  8
0
 10
434.73134367394943
 20
259.4558166681939
 30
0.0
 11
435.6337437383354
 21
251.65533887923451
 31
0.0
  0
LINE
  5
128A
  8
0
 10
434.63989601243333
 20
259.77536051789349
 30
0.0
 11
434.73134367394943
 21
259.4558166681939
 31
0.0
  0
LINE
  5
128B
  8
0
 10
434.01507719329243
 20
261.86258247711169
 30
0.0
 11
434.18564611125493
 21
259.77536051789349
 31
0.0
  0
ARC
  5
128C
  8
0
 10
441.6382038359377
 20
255.79969945549871
 30
0.0
 40
20.0
 50
117.22668439682791
 51
131.85703956953191
  0
ARC
  5
128D
  8
0
 10
433.40298593015399
 20
271.80536051789352
 30
0.0
 40
2.0
 50
90.0
 51
117.22668439682791
  0
ARC
  5
128E
  8
0
 10
502.12685217183378
 20
321.3914012438961
 30
0.0
 40
90.0
 50
214.79142625443711
 51
219.8857855585226
  0
ARC
  5
128F
  8
0
 10
428.62635533141128
 20
270.32353498524958
 30
0.0
 40
0.5
 50
131.85703956953191
 51
214.79142625443771
  0
ARC
  5
1290
  8
0
 10
426.50734517851828
 20
259.09962029960423
 30
0.0
 40
8.0
 50
20.2044001903514
 51
34.911162194464822
  0
ARC
  5
1291
  8
0
 10
413.41781349269229
 20
255.79969945549871
 30
0.0
 40
20.0
 50
48.14296043046803
 51
62.773315603172058
  0
ARC
  5
1292
  8
0
 10
421.65303139847589
 20
271.80536051789352
 30
0.0
 40
2.0
 50
62.773315603172058
 51
90.0
  0
ARC
  5
1293
  8
0
 10
426.42966199721877
 20
270.32353498524958
 30
0.0
 40
0.5
 50
325.20857374556232
 51
48.14296043046803
  0
ARC
  5
1294
  8
0
 10
352.9291651567961
 20
321.3914012438961
 30
0.0
 40
90.0
 50
320.11421444147737
 51
325.208573745563
  0
ARC
  5
1295
  8
0
 10
428.5486721501116
 20
259.09962029960423
 30
0.0
 40
8.0
 50
145.08883780553521
 51
159.79559980964859
  0
LINE
  5
1296
  8
0
 10
421.04094013533762
 20
261.86258247711169
 30
0.0
 11
420.87037121737501
 21
259.77536051789349
 31
0.0
  0
LINE
  5
1297
  8
0
 10
420.41612131619672
 20
259.77536051789349
 30
0.0
 11
420.32467365468062
 21
259.4558166681939
 31
0.0
  0
LINE
  5
1298
  8
0
 10
420.32467365468062
 20
259.4558166681939
 30
0.0
 11
419.42227359029471
 21
251.65533887923451
 31
0.0
  0
LINE
  5
1299
  8
0
 10
421.028008664315
 20
273.56054585246511
 30
0.0
 11
421.028008664315
 21
261.7253833857776
 31
0.0
  0
LINE
  5
12C5
  8
0
 10
136.12709598900321
 20
160.80536051789349
 30
0.0
 11
128.12709598900321
 21
160.8053605178936
 31
0.0
  0
LINE
  5
12C6
  8
0
 10
126.12709598900319
 20
210.8053605178936
 30
0.0
 11
126.1270959890031
 21
162.8053605178938
 31
0.0
  0
LINE
  5
12C7
  8
3
 10
127.0740959890031
 20
205.8053605178936
 30
0.0
 11
127.0740959890031
 21
161.85836051789369
 31
0.0
  0
LINE
  5
12C8
  8
3
 10
137.18009598900321
 20
205.8053605178936
 30
0.0
 11
137.18009598900321
 21
161.85836051789349
 31
0.0
  0
LINE
  5
12C9
  8
0
 10
138.12709598900321
 20
210.8053605178936
 30
0.0
 11
138.1270959890031
 21
162.8053605178934
 31
0.0
  0
LINE
  5
12CA
  8
0
 10
136.12709598900321
 20
160.80536051789349
 30
0.0
 11
138.12709598900321
 21
162.80536051789349
 31
0.0
  0
LINE
  5
12CB
  8
0
 10
128.12709598900321
 20
160.8053605178936
 30
0.0
 11
126.12709598900319
 21
162.8053605178936
 31
0.0
  0
LINE
  5
12CC
  8
0
 10
138.12709598900329
 20
162.8053605178936
 30
0.0
 11
126.12709598900319
 21
162.8053605178936
 31
0.0
  0
LINE
  5
12CD
  8
0
 10
126.1270959890031
 20
205.8053605178936
 30
0.0
 11
138.12709598900329
 21
205.8053605178936
 31
0.0
  0
LINE
  5
12CE
  8
3
 10
137.18009598900321
 20
205.8053605178936
 30
0.0
 11
138.12709598900329
 21
207.44561263266129
 31
0.0
  0
LINE
  5
12CF
  8
3
 10
127.0740959890031
 20
205.8053605178936
 30
0.0
 11
126.12709598900319
 21
207.44561263266129
 31
0.0
  0
LINE
  5
12D3
  8
0
 10
247.47260149911611
 20
160.80536051789349
 30
0.0
 11
239.47260149911611
 21
160.8053605178936
 31
0.0
  0
LINE
  5
12D4
  8
0
 10
249.47260149911611
 20
162.8053605178936
 30
0.0
 11
237.47260149911611
 21
162.8053605178936
 31
0.0
  0
LINE
  5
12D5
  8
0
 10
237.472601499116
 20
205.8053605178936
 30
0.0
 11
249.47260149911611
 21
205.8053605178936
 31
0.0
  0
LINE
  5
12D6
  8
3
 10
238.419601499116
 20
205.8053605178936
 30
0.0
 11
238.419601499116
 21
161.85836051789369
 31
0.0
  0
LINE
  5
12D7
  8
0
 10
237.47260149911611
 20
210.8053605178936
 30
0.0
 11
237.4726014991158
 21
162.8053605178938
 31
0.0
  0
LINE
  5
12D8
  8
0
 10
239.47260149911611
 20
160.8053605178936
 30
0.0
 11
237.47260149911611
 21
162.8053605178936
 31
0.0
  0
LINE
  5
12D9
  8
3
 10
238.419601499116
 20
205.8053605178936
 30
0.0
 11
237.47260149911611
 21
207.44561263266129
 31
0.0
  0
LINE
  5
12DA
  8
0
 10
249.47260149911611
 20
210.8053605178936
 30
0.0
 11
249.4726014991158
 21
162.80536051789329
 31
0.0
  0
LINE
  5
12DB
  8
3
 10
248.52560149911611
 20
205.8053605178936
 30
0.0
 11
248.52560149911611
 21
161.85836051789349
 31
0.0
  0
LINE
  5
12DC
  8
0
 10
247.47260149911611
 20
160.80536051789349
 30
0.0
 11
249.47260149911611
 21
162.80536051789349
 31
0.0
  0
LINE
  5
12DD
  8
3
 10
248.52560149911611
 20
205.8053605178936
 30
0.0
 11
249.47260149911611
 21
207.44561263266129
 31
0.0
  0
LINE
  5
12DF
  8
3
 10
432.59100866431498
 20
205.8053605178936
 30
0.0
 11
432.59100866431498
 21
161.8583605178936
 31
0.0
  0
LINE
  5
12E0
  8
0
 10
433.53800866431487
 20
210.8053605178936
 30
0.0
 11
433.53800866431487
 21
162.80536051789349
 31
0.0
  0
LINE
  5
12E1
  8
0
 10
421.53800866431499
 20
210.8053605178936
 30
0.0
 11
421.53800866431482
 21
162.8053605178938
 31
0.0
  0
LINE
  5
12E2
  8
3
 10
422.48500866431488
 20
205.8053605178936
 30
0.0
 11
422.48500866431482
 21
161.8583605178938
 31
0.0
  0
LINE
  5
12E3
  8
0
 10
423.53800866431499
 20
160.8053605178936
 30
0.0
 11
421.53800866431499
 21
162.8053605178936
 31
0.0
  0
LINE
  5
12E4
  8
0
 10
433.53800866431499
 20
162.8053605178936
 30
0.0
 11
421.53800866431499
 21
162.8053605178936
 31
0.0
  0
LINE
  5
12E5
  8
0
 10
431.53800866431487
 20
160.80536051789349
 30
0.0
 11
423.53800866431499
 21
160.8053605178936
 31
0.0
  0
LINE
  5
12E6
  8
0
 10
431.53800866431487
 20
160.80536051789349
 30
0.0
 11
433.53800866431487
 21
162.80536051789349
 31
0.0
  0
LINE
  5
12E7
  8
3
 10
422.48500866431488
 20
205.8053605178936
 30
0.0
 11
421.53800866431499
 21
207.44561263266129
 31
0.0
  0
LINE
  5
12E8
  8
0
 10
421.53800866431487
 20
205.8053605178936
 30
0.0
 11
433.53800866431499
 21
205.8053605178936
 31
0.0
  0
LINE
  5
12E9
  8
3
 10
432.59100866431498
 20
205.8053605178936
 30
0.0
 11
433.53800866431499
 21
207.44561263266129
 31
0.0
  0
LINE
  5
1344
  8
0
 10
239.66260149911611
 20
354.86066272205869
 30
0.0
 11
239.66260149911619
 21
353.51066272205873
 31
0.0
  0
LINE
  5
1345
  8
0
 10
247.2626014991161
 20
354.86066272205869
 30
0.0
 11
247.2626014991161
 21
353.51066272205873
 31
0.0
  0
LINE
  5
1346
  8
0
 10
245.25972341732071
 20
354.86066272205869
 30
0.0
 11
247.2626014991161
 21
354.86066272205869
 31
0.0
  0
LINE
  5
1347
  8
0
 10
245.2597234173206
 20
353.51066272205873
 30
0.0
 11
247.2626014991161
 21
353.51066272205873
 31
0.0
  0
LINE
  5
1348
  8
0
 10
239.66260149911611
 20
354.86066272205869
 30
0.0
 11
241.66547958091149
 21
354.86066272205869
 31
0.0
  0
LINE
  5
1349
  8
0
 10
239.66260149911619
 20
353.51066272205873
 30
0.0
 11
241.66547958091161
 21
353.51066272205873
 31
0.0
  0
CIRCLE
  5
134A
  8
0
 10
243.46260149911609
 20
354.18566272205879
 30
0.0
 40
3.999175415007485
  0
CIRCLE
  5
135C
  8
0
 10
243.46260149911609
 20
354.18566272205879
 30
0.0
 40
6.75
  0
ARC
  5
135D
  8
0
 10
245.82624092206831
 20
355.55031057916739
 30
0.0
 40
0.8925000000000011
 50
163.3417582272229
 51
230.59829508168929
  0
ARC
  5
135E
  8
0
 10
245.82624092206831
 20
352.8210148649502
 30
0.0
 40
0.8925000000000002
 50
129.40170491832319
 51
196.65824177277699
  0
ARC
  5
135F
  8
0
 10
244.4826014991161
 20
352.4189708983385
 30
0.0
 40
0.5099999999999997
 50
223.3417582272223
 51
16.658241772777039
  0
ARC
  5
1360
  8
0
 10
243.46260149911609
 20
351.45636700784149
 30
0.0
 40
0.8925000000000002
 50
43.341758227222343
 51
136.65824177277651
  0
ARC
  5
1361
  8
0
 10
242.44260149911619
 20
352.4189708983385
 30
0.0
 40
0.5100000000000002
 50
163.3417582272229
 51
316.65824177277773
  0
ARC
  5
1362
  8
0
 10
241.09896207616401
 20
352.8210148649502
 30
0.0
 40
0.8925000000000011
 50
343.3417582272229
 51
50.598295081676767
  0
ARC
  5
1363
  8
0
 10
244.4826014991161
 20
355.95235454577897
 30
0.0
 40
0.5100000000000003
 50
343.3417582272229
 51
136.65824177277759
  0
ARC
  5
1364
  8
0
 10
243.46260149911609
 20
356.91495843627598
 30
0.0
 40
0.8924999999999984
 50
223.3417582272223
 51
316.65824177277773
  0
ARC
  5
1365
  8
0
 10
242.44260149911619
 20
355.95235454577897
 30
0.0
 40
0.5099999999999997
 50
43.341758227222343
 51
196.65824177277699
  0
ARC
  5
1366
  8
0
 10
241.09896207616401
 20
355.55031057916739
 30
0.0
 40
0.8925000000000004
 50
309.40170491831071
 51
16.658241772777039
  0
LINE
  5
136C
  8
0
 10
236.71260149911609
 20
252.41292793438569
 30
0.0
 11
236.712601499116
 21
249.12143423128191
 31
0.0
  0
LINE
  5
136D
  8
0
 10
247.4617769141235
 20
253.80536051789349
 30
0.0
 11
239.4634260841087
 21
253.80536051789349
 31
0.0
  0
ARC
  5
136E
  8
0
 10
243.46260149911609
 20
242.4913605178935
 30
0.0
 40
12.0
 50
109.4670447595973
 51
124.2288663278118
  0
LINE
  5
136F
  8
0
 10
244.56196434404319
 20
252.41292793438569
 30
0.0
 11
236.71260149911609
 21
252.41292793438569
 31
0.0
  0
ARC
  5
1370
  8
0
 10
243.46260149911609
 20
242.4913605178935
 30
0.0
 40
12.0
 50
68.926730289442943
 51
70.532955240402714
  0
LINE
  5
1372
  8
0
 10
125.3770959890031
 20
252.41292793438569
 30
0.0
 11
125.3770959890031
 21
250.14278515743041
 31
0.0
  0
LINE
  5
1373
  8
0
 10
136.12627140401059
 20
253.80536051789349
 30
0.0
 11
128.12792057399579
 21
253.80536051789349
 31
0.0
  0
ARC
  5
1374
  8
0
 10
132.12709598900321
 20
242.4913605178935
 30
0.0
 40
12.0
 50
109.4670447595973
 51
124.2288663278118
  0
LINE
  5
1375
  8
0
 10
138.8770959890031
 20
252.41292793438569
 30
0.0
 11
125.3770959890031
 21
252.41292793438569
 31
0.0
  0
LINE
  5
1376
  8
0
 10
138.8770959890031
 20
252.41292793438569
 30
0.0
 11
138.8770959890031
 21
250.14278515743041
 31
0.0
  0
ARC
  5
1377
  8
0
 10
132.12709598900321
 20
242.4913605178935
 30
0.0
 40
12.0
 50
55.771133672188213
 51
70.532955240402714
  0
TEXT
  5
1468
  8
0
 62
     3
 10
0.0
 20
0.0
 30
0.0
 40
10.0
  1
FKR12X50-OG
  7
STANDARD1
  0
ENDSEC
  0
EOF
