  0
SECTION
  2
HEADER
  9
$ACADVER
  1
AC1009
  9
$INSBASE
 10
0.0
 20
0.0
 30
0.0
  9
$EXTMIN
 10
0.0
 20
-2.960436562073669
 30
0.0
  9
$EXTMAX
 10
461.278008664315
 20
392.93566272205868
 30
0.0
  9
$LIMMIN
 10
0.0
 20
0.0
  9
$LIMMAX
 10
187.5
 20
135.0
  9
$ORTHOMODE
 70
     0
  9
$REGENMODE
 70
     1
  9
$FILLMODE
 70
     1
  9
$QTEXTMODE
 70
     0
  9
$MIRRTEXT
 70
     0
  9
$DRAGMODE
 70
     2
  9
$LTSCALE
 40
10.0
  9
$OSMODE
 70
    55
  9
$ATTMODE
 70
     1
  9
$TEXTSIZE
 40
4.0
  9
$TRACEWID
 40
0.05
  9
$TEXTSTYLE
  7
STANDARD
  9
$CLAYER
  8
0
  9
$CELTYPE
  6
BYLAYER
  9
$CECOLOR
 62
   256
  9
$DIMSCALE
 40
0.5
  9
$DIMASZ
 40
3.0
  9
$DIMEXO
 40
2.0
  9
$DIMDLI
 40
0.38
  9
$DIMRND
 40
0.0
  9
$DIMDLE
 40
0.0
  9
$DIMEXE
 40
2.0
  9
$DIMTP
 40
0.0
  9
$DIMTM
 40
0.0
  9
$DIMTXT
 40
3.0
  9
$DIMCEN
 40
0.0
  9
$DIMTSZ
 40
0.0
  9
$DIMTOL
 70
     0
  9
$DIMLIM
 70
     0
  9
$DIMTIH
 70
     0
  9
$DIMTOH
 70
     0
  9
$DIMSE1
 70
     0
  9
$DIMSE2
 70
     0
  9
$DIMTAD
 70
     1
  9
$DIMZIN
 70
     0
  9
$DIMBLK
  1

  9
$DIMASO
 70
     0
  9
$DIMSHO
 70
     0
  9
$DIMPOST
  1

  9
$DIMAPOST
  1

  9
$DIMALT
 70
     0
  9
$DIMALTD
 70
     2
  9
$DIMALTF
 40
25.399999999999999
  9
$DIMLFAC
 40
1.0
  9
$DIMTOFL
 70
     0
  9
$DIMTVP
 40
1.6000000000000001
  9
$DIMTIX
 70
     1
  9
$DIMSOXD
 70
     0
  9
$DIMSAH
 70
     0
  9
$DIMBLK1
  1

  9
$DIMBLK2
  1

  9
$DIMSTYLE
  2
STANDARD
  9
$DIMCLRD
 70
     0
  9
$DIMCLRE
 70
     0
  9
$DIMCLRT
 70
     0
  9
$DIMTFAC
 40
1.0
  9
$DIMGAP
 40
0.09
  9
$LUNITS
 70
     2
  9
$LUPREC
 70
     4
  9
$SKETCHINC
 40
0.1
  9
$FILLETRAD
 40
1.25
  9
$AUNITS
 70
     0
  9
$AUPREC
 70
     0
  9
$MENU
  1
E:\r13\win\SUPPORT\ACAD
  9
$ELEVATION
 40
0.0
  9
$PELEVATION
 40
0.0
  9
$THICKNESS
 40
0.0
  9
$LIMCHECK
 70
     0
  9
$BLIPMODE
 70
     0
  9
$CHAMFERA
 40
0.0
  9
$CHAMFERB
 40
0.0
  9
$SKPOLY
 70
     0
  9
$TDCREATE
 40
2449840.6143865739
  9
$TDUPDATE
 40
2456598.6599593642
  9
$TDINDWG
 40
0.2854971644
  9
$TDUSRTIMER
 40
0.2854971644
  9
$USRTIMER
 70
     1
  9
$ANGBASE
 50
0.0
  9
$ANGDIR
 70
     0
  9
$PDMODE
 70
     0
  9
$PDSIZE
 40
0.0
  9
$PLINEWID
 40
0.0
  9
$COORDS
 70
     1
  9
$SPLFRAME
 70
     0
  9
$SPLINETYPE
 70
     6
  9
$SPLINESEGS
 70
     8
  9
$ATTDIA
 70
     0
  9
$ATTREQ
 70
     1
  9
$HANDLING
 70
     1
  9
$HANDSEED
  5
1832
  9
$SURFTAB1
 70
     6
  9
$SURFTAB2
 70
     6
  9
$SURFTYPE
 70
     6
  9
$SURFU
 70
     6
  9
$SURFV
 70
     6
  9
$UCSNAME
  2

  9
$UCSORG
 10
0.0
 20
0.0
 30
0.0
  9
$UCSXDIR
 10
1.0
 20
0.0
 30
0.0
  9
$UCSYDIR
 10
0.0
 20
1.0
 30
0.0
  9
$PUCSNAME
  2

  9
$PUCSORG
 10
0.0
 20
0.0
 30
0.0
  9
$PUCSXDIR
 10
1.0
 20
0.0
 30
0.0
  9
$PUCSYDIR
 10
0.0
 20
1.0
 30
0.0
  9
$USERI1
 70
     0
  9
$USERI2
 70
     1
  9
$USERI3
 70
     1
  9
$USERI4
 70
     0
  9
$USERI5
 70
     0
  9
$USERR1
 40
0.0
  9
$USERR2
 40
0.0
  9
$USERR3
 40
0.0
  9
$USERR4
 40
0.0
  9
$USERR5
 40
0.0
  9
$WORLDVIEW
 70
     1
  9
$SHADEDGE
 70
     3
  9
$SHADEDIF
 70
    70
  9
$TILEMODE
 70
     1
  9
$MAXACTVP
 70
    16
  9
$PLIMCHECK
 70
     0
  9
$PEXTMIN
 10
1.0000000000000000E+020
 20
1.0000000000000000E+020
 30
1.0000000000000000E+020
  9
$PEXTMAX
 10
-1.0000000000000000E+020
 20
-1.0000000000000000E+020
 30
-1.0000000000000000E+020
  9
$PLIMMIN
 10
0.0
 20
0.0
  9
$PLIMMAX
 10
12.0
 20
9.0
  9
$UNITMODE
 70
     0
  9
$VISRETAIN
 70
     0
  9
$PLINEGEN
 70
     0
  9
$PSLTSCALE
 70
     0
  0
ENDSEC
  0
SECTION
  2
TABLES
  0
TABLE
  2
VPORT
 70
     1
  0
VPORT
  2
*ACTIVE
 70
     0
 10
0.0
 20
0.0
 11
1.0
 21
1.0
 12
230.63900540615421
 22
255.03711530700659
 13
0.0
 23
0.0
 14
5.0
 24
5.0
 15
5.0
 25
5.0
 16
0.0
 26
0.0
 36
1.0
 17
0.0
 27
0.0
 37
0.0
 40
520.58486797818523
 41
1.7807262569832401
 42
50.0
 43
0.0
 44
0.0
 50
0.0
 51
0.0
 71
     0
 72
   100
 73
     1
 74
     0
 75
     0
 76
     0
 77
     0
 78
     0
  0
ENDTAB
  0
TABLE
  2
LTYPE
 70
     3
  0
LTYPE
  2
CONTINUOUS
 70
     0
  3
Solid Line
 72
    65
 73
     0
 40
0.0
  0
LTYPE
  2
CENTER
 70
     0
  3
____ _ ____ _ ____ _ ____ _ ____ _ ____ _ ____
 72
    65
 73
     4
 40
2.0
 49
1.25
 49
-0.25
 49
0.25
 49
-0.25
  0
LTYPE
  2
PHANTOM2
 70
     0
  3
___ _ _ ___ _ _ ___ _ _ ___ _ _
 72
    65
 73
     6
 40
1.25
 49
0.625
 49
-0.125
 49
0.125
 49
-0.125
 49
0.125
 49
-0.125
  0
ENDTAB
  0
TABLE
  2
LAYER
 70
     3
  0
LAYER
  2
0
 70
     0
 62
     7
  6
CONTINUOUS
  0
LAYER
  2
1
 70
     0
 62
     1
  6
CENTER
  0
LAYER
  2
3
 70
     0
 62
     3
  6
CONTINUOUS
  0
ENDTAB
  0
TABLE
  2
STYLE
 70
     2
  0
STYLE
  2
STANDARD
 70
     0
 40
0.0
 41
1.0
 50
0.0
 71
     0
 42
4.0
  3
TXT
  4
BIGFONT
  0
STYLE
  2
STANDARD1
 70
     0
 40
0.0
 41
1.0
 50
0.0
 71
     0
 42
3.0
  3
txt
  4

  0
ENDTAB
  0
TABLE
  2
VIEW
 70
     1
  0
VIEW
  2
ALL
 70
     0
 40
179.66152299999999
 10
141.903918
 20
89.830760999999995
 41
0.0
 11
0.0
 21
0.0
 31
1.0
 12
0.0
 22
0.0
 32
0.0
 42
0.0
 43
0.0
 44
0.0
 50
0.0
 71
     0
  0
ENDTAB
  0
TABLE
  2
UCS
 70
     0
  0
ENDTAB
  0
TABLE
  2
APPID
 70
     4
  0
APPID
  2
ACAD
 70
     0
  0
APPID
  2
DCO15
 70
     0
  0
APPID
  2
ACAD_MLEADERVER
 70
     0
  0
APPID
  2
ACAD_NAV_VCDISPLAY
 70
     0
  0
ENDTAB
  0
TABLE
  2
DIMSTYLE
 70
     1
  0
DIMSTYLE
  2
STANDARD
 70
     0
  3

  4

  5

  6

  7

 40
1.0
 41
0.18
 42
0.0625
 43
0.38
 44
0.18
 45
0.0
 46
0.0
 47
0.0
 48
0.0
140
0.18
141
0.09
142
0.0
143
25.399999999999999
144
1.0
145
0.0
146
1.0
147
0.09
 71
     0
 72
     0
 73
     1
 74
     1
 75
     0
 76
     0
 77
     0
 78
     0
170
     0
171
     2
172
     0
173
     0
174
     0
175
     0
176
     0
177
     0
178
     0
  0
ENDTAB
  0
ENDSEC
  0
SECTION
  2
BLOCKS
  0
BLOCK
  8
0
  2
$MODEL_SPACE
 70
     0
 10
0.0
 20
0.0
 30
0.0
  3
$MODEL_SPACE
  1

  0
ENDBLK
  5
1BD
  8
0
  0
BLOCK
 67
     1
  8
0
  2
$PAPER_SPACE
 70
     0
 10
0.0
 20
0.0
 30
0.0
  3
$PAPER_SPACE
  1

  0
ENDBLK
  5
1BB
 67
     1
  8
0
  0
ENDSEC
  0
SECTION
  2
ENTITIES
  0
LINE
  5
11FE
  8
0
 10
249.96260149911609
 20
262.22906710372229
 30
0.0
 11
249.96260149911609
 21
240.8053605178936
 31
0.0
  0
LINE
  5
11FF
  8
0
 10
276.96260149911609
 20
240.8053605178936
 30
0.0
 11
276.96260149911609
 21
257.80536051789352
 31
0.0
  0
LINE
  5
1200
  8
0
 10
344.67755536839832
 20
279.7753605178936
 30
0.0
 11
335.81556358971761
 21
279.7753605178936
 31
0.0
  0
LINE
  5
1201
  8
0
 10
351.42855185630663
 20
281.2172139862621
 30
0.0
 11
349.43960784749328
 21
280.55133660810122
 31
0.0
  0
LINE
  5
1202
  8
0
 10
276.96260149911609
 20
240.8053605178936
 30
0.0
 11
249.96260149911609
 21
240.8053605178936
 31
0.0
  0
LINE
  5
1203
  8
1
 10
263.46260149911609
 20
278.80536051789352
 30
0.0
 11
263.4626014991162
 21
155.80536051789349
 31
0.0
  0
LINE
  5
1205
  8
0
 10
272.97260149911608
 20
230.8053605178936
 30
0.0
 11
272.97260149911608
 21
240.8053605178936
 31
0.0
  0
LINE
  5
1206
  8
0
 10
253.97260149911611
 20
240.8053605178936
 30
0.0
 11
253.97260149911611
 21
230.8053605178936
 31
0.0
  0
LINE
  5
1208
  8
0
 10
253.97260149911611
 20
230.8053605178936
 30
0.0
 11
272.97260149911608
 21
230.8053605178936
 31
0.0
  0
LINE
  5
1216
  8
0
 10
354.34017957332878
 20
293.80536051789352
 30
0.0
 11
354.47260149911602
 21
293.80536051789358
 31
0.0
  0
LINE
  5
1217
  8
0
 10
358.47260149911608
 20
289.80536051789358
 30
0.0
 11
358.47260149911608
 21
288.96642430942569
 31
0.0
  0
ARC
  5
1218
  8
0
 10
255.96260149911609
 20
262.22906710372229
 30
0.0
 40
6.0
 50
114.1848432038958
 51
180.0
  0
ARC
  5
1219
  8
0
 10
380.50584769206819
 20
-15.088404087188669
 30
0.0
 40
310.0
 50
94.841832834640755
 51
114.18484320389619
  0
ARC
  5
121A
  8
0
 10
354.47260149911608
 20
289.80536051789358
 30
0.0
 40
4.0
 50
0.0
 51
90.0
  0
ARC
  5
121B
  8
0
 10
410.1891110567521
 20
0.2207893056555576
 30
0.0
 40
290.0
 50
105.9892849829359
 51
117.3485107169774
  0
ARC
  5
121C
  8
0
 10
335.81556358971761
 20
259.77536051789349
 30
0.0
 40
20.0
 50
90.0
 51
105.9892849829359
  0
ARC
  5
121D
  8
0
 10
344.67755536839832
 20
294.77536051789349
 30
0.0
 40
15.0
 50
270.0
 51
288.50999999999942
  0
ARC
  5
121E
  8
0
 10
348.8532330546999
 20
290.87991200855862
 30
0.0
 40
10.0
 50
284.92366289757967
 51
337.4991251017791
  0
ARC
  5
121F
  8
0
 10
353.47260149911608
 20
288.96642430942569
 30
0.0
 40
5.0
 50
337.4991251017791
 51
0.0
  0
LINE
  5
1220
  8
0
 10
249.9526014991161
 20
371.62785115745902
 30
0.0
 11
249.9526014991161
 21
376.7434742866584
 31
0.0
  0
LINE
  5
122D
  8
1
 10
263.46260149911609
 20
392.93566272205868
 30
0.0
 11
263.46260149911609
 21
355.43566272205868
 31
0.0
  0
LINE
  5
122E
  8
1
 10
363.46260149911609
 20
374.18566272205868
 30
0.0
 11
244.712601499116
 21
374.18566272205868
 31
0.0
  0
ARC
  5
122F
  8
0
 10
351.96260149911609
 20
374.18566272205868
 30
0.0
 40
6.5
 50
270.0
 51
90.0
  0
ARC
  5
1230
  8
0
 10
263.46260149911609
 20
374.18566272205868
 30
0.0
 40
13.75
 50
190.72076149353649
 51
312.917560328555
  0
CIRCLE
  5
1232
  8
0
 10
264.73645154251608
 20
374.18545483284157
 30
0.0
 40
8.8183418569113723
  0
ARC
  5
1233
  8
0
 10
292.68166751090422
 20
440.87448295523171
 30
0.0
 40
60.0
 50
250.67449694773779
 51
281.65751361817053
  0
LINE
  5
1234
  8
0
 10
351.96260149911609
 20
380.68566272205868
 30
0.0
 11
307.18889461062872
 21
382.311790236251
 31
0.0
  0
ARC
  5
1235
  8
0
 10
306.82594585997299
 20
372.31837899661929
 30
0.0
 40
10.0
 50
87.919999999999831
 51
101.6575136181721
  0
ARC
  5
1236
  8
0
 10
292.68166751090422
 20
307.49684248888582
 30
0.0
 40
60.0
 50
78.34248638182946
 51
109.32550305226221
  0
LINE
  5
1237
  8
0
 10
351.96260149911609
 20
367.68566272205868
 30
0.0
 11
307.18889461062872
 21
366.05953520786647
 31
0.0
  0
ARC
  5
1238
  8
0
 10
306.82594585997299
 20
376.05294644749807
 30
0.0
 40
10.0
 50
258.34248638182788
 51
272.0800000000001
  0
ARC
  5
1239
  8
0
 10
263.46260149911609
 20
374.18566272205868
 30
0.0
 40
13.75
 50
47.08243967144503
 51
169.27923850646351
  0
LINE
  5
123A
  8
1
 10
363.46260149911609
 20
80.881372164038495
 30
0.0
 11
244.712601499116
 21
80.881372164038396
 31
0.0
  0
ARC
  5
123B
  8
0
 10
292.68166751090422
 20
14.19255193086553
 30
0.0
 40
60.0
 50
78.34248638182946
 51
109.32550305226221
  0
ARC
  5
123C
  8
0
 10
292.68166751090422
 20
147.57019239721129
 30
0.0
 40
60.0
 50
250.67449694773779
 51
281.65751361817053
  0
LINE
  5
123D
  8
1
 10
263.46260149911609
 20
99.631372164038453
 30
0.0
 11
263.46260149911609
 21
62.131372164038503
 31
0.0
  0
ARC
  5
123E
  8
0
 10
263.46260149911609
 20
80.881372164038495
 30
0.0
 40
13.75
 50
190.72076149353649
 51
312.917560328555
  0
ARC
  5
123F
  8
0
 10
263.46260149911609
 20
80.881372164038495
 30
0.0
 40
13.75
 50
47.08243967144503
 51
169.27923850646351
  0
LINE
  5
1240
  8
0
 10
249.9526014991161
 20
78.323560599438736
 30
0.0
 11
249.9526014991161
 21
83.439183728638156
 31
0.0
  0
LINE
  5
1241
  8
0
 10
351.96260149911609
 20
74.38137216403851
 30
0.0
 11
307.18889461062872
 21
72.755244649846134
 31
0.0
  0
LINE
  5
1242
  8
0
 10
351.96260149911609
 20
87.381372164038453
 30
0.0
 11
307.18889461062872
 21
89.007499678230772
 31
0.0
  0
ARC
  5
1243
  8
0
 10
306.82594585997299
 20
82.748655889477902
 30
0.0
 40
10.0
 50
258.34248638182788
 51
272.0800000000001
  0
ARC
  5
1244
  8
0
 10
306.82594585997299
 20
79.01408843859906
 30
0.0
 40
10.0
 50
87.919999999999831
 51
101.6575136181721
  0
ARC
  5
1245
  8
0
 10
351.96260149911609
 20
80.881372164038453
 30
0.0
 40
6.5
 50
270.0
 51
90.0
  0
CIRCLE
  5
1246
  8
0
 10
263.46260149911609
 20
80.881372164038495
 30
0.0
 40
13.5
  0
CIRCLE
  5
1247
  8
0
 10
263.46260149911609
 20
80.881372164038495
 30
0.0
 40
9.5
  0
CIRCLE
  5
1248
  8
3
 10
263.46260149911609
 20
80.881372164038396
 30
0.0
 40
5.0
  0
CIRCLE
  5
1249
  8
0
 10
263.46260149911609
 20
80.881372164038396
 30
0.0
 40
6.0
  0
LINE
  5
124C
  8
0
 10
161.62709598900321
 20
230.8053605178936
 30
0.0
 11
161.62709598900321
 21
240.8053605178936
 31
0.0
  0
LINE
  5
124D
  8
0
 10
142.62709598900321
 20
240.8053605178936
 30
0.0
 11
142.62709598900321
 21
230.8053605178936
 31
0.0
  0
LINE
  5
124F
  8
0
 10
142.62709598900321
 20
230.8053605178936
 30
0.0
 11
161.62709598900321
 21
230.8053605178936
 31
0.0
  0
LINE
  5
1250
  8
0
 10
158.2213562815526
 20
293.80536051789352
 30
0.0
 11
146.0328356964537
 21
293.80536051789358
 31
0.0
  0
LINE
  5
1251
  8
0
 10
138.62709598900321
 20
257.80536051789358
 30
0.0
 11
138.62709598900321
 21
240.8053605178936
 31
0.0
  0
LINE
  5
1252
  8
0
 10
165.62709598900321
 20
240.8053605178936
 30
0.0
 11
138.62709598900321
 21
240.8053605178936
 31
0.0
  0
LINE
  5
1253
  8
1
 10
152.12709598900321
 20
298.80536051789352
 30
0.0
 11
152.1270959890031
 21
155.80536051789349
 31
0.0
  0
LINE
  5
1254
  8
0
 10
153.61695252357151
 20
268.9730983900036
 30
0.0
 11
150.6372394544349
 21
268.9730983900036
 31
0.0
  0
POLYLINE
  5
1255
  8
0
 10
153.61695252357151
 20
268.9730983900036
 30
0.0
 66
     1
 70
     8
  0
VERTEX
  8
0
  5
1526
 10
153.617
 20
268.973
 30
0.000000
  70
    32
  0
VERTEX
  8
0
  5
1527
 10
154.017
 20
269.003
 30
0.000000
  70
    32
  0
VERTEX
  8
0
  5
1528
 10
154.413
 20
269.041
 30
0.000000
  70
    32
  0
VERTEX
  8
0
  5
1529
 10
154.804
 20
269.085
 30
0.000000
  70
    32
  0
VERTEX
  8
0
  5
152A
 10
155.189
 20
269.136
 30
0.000000
  70
    32
  0
VERTEX
  8
0
  5
152B
 10
155.568
 20
269.194
 30
0.000000
  70
    32
  0
VERTEX
  8
0
  5
152C
 10
155.939
 20
269.259
 30
0.000000
  70
    32
  0
VERTEX
  8
0
  5
152D
 10
156.302
 20
269.331
 30
0.000000
  70
    32
  0
VERTEX
  8
0
  5
152E
 10
156.656
 20
269.409
 30
0.000000
  70
    32
  0
VERTEX
  8
0
  5
152F
 10
157.000
 20
269.493
 30
0.000000
  70
    32
  0
VERTEX
  8
0
  5
1530
 10
157.334
 20
269.583
 30
0.000000
  70
    32
  0
VERTEX
  8
0
  5
1531
 10
157.657
 20
269.679
 30
0.000000
  70
    32
  0
VERTEX
  8
0
  5
1532
 10
157.967
 20
269.780
 30
0.000000
  70
    32
  0
VERTEX
  8
0
  5
1533
 10
158.265
 20
269.888
 30
0.000000
  70
    32
  0
VERTEX
  8
0
  5
1534
 10
158.550
 20
270.000
 30
0.000000
  70
    32
  0
VERTEX
  8
0
  5
1535
 10
158.821
 20
270.117
 30
0.000000
  70
    32
  0
VERTEX
  8
0
  5
1536
 10
159.078
 20
270.239
 30
0.000000
  70
    32
  0
VERTEX
  8
0
  5
1537
 10
159.319
 20
270.366
 30
0.000000
  70
    32
  0
VERTEX
  8
0
  5
1538
 10
159.546
 20
270.496
 30
0.000000
  70
    32
  0
VERTEX
  8
0
  5
1539
 10
159.756
 20
270.631
 30
0.000000
  70
    32
  0
VERTEX
  8
0
  5
153A
 10
159.949
 20
270.769
 30
0.000000
  70
    32
  0
VERTEX
  8
0
  5
153B
 10
160.126
 20
270.911
 30
0.000000
  70
    32
  0
VERTEX
  8
0
  5
153C
 10
160.286
 20
271.055
 30
0.000000
  70
    32
  0
VERTEX
  8
0
  5
153D
 10
160.428
 20
271.202
 30
0.000000
  70
    32
  0
VERTEX
  8
0
  5
153E
 10
160.552
 20
271.352
 30
0.000000
  70
    32
  0
VERTEX
  8
0
  5
153F
 10
160.658
 20
271.503
 30
0.000000
  70
    32
  0
VERTEX
  8
0
  5
1540
 10
160.745
 20
271.657
 30
0.000000
  70
    32
  0
VERTEX
  8
0
  5
1541
 10
160.814
 20
271.811
 30
0.000000
  70
    32
  0
VERTEX
  8
0
  5
1542
 10
160.865
 20
271.967
 30
0.000000
  70
    32
  0
VERTEX
  8
0
  5
1543
 10
160.896
 20
272.124
 30
0.000000
  70
    32
  0
VERTEX
  8
0
  5
1544
 10
160.909
 20
272.281
 30
0.000000
  70
    32
  0
VERTEX
  8
0
  5
1545
 10
160.902
 20
272.438
 30
0.000000
  70
    32
  0
VERTEX
  8
0
  5
1546
 10
160.877
 20
272.594
 30
0.000000
  70
    32
  0
VERTEX
  8
0
  5
1547
 10
160.833
 20
272.751
 30
0.000000
  70
    32
  0
VERTEX
  8
0
  5
1548
 10
160.770
 20
272.906
 30
0.000000
  70
    32
  0
VERTEX
  8
0
  5
1549
 10
160.689
 20
273.059
 30
0.000000
  70
    32
  0
VERTEX
  8
0
  5
154A
 10
160.589
 20
273.212
 30
0.000000
  70
    32
  0
VERTEX
  8
0
  5
154B
 10
160.470
 20
273.362
 30
0.000000
  70
    32
  0
VERTEX
  8
0
  5
154C
 10
160.334
 20
273.510
 30
0.000000
  70
    32
  0
VERTEX
  8
0
  5
154D
 10
160.180
 20
273.655
 30
0.000000
  70
    32
  0
VERTEX
  8
0
  5
154E
 10
160.009
 20
273.798
 30
0.000000
  70
    32
  0
VERTEX
  8
0
  5
154F
 10
159.821
 20
273.937
 30
0.000000
  70
    32
  0
VERTEX
  8
0
  5
1550
 10
159.616
 20
274.073
 30
0.000000
  70
    32
  0
VERTEX
  8
0
  5
1551
 10
159.395
 20
274.205
 30
0.000000
  70
    32
  0
VERTEX
  8
0
  5
1552
 10
159.159
 20
274.333
 30
0.000000
  70
    32
  0
VERTEX
  8
0
  5
1553
 10
158.907
 20
274.456
 30
0.000000
  70
    32
  0
VERTEX
  8
0
  5
1554
 10
158.641
 20
274.575
 30
0.000000
  70
    32
  0
VERTEX
  8
0
  5
1555
 10
158.360
 20
274.689
 30
0.000000
  70
    32
  0
VERTEX
  8
0
  5
1556
 10
158.067
 20
274.798
 30
0.000000
  70
    32
  0
VERTEX
  8
0
  5
1557
 10
157.760
 20
274.901
 30
0.000000
  70
    32
  0
VERTEX
  8
0
  5
1558
 10
157.441
 20
274.999
 30
0.000000
  70
    32
  0
VERTEX
  8
0
  5
1559
 10
157.111
 20
275.091
 30
0.000000
  70
    32
  0
VERTEX
  8
0
  5
155A
 10
156.770
 20
275.177
 30
0.000000
  70
    32
  0
VERTEX
  8
0
  5
155B
 10
156.419
 20
275.257
 30
0.000000
  70
    32
  0
VERTEX
  8
0
  5
155C
 10
156.059
 20
275.331
 30
0.000000
  70
    32
  0
VERTEX
  8
0
  5
155D
 10
155.690
 20
275.398
 30
0.000000
  70
    32
  0
VERTEX
  8
0
  5
155E
 10
155.314
 20
275.458
 30
0.000000
  70
    32
  0
VERTEX
  8
0
  5
155F
 10
154.931
 20
275.512
 30
0.000000
  70
    32
  0
VERTEX
  8
0
  5
1560
 10
154.542
 20
275.558
 30
0.000000
  70
    32
  0
VERTEX
  8
0
  5
1561
 10
154.147
 20
275.598
 30
0.000000
  70
    32
  0
VERTEX
  8
0
  5
1562
 10
153.748
 20
275.631
 30
0.000000
  70
    32
  0
VERTEX
  8
0
  5
1563
 10
153.346
 20
275.656
 30
0.000000
  70
    32
  0
VERTEX
  8
0
  5
1564
 10
152.941
 20
275.674
 30
0.000000
  70
    32
  0
VERTEX
  8
0
  5
1565
 10
152.535
 20
275.685
 30
0.000000
  70
    32
  0
VERTEX
  8
0
  5
1566
 10
152.127
 20
275.689
 30
0.000000
  70
    32
  0
VERTEX
  8
0
  5
1567
 10
151.720
 20
275.685
 30
0.000000
  70
    32
  0
VERTEX
  8
0
  5
1568
 10
151.313
 20
275.674
 30
0.000000
  70
    32
  0
VERTEX
  8
0
  5
1569
 10
150.908
 20
275.656
 30
0.000000
  70
    32
  0
VERTEX
  8
0
  5
156A
 10
150.506
 20
275.631
 30
0.000000
  70
    32
  0
VERTEX
  8
0
  5
156B
 10
150.107
 20
275.598
 30
0.000000
  70
    32
  0
VERTEX
  8
0
  5
156C
 10
149.713
 20
275.558
 30
0.000000
  70
    32
  0
VERTEX
  8
0
  5
156D
 10
149.323
 20
275.512
 30
0.000000
  70
    32
  0
VERTEX
  8
0
  5
156E
 10
148.940
 20
275.458
 30
0.000000
  70
    32
  0
VERTEX
  8
0
  5
156F
 10
148.564
 20
275.398
 30
0.000000
  70
    32
  0
VERTEX
  8
0
  5
1570
 10
148.195
 20
275.331
 30
0.000000
  70
    32
  0
VERTEX
  8
0
  5
1571
 10
147.835
 20
275.257
 30
0.000000
  70
    32
  0
VERTEX
  8
0
  5
1572
 10
147.484
 20
275.177
 30
0.000000
  70
    32
  0
VERTEX
  8
0
  5
1573
 10
147.143
 20
275.091
 30
0.000000
  70
    32
  0
VERTEX
  8
0
  5
1574
 10
146.813
 20
274.999
 30
0.000000
  70
    32
  0
VERTEX
  8
0
  5
1575
 10
146.494
 20
274.901
 30
0.000000
  70
    32
  0
VERTEX
  8
0
  5
1576
 10
146.188
 20
274.798
 30
0.000000
  70
    32
  0
VERTEX
  8
0
  5
1577
 10
145.894
 20
274.689
 30
0.000000
  70
    32
  0
VERTEX
  8
0
  5
1578
 10
145.613
 20
274.575
 30
0.000000
  70
    32
  0
VERTEX
  8
0
  5
1579
 10
145.347
 20
274.456
 30
0.000000
  70
    32
  0
VERTEX
  8
0
  5
157A
 10
145.095
 20
274.333
 30
0.000000
  70
    32
  0
VERTEX
  8
0
  5
157B
 10
144.859
 20
274.205
 30
0.000000
  70
    32
  0
VERTEX
  8
0
  5
157C
 10
144.638
 20
274.073
 30
0.000000
  70
    32
  0
VERTEX
  8
0
  5
157D
 10
144.433
 20
273.937
 30
0.000000
  70
    32
  0
VERTEX
  8
0
  5
157E
 10
144.245
 20
273.798
 30
0.000000
  70
    32
  0
VERTEX
  8
0
  5
157F
 10
144.074
 20
273.655
 30
0.000000
  70
    32
  0
VERTEX
  8
0
  5
1580
 10
143.920
 20
273.510
 30
0.000000
  70
    32
  0
VERTEX
  8
0
  5
1581
 10
143.784
 20
273.362
 30
0.000000
  70
    32
  0
VERTEX
  8
0
  5
1582
 10
143.666
 20
273.212
 30
0.000000
  70
    32
  0
VERTEX
  8
0
  5
1583
 10
143.566
 20
273.059
 30
0.000000
  70
    32
  0
VERTEX
  8
0
  5
1584
 10
143.484
 20
272.906
 30
0.000000
  70
    32
  0
VERTEX
  8
0
  5
1585
 10
143.421
 20
272.751
 30
0.000000
  70
    32
  0
VERTEX
  8
0
  5
1586
 10
143.377
 20
272.594
 30
0.000000
  70
    32
  0
VERTEX
  8
0
  5
1587
 10
143.352
 20
272.438
 30
0.000000
  70
    32
  0
VERTEX
  8
0
  5
1588
 10
143.346
 20
272.281
 30
0.000000
  70
    32
  0
VERTEX
  8
0
  5
1589
 10
143.358
 20
272.124
 30
0.000000
  70
    32
  0
VERTEX
  8
0
  5
158A
 10
143.390
 20
271.967
 30
0.000000
  70
    32
  0
VERTEX
  8
0
  5
158B
 10
143.440
 20
271.811
 30
0.000000
  70
    32
  0
VERTEX
  8
0
  5
158C
 10
143.509
 20
271.657
 30
0.000000
  70
    32
  0
VERTEX
  8
0
  5
158D
 10
143.596
 20
271.503
 30
0.000000
  70
    32
  0
VERTEX
  8
0
  5
158E
 10
143.702
 20
271.352
 30
0.000000
  70
    32
  0
VERTEX
  8
0
  5
158F
 10
143.826
 20
271.202
 30
0.000000
  70
    32
  0
VERTEX
  8
0
  5
1590
 10
143.968
 20
271.055
 30
0.000000
  70
    32
  0
VERTEX
  8
0
  5
1591
 10
144.128
 20
270.911
 30
0.000000
  70
    32
  0
VERTEX
  8
0
  5
1592
 10
144.305
 20
270.769
 30
0.000000
  70
    32
  0
VERTEX
  8
0
  5
1593
 10
144.499
 20
270.631
 30
0.000000
  70
    32
  0
VERTEX
  8
0
  5
1594
 10
144.709
 20
270.496
 30
0.000000
  70
    32
  0
VERTEX
  8
0
  5
1595
 10
144.935
 20
270.366
 30
0.000000
  70
    32
  0
VERTEX
  8
0
  5
1596
 10
145.176
 20
270.239
 30
0.000000
  70
    32
  0
VERTEX
  8
0
  5
1597
 10
145.433
 20
270.117
 30
0.000000
  70
    32
  0
VERTEX
  8
0
  5
1598
 10
145.704
 20
270.000
 30
0.000000
  70
    32
  0
VERTEX
  8
0
  5
1599
 10
145.989
 20
269.888
 30
0.000000
  70
    32
  0
VERTEX
  8
0
  5
159A
 10
146.287
 20
269.780
 30
0.000000
  70
    32
  0
VERTEX
  8
0
  5
159B
 10
146.597
 20
269.679
 30
0.000000
  70
    32
  0
VERTEX
  8
0
  5
159C
 10
146.920
 20
269.583
 30
0.000000
  70
    32
  0
VERTEX
  8
0
  5
159D
 10
147.254
 20
269.493
 30
0.000000
  70
    32
  0
VERTEX
  8
0
  5
159E
 10
147.598
 20
269.409
 30
0.000000
  70
    32
  0
VERTEX
  8
0
  5
159F
 10
147.952
 20
269.331
 30
0.000000
  70
    32
  0
VERTEX
  8
0
  5
15A0
 10
148.315
 20
269.259
 30
0.000000
  70
    32
  0
VERTEX
  8
0
  5
15A1
 10
148.686
 20
269.194
 30
0.000000
  70
    32
  0
VERTEX
  8
0
  5
15A2
 10
149.065
 20
269.136
 30
0.000000
  70
    32
  0
VERTEX
  8
0
  5
15A3
 10
149.450
 20
269.085
 30
0.000000
  70
    32
  0
VERTEX
  8
0
  5
15A4
 10
149.841
 20
269.041
 30
0.000000
  70
    32
  0
VERTEX
  8
0
  5
15A5
 10
150.237
 20
269.003
 30
0.000000
  70
    32
  0
VERTEX
  8
0
  5
15A6
 10
150.637
 20
268.973
 30
0.000000
  70
    32
  0
SEQEND
  8
0
  5
15A7
  0
POLYLINE
  5
1256
  8
0
 10
165.87709598900321
 20
272.3064589581461
 30
0.0
 66
     1
 70
     8
  0
VERTEX
  8
0
  5
15A8
 10
165.877
 20
272.306
 30
0.000000
  70
    32
  0
VERTEX
  8
0
  5
15A9
 10
165.877
 20
272.332
 30
0.000000
  70
    32
  0
VERTEX
  8
0
  5
15AA
 10
165.876
 20
272.357
 30
0.000000
  70
    32
  0
VERTEX
  8
0
  5
15AB
 10
165.875
 20
272.383
 30
0.000000
  70
    32
  0
VERTEX
  8
0
  5
15AC
 10
165.874
 20
272.408
 30
0.000000
  70
    32
  0
VERTEX
  8
0
  5
15AD
 10
165.871
 20
272.434
 30
0.000000
  70
    32
  0
VERTEX
  8
0
  5
15AE
 10
165.869
 20
272.459
 30
0.000000
  70
    32
  0
VERTEX
  8
0
  5
15AF
 10
165.866
 20
272.485
 30
0.000000
  70
    32
  0
VERTEX
  8
0
  5
15B0
 10
165.863
 20
272.510
 30
0.000000
  70
    32
  0
VERTEX
  8
0
  5
15B1
 10
165.859
 20
272.535
 30
0.000000
  70
    32
  0
VERTEX
  8
0
  5
15B2
 10
165.855
 20
272.561
 30
0.000000
  70
    32
  0
VERTEX
  8
0
  5
15B3
 10
165.850
 20
272.586
 30
0.000000
  70
    32
  0
VERTEX
  8
0
  5
15B4
 10
165.845
 20
272.612
 30
0.000000
  70
    32
  0
VERTEX
  8
0
  5
15B5
 10
165.839
 20
272.637
 30
0.000000
  70
    32
  0
VERTEX
  8
0
  5
15B6
 10
165.833
 20
272.662
 30
0.000000
  70
    32
  0
VERTEX
  8
0
  5
15B7
 10
165.827
 20
272.688
 30
0.000000
  70
    32
  0
VERTEX
  8
0
  5
15B8
 10
165.820
 20
272.713
 30
0.000000
  70
    32
  0
VERTEX
  8
0
  5
15B9
 10
165.812
 20
272.738
 30
0.000000
  70
    32
  0
VERTEX
  8
0
  5
15BA
 10
165.804
 20
272.764
 30
0.000000
  70
    32
  0
VERTEX
  8
0
  5
15BB
 10
165.796
 20
272.789
 30
0.000000
  70
    32
  0
VERTEX
  8
0
  5
15BC
 10
165.787
 20
272.814
 30
0.000000
  70
    32
  0
VERTEX
  8
0
  5
15BD
 10
165.778
 20
272.840
 30
0.000000
  70
    32
  0
VERTEX
  8
0
  5
15BE
 10
165.769
 20
272.865
 30
0.000000
  70
    32
  0
VERTEX
  8
0
  5
15BF
 10
165.758
 20
272.890
 30
0.000000
  70
    32
  0
VERTEX
  8
0
  5
15C0
 10
165.748
 20
272.915
 30
0.000000
  70
    32
  0
VERTEX
  8
0
  5
15C1
 10
165.737
 20
272.941
 30
0.000000
  70
    32
  0
VERTEX
  8
0
  5
15C2
 10
165.726
 20
272.966
 30
0.000000
  70
    32
  0
VERTEX
  8
0
  5
15C3
 10
165.714
 20
272.991
 30
0.000000
  70
    32
  0
VERTEX
  8
0
  5
15C4
 10
165.701
 20
273.016
 30
0.000000
  70
    32
  0
VERTEX
  8
0
  5
15C5
 10
165.689
 20
273.041
 30
0.000000
  70
    32
  0
VERTEX
  8
0
  5
15C6
 10
165.675
 20
273.066
 30
0.000000
  70
    32
  0
VERTEX
  8
0
  5
15C7
 10
165.662
 20
273.091
 30
0.000000
  70
    32
  0
VERTEX
  8
0
  5
15C8
 10
165.648
 20
273.116
 30
0.000000
  70
    32
  0
VERTEX
  8
0
  5
15C9
 10
165.633
 20
273.141
 30
0.000000
  70
    32
  0
VERTEX
  8
0
  5
15CA
 10
165.618
 20
273.166
 30
0.000000
  70
    32
  0
VERTEX
  8
0
  5
15CB
 10
165.603
 20
273.191
 30
0.000000
  70
    32
  0
VERTEX
  8
0
  5
15CC
 10
165.587
 20
273.216
 30
0.000000
  70
    32
  0
VERTEX
  8
0
  5
15CD
 10
165.571
 20
273.241
 30
0.000000
  70
    32
  0
VERTEX
  8
0
  5
15CE
 10
165.554
 20
273.266
 30
0.000000
  70
    32
  0
VERTEX
  8
0
  5
15CF
 10
165.537
 20
273.291
 30
0.000000
  70
    32
  0
VERTEX
  8
0
  5
15D0
 10
165.519
 20
273.316
 30
0.000000
  70
    32
  0
VERTEX
  8
0
  5
15D1
 10
165.501
 20
273.340
 30
0.000000
  70
    32
  0
VERTEX
  8
0
  5
15D2
 10
165.483
 20
273.365
 30
0.000000
  70
    32
  0
VERTEX
  8
0
  5
15D3
 10
165.464
 20
273.390
 30
0.000000
  70
    32
  0
VERTEX
  8
0
  5
15D4
 10
165.445
 20
273.415
 30
0.000000
  70
    32
  0
VERTEX
  8
0
  5
15D5
 10
165.425
 20
273.439
 30
0.000000
  70
    32
  0
VERTEX
  8
0
  5
15D6
 10
165.405
 20
273.464
 30
0.000000
  70
    32
  0
VERTEX
  8
0
  5
15D7
 10
165.384
 20
273.488
 30
0.000000
  70
    32
  0
VERTEX
  8
0
  5
15D8
 10
165.363
 20
273.513
 30
0.000000
  70
    32
  0
VERTEX
  8
0
  5
15D9
 10
165.341
 20
273.537
 30
0.000000
  70
    32
  0
VERTEX
  8
0
  5
15DA
 10
165.319
 20
273.562
 30
0.000000
  70
    32
  0
VERTEX
  8
0
  5
15DB
 10
165.297
 20
273.586
 30
0.000000
  70
    32
  0
VERTEX
  8
0
  5
15DC
 10
165.274
 20
273.610
 30
0.000000
  70
    32
  0
VERTEX
  8
0
  5
15DD
 10
165.251
 20
273.635
 30
0.000000
  70
    32
  0
VERTEX
  8
0
  5
15DE
 10
165.227
 20
273.659
 30
0.000000
  70
    32
  0
VERTEX
  8
0
  5
15DF
 10
165.203
 20
273.683
 30
0.000000
  70
    32
  0
VERTEX
  8
0
  5
15E0
 10
165.179
 20
273.707
 30
0.000000
  70
    32
  0
VERTEX
  8
0
  5
15E1
 10
165.154
 20
273.732
 30
0.000000
  70
    32
  0
VERTEX
  8
0
  5
15E2
 10
165.128
 20
273.756
 30
0.000000
  70
    32
  0
VERTEX
  8
0
  5
15E3
 10
165.103
 20
273.780
 30
0.000000
  70
    32
  0
VERTEX
  8
0
  5
15E4
 10
165.076
 20
273.804
 30
0.000000
  70
    32
  0
VERTEX
  8
0
  5
15E5
 10
165.050
 20
273.828
 30
0.000000
  70
    32
  0
VERTEX
  8
0
  5
15E6
 10
165.023
 20
273.852
 30
0.000000
  70
    32
  0
VERTEX
  8
0
  5
15E7
 10
164.995
 20
273.875
 30
0.000000
  70
    32
  0
VERTEX
  8
0
  5
15E8
 10
164.967
 20
273.899
 30
0.000000
  70
    32
  0
VERTEX
  8
0
  5
15E9
 10
164.939
 20
273.923
 30
0.000000
  70
    32
  0
VERTEX
  8
0
  5
15EA
 10
164.910
 20
273.947
 30
0.000000
  70
    32
  0
VERTEX
  8
0
  5
15EB
 10
164.881
 20
273.970
 30
0.000000
  70
    32
  0
VERTEX
  8
0
  5
15EC
 10
164.851
 20
273.994
 30
0.000000
  70
    32
  0
VERTEX
  8
0
  5
15ED
 10
164.821
 20
274.017
 30
0.000000
  70
    32
  0
VERTEX
  8
0
  5
15EE
 10
164.791
 20
274.041
 30
0.000000
  70
    32
  0
VERTEX
  8
0
  5
15EF
 10
164.760
 20
274.064
 30
0.000000
  70
    32
  0
VERTEX
  8
0
  5
15F0
 10
164.729
 20
274.088
 30
0.000000
  70
    32
  0
VERTEX
  8
0
  5
15F1
 10
164.697
 20
274.111
 30
0.000000
  70
    32
  0
VERTEX
  8
0
  5
15F2
 10
164.665
 20
274.134
 30
0.000000
  70
    32
  0
VERTEX
  8
0
  5
15F3
 10
164.633
 20
274.157
 30
0.000000
  70
    32
  0
VERTEX
  8
0
  5
15F4
 10
164.600
 20
274.180
 30
0.000000
  70
    32
  0
VERTEX
  8
0
  5
15F5
 10
164.567
 20
274.203
 30
0.000000
  70
    32
  0
VERTEX
  8
0
  5
15F6
 10
164.533
 20
274.226
 30
0.000000
  70
    32
  0
VERTEX
  8
0
  5
15F7
 10
164.499
 20
274.249
 30
0.000000
  70
    32
  0
VERTEX
  8
0
  5
15F8
 10
164.464
 20
274.272
 30
0.000000
  70
    32
  0
VERTEX
  8
0
  5
15F9
 10
164.429
 20
274.295
 30
0.000000
  70
    32
  0
VERTEX
  8
0
  5
15FA
 10
164.394
 20
274.318
 30
0.000000
  70
    32
  0
VERTEX
  8
0
  5
15FB
 10
164.358
 20
274.340
 30
0.000000
  70
    32
  0
VERTEX
  8
0
  5
15FC
 10
164.322
 20
274.363
 30
0.000000
  70
    32
  0
VERTEX
  8
0
  5
15FD
 10
164.286
 20
274.386
 30
0.000000
  70
    32
  0
VERTEX
  8
0
  5
15FE
 10
164.249
 20
274.408
 30
0.000000
  70
    32
  0
VERTEX
  8
0
  5
15FF
 10
164.212
 20
274.431
 30
0.000000
  70
    32
  0
VERTEX
  8
0
  5
1600
 10
164.174
 20
274.453
 30
0.000000
  70
    32
  0
VERTEX
  8
0
  5
1601
 10
164.136
 20
274.475
 30
0.000000
  70
    32
  0
VERTEX
  8
0
  5
1602
 10
164.097
 20
274.497
 30
0.000000
  70
    32
  0
VERTEX
  8
0
  5
1603
 10
164.059
 20
274.519
 30
0.000000
  70
    32
  0
VERTEX
  8
0
  5
1604
 10
164.019
 20
274.541
 30
0.000000
  70
    32
  0
VERTEX
  8
0
  5
1605
 10
163.980
 20
274.563
 30
0.000000
  70
    32
  0
VERTEX
  8
0
  5
1606
 10
163.940
 20
274.585
 30
0.000000
  70
    32
  0
VERTEX
  8
0
  5
1607
 10
163.899
 20
274.607
 30
0.000000
  70
    32
  0
VERTEX
  8
0
  5
1608
 10
163.858
 20
274.629
 30
0.000000
  70
    32
  0
VERTEX
  8
0
  5
1609
 10
163.817
 20
274.651
 30
0.000000
  70
    32
  0
VERTEX
  8
0
  5
160A
 10
163.776
 20
274.672
 30
0.000000
  70
    32
  0
VERTEX
  8
0
  5
160B
 10
163.734
 20
274.694
 30
0.000000
  70
    32
  0
VERTEX
  8
0
  5
160C
 10
163.691
 20
274.715
 30
0.000000
  70
    32
  0
VERTEX
  8
0
  5
160D
 10
163.649
 20
274.737
 30
0.000000
  70
    32
  0
VERTEX
  8
0
  5
160E
 10
163.606
 20
274.758
 30
0.000000
  70
    32
  0
VERTEX
  8
0
  5
160F
 10
163.562
 20
274.779
 30
0.000000
  70
    32
  0
VERTEX
  8
0
  5
1610
 10
163.518
 20
274.800
 30
0.000000
  70
    32
  0
VERTEX
  8
0
  5
1611
 10
163.474
 20
274.821
 30
0.000000
  70
    32
  0
VERTEX
  8
0
  5
1612
 10
163.429
 20
274.842
 30
0.000000
  70
    32
  0
VERTEX
  8
0
  5
1613
 10
163.384
 20
274.863
 30
0.000000
  70
    32
  0
VERTEX
  8
0
  5
1614
 10
163.339
 20
274.884
 30
0.000000
  70
    32
  0
VERTEX
  8
0
  5
1615
 10
163.294
 20
274.905
 30
0.000000
  70
    32
  0
VERTEX
  8
0
  5
1616
 10
163.247
 20
274.925
 30
0.000000
  70
    32
  0
VERTEX
  8
0
  5
1617
 10
163.201
 20
274.946
 30
0.000000
  70
    32
  0
VERTEX
  8
0
  5
1618
 10
163.154
 20
274.966
 30
0.000000
  70
    32
  0
VERTEX
  8
0
  5
1619
 10
163.107
 20
274.987
 30
0.000000
  70
    32
  0
VERTEX
  8
0
  5
161A
 10
163.060
 20
275.007
 30
0.000000
  70
    32
  0
VERTEX
  8
0
  5
161B
 10
163.012
 20
275.027
 30
0.000000
  70
    32
  0
VERTEX
  8
0
  5
161C
 10
162.964
 20
275.047
 30
0.000000
  70
    32
  0
VERTEX
  8
0
  5
161D
 10
162.915
 20
275.067
 30
0.000000
  70
    32
  0
VERTEX
  8
0
  5
161E
 10
162.866
 20
275.087
 30
0.000000
  70
    32
  0
VERTEX
  8
0
  5
161F
 10
162.817
 20
275.107
 30
0.000000
  70
    32
  0
VERTEX
  8
0
  5
1620
 10
162.767
 20
275.127
 30
0.000000
  70
    32
  0
VERTEX
  8
0
  5
1621
 10
162.717
 20
275.146
 30
0.000000
  70
    32
  0
VERTEX
  8
0
  5
1622
 10
162.667
 20
275.166
 30
0.000000
  70
    32
  0
VERTEX
  8
0
  5
1623
 10
162.616
 20
275.185
 30
0.000000
  70
    32
  0
VERTEX
  8
0
  5
1624
 10
162.565
 20
275.205
 30
0.000000
  70
    32
  0
VERTEX
  8
0
  5
1625
 10
162.514
 20
275.224
 30
0.000000
  70
    32
  0
VERTEX
  8
0
  5
1626
 10
162.462
 20
275.243
 30
0.000000
  70
    32
  0
VERTEX
  8
0
  5
1627
 10
162.410
 20
275.262
 30
0.000000
  70
    32
  0
VERTEX
  8
0
  5
1628
 10
162.358
 20
275.281
 30
0.000000
  70
    32
  0
SEQEND
  8
0
  5
1629
  0
POLYLINE
  5
1257
  8
0
 10
138.37709598900321
 20
272.3064589581461
 30
0.0
 66
     1
 70
     8
  0
VERTEX
  8
0
  5
162A
 10
138.377
 20
272.306
 30
0.000000
  70
    32
  0
VERTEX
  8
0
  5
162B
 10
138.381
 20
272.145
 30
0.000000
  70
    32
  0
VERTEX
  8
0
  5
162C
 10
138.394
 20
271.984
 30
0.000000
  70
    32
  0
VERTEX
  8
0
  5
162D
 10
138.414
 20
271.823
 30
0.000000
  70
    32
  0
VERTEX
  8
0
  5
162E
 10
138.443
 20
271.662
 30
0.000000
  70
    32
  0
VERTEX
  8
0
  5
162F
 10
138.481
 20
271.501
 30
0.000000
  70
    32
  0
VERTEX
  8
0
  5
1630
 10
138.526
 20
271.341
 30
0.000000
  70
    32
  0
VERTEX
  8
0
  5
1631
 10
138.580
 20
271.182
 30
0.000000
  70
    32
  0
VERTEX
  8
0
  5
1632
 10
138.641
 20
271.023
 30
0.000000
  70
    32
  0
VERTEX
  8
0
  5
1633
 10
138.711
 20
270.865
 30
0.000000
  70
    32
  0
VERTEX
  8
0
  5
1634
 10
138.789
 20
270.708
 30
0.000000
  70
    32
  0
VERTEX
  8
0
  5
1635
 10
138.875
 20
270.552
 30
0.000000
  70
    32
  0
VERTEX
  8
0
  5
1636
 10
138.969
 20
270.397
 30
0.000000
  70
    32
  0
VERTEX
  8
0
  5
1637
 10
139.071
 20
270.243
 30
0.000000
  70
    32
  0
VERTEX
  8
0
  5
1638
 10
139.181
 20
270.091
 30
0.000000
  70
    32
  0
VERTEX
  8
0
  5
1639
 10
139.298
 20
269.939
 30
0.000000
  70
    32
  0
VERTEX
  8
0
  5
163A
 10
139.424
 20
269.789
 30
0.000000
  70
    32
  0
VERTEX
  8
0
  5
163B
 10
139.557
 20
269.641
 30
0.000000
  70
    32
  0
VERTEX
  8
0
  5
163C
 10
139.697
 20
269.494
 30
0.000000
  70
    32
  0
VERTEX
  8
0
  5
163D
 10
139.845
 20
269.349
 30
0.000000
  70
    32
  0
VERTEX
  8
0
  5
163E
 10
140.001
 20
269.206
 30
0.000000
  70
    32
  0
VERTEX
  8
0
  5
163F
 10
140.163
 20
269.064
 30
0.000000
  70
    32
  0
VERTEX
  8
0
  5
1640
 10
140.333
 20
268.925
 30
0.000000
  70
    32
  0
VERTEX
  8
0
  5
1641
 10
140.510
 20
268.788
 30
0.000000
  70
    32
  0
VERTEX
  8
0
  5
1642
 10
140.694
 20
268.652
 30
0.000000
  70
    32
  0
VERTEX
  8
0
  5
1643
 10
140.885
 20
268.519
 30
0.000000
  70
    32
  0
VERTEX
  8
0
  5
1644
 10
141.083
 20
268.388
 30
0.000000
  70
    32
  0
VERTEX
  8
0
  5
1645
 10
141.287
 20
268.260
 30
0.000000
  70
    32
  0
VERTEX
  8
0
  5
1646
 10
141.498
 20
268.134
 30
0.000000
  70
    32
  0
VERTEX
  8
0
  5
1647
 10
141.715
 20
268.010
 30
0.000000
  70
    32
  0
VERTEX
  8
0
  5
1648
 10
141.939
 20
267.889
 30
0.000000
  70
    32
  0
VERTEX
  8
0
  5
1649
 10
142.169
 20
267.771
 30
0.000000
  70
    32
  0
VERTEX
  8
0
  5
164A
 10
142.404
 20
267.656
 30
0.000000
  70
    32
  0
VERTEX
  8
0
  5
164B
 10
142.646
 20
267.543
 30
0.000000
  70
    32
  0
VERTEX
  8
0
  5
164C
 10
142.893
 20
267.433
 30
0.000000
  70
    32
  0
VERTEX
  8
0
  5
164D
 10
143.146
 20
267.326
 30
0.000000
  70
    32
  0
VERTEX
  8
0
  5
164E
 10
143.404
 20
267.222
 30
0.000000
  70
    32
  0
VERTEX
  8
0
  5
164F
 10
143.668
 20
267.121
 30
0.000000
  70
    32
  0
VERTEX
  8
0
  5
1650
 10
143.936
 20
267.023
 30
0.000000
  70
    32
  0
VERTEX
  8
0
  5
1651
 10
144.210
 20
266.929
 30
0.000000
  70
    32
  0
VERTEX
  8
0
  5
1652
 10
144.488
 20
266.838
 30
0.000000
  70
    32
  0
VERTEX
  8
0
  5
1653
 10
144.771
 20
266.750
 30
0.000000
  70
    32
  0
VERTEX
  8
0
  5
1654
 10
145.058
 20
266.665
 30
0.000000
  70
    32
  0
VERTEX
  8
0
  5
1655
 10
145.350
 20
266.584
 30
0.000000
  70
    32
  0
VERTEX
  8
0
  5
1656
 10
145.645
 20
266.506
 30
0.000000
  70
    32
  0
VERTEX
  8
0
  5
1657
 10
145.945
 20
266.431
 30
0.000000
  70
    32
  0
VERTEX
  8
0
  5
1658
 10
146.248
 20
266.361
 30
0.000000
  70
    32
  0
VERTEX
  8
0
  5
1659
 10
146.555
 20
266.293
 30
0.000000
  70
    32
  0
VERTEX
  8
0
  5
165A
 10
146.865
 20
266.230
 30
0.000000
  70
    32
  0
VERTEX
  8
0
  5
165B
 10
147.179
 20
266.170
 30
0.000000
  70
    32
  0
VERTEX
  8
0
  5
165C
 10
147.495
 20
266.114
 30
0.000000
  70
    32
  0
VERTEX
  8
0
  5
165D
 10
147.814
 20
266.061
 30
0.000000
  70
    32
  0
VERTEX
  8
0
  5
165E
 10
148.136
 20
266.012
 30
0.000000
  70
    32
  0
VERTEX
  8
0
  5
165F
 10
148.460
 20
265.967
 30
0.000000
  70
    32
  0
VERTEX
  8
0
  5
1660
 10
148.786
 20
265.926
 30
0.000000
  70
    32
  0
VERTEX
  8
0
  5
1661
 10
149.114
 20
265.889
 30
0.000000
  70
    32
  0
VERTEX
  8
0
  5
1662
 10
149.445
 20
265.855
 30
0.000000
  70
    32
  0
VERTEX
  8
0
  5
1663
 10
149.776
 20
265.826
 30
0.000000
  70
    32
  0
VERTEX
  8
0
  5
1664
 10
150.110
 20
265.800
 30
0.000000
  70
    32
  0
VERTEX
  8
0
  5
1665
 10
150.444
 20
265.779
 30
0.000000
  70
    32
  0
VERTEX
  8
0
  5
1666
 10
150.779
 20
265.761
 30
0.000000
  70
    32
  0
VERTEX
  8
0
  5
1667
 10
151.116
 20
265.747
 30
0.000000
  70
    32
  0
VERTEX
  8
0
  5
1668
 10
151.452
 20
265.737
 30
0.000000
  70
    32
  0
VERTEX
  8
0
  5
1669
 10
151.790
 20
265.731
 30
0.000000
  70
    32
  0
VERTEX
  8
0
  5
166A
 10
152.127
 20
265.729
 30
0.000000
  70
    32
  0
VERTEX
  8
0
  5
166B
 10
152.465
 20
265.731
 30
0.000000
  70
    32
  0
VERTEX
  8
0
  5
166C
 10
152.802
 20
265.737
 30
0.000000
  70
    32
  0
VERTEX
  8
0
  5
166D
 10
153.139
 20
265.747
 30
0.000000
  70
    32
  0
VERTEX
  8
0
  5
166E
 10
153.475
 20
265.761
 30
0.000000
  70
    32
  0
VERTEX
  8
0
  5
166F
 10
153.810
 20
265.779
 30
0.000000
  70
    32
  0
VERTEX
  8
0
  5
1670
 10
154.145
 20
265.800
 30
0.000000
  70
    32
  0
VERTEX
  8
0
  5
1671
 10
154.478
 20
265.826
 30
0.000000
  70
    32
  0
VERTEX
  8
0
  5
1672
 10
154.810
 20
265.855
 30
0.000000
  70
    32
  0
VERTEX
  8
0
  5
1673
 10
155.140
 20
265.889
 30
0.000000
  70
    32
  0
VERTEX
  8
0
  5
1674
 10
155.468
 20
265.926
 30
0.000000
  70
    32
  0
VERTEX
  8
0
  5
1675
 10
155.794
 20
265.967
 30
0.000000
  70
    32
  0
VERTEX
  8
0
  5
1676
 10
156.119
 20
266.012
 30
0.000000
  70
    32
  0
VERTEX
  8
0
  5
1677
 10
156.440
 20
266.061
 30
0.000000
  70
    32
  0
VERTEX
  8
0
  5
1678
 10
156.759
 20
266.114
 30
0.000000
  70
    32
  0
VERTEX
  8
0
  5
1679
 10
157.076
 20
266.170
 30
0.000000
  70
    32
  0
VERTEX
  8
0
  5
167A
 10
157.389
 20
266.230
 30
0.000000
  70
    32
  0
VERTEX
  8
0
  5
167B
 10
157.699
 20
266.293
 30
0.000000
  70
    32
  0
VERTEX
  8
0
  5
167C
 10
158.006
 20
266.361
 30
0.000000
  70
    32
  0
VERTEX
  8
0
  5
167D
 10
158.309
 20
266.431
 30
0.000000
  70
    32
  0
VERTEX
  8
0
  5
167E
 10
158.609
 20
266.506
 30
0.000000
  70
    32
  0
VERTEX
  8
0
  5
167F
 10
158.904
 20
266.584
 30
0.000000
  70
    32
  0
VERTEX
  8
0
  5
1680
 10
159.196
 20
266.665
 30
0.000000
  70
    32
  0
VERTEX
  8
0
  5
1681
 10
159.483
 20
266.750
 30
0.000000
  70
    32
  0
VERTEX
  8
0
  5
1682
 10
159.766
 20
266.838
 30
0.000000
  70
    32
  0
VERTEX
  8
0
  5
1683
 10
160.044
 20
266.929
 30
0.000000
  70
    32
  0
VERTEX
  8
0
  5
1684
 10
160.318
 20
267.023
 30
0.000000
  70
    32
  0
VERTEX
  8
0
  5
1685
 10
160.587
 20
267.121
 30
0.000000
  70
    32
  0
VERTEX
  8
0
  5
1686
 10
160.850
 20
267.222
 30
0.000000
  70
    32
  0
VERTEX
  8
0
  5
1687
 10
161.108
 20
267.326
 30
0.000000
  70
    32
  0
VERTEX
  8
0
  5
1688
 10
161.361
 20
267.433
 30
0.000000
  70
    32
  0
VERTEX
  8
0
  5
1689
 10
161.608
 20
267.543
 30
0.000000
  70
    32
  0
VERTEX
  8
0
  5
168A
 10
161.850
 20
267.656
 30
0.000000
  70
    32
  0
VERTEX
  8
0
  5
168B
 10
162.085
 20
267.771
 30
0.000000
  70
    32
  0
VERTEX
  8
0
  5
168C
 10
162.315
 20
267.889
 30
0.000000
  70
    32
  0
VERTEX
  8
0
  5
168D
 10
162.539
 20
268.010
 30
0.000000
  70
    32
  0
VERTEX
  8
0
  5
168E
 10
162.756
 20
268.134
 30
0.000000
  70
    32
  0
VERTEX
  8
0
  5
168F
 10
162.967
 20
268.260
 30
0.000000
  70
    32
  0
VERTEX
  8
0
  5
1690
 10
163.171
 20
268.388
 30
0.000000
  70
    32
  0
VERTEX
  8
0
  5
1691
 10
163.369
 20
268.519
 30
0.000000
  70
    32
  0
VERTEX
  8
0
  5
1692
 10
163.560
 20
268.652
 30
0.000000
  70
    32
  0
VERTEX
  8
0
  5
1693
 10
163.744
 20
268.788
 30
0.000000
  70
    32
  0
VERTEX
  8
0
  5
1694
 10
163.921
 20
268.925
 30
0.000000
  70
    32
  0
VERTEX
  8
0
  5
1695
 10
164.091
 20
269.064
 30
0.000000
  70
    32
  0
VERTEX
  8
0
  5
1696
 10
164.254
 20
269.206
 30
0.000000
  70
    32
  0
VERTEX
  8
0
  5
1697
 10
164.409
 20
269.349
 30
0.000000
  70
    32
  0
VERTEX
  8
0
  5
1698
 10
164.557
 20
269.494
 30
0.000000
  70
    32
  0
VERTEX
  8
0
  5
1699
 10
164.697
 20
269.641
 30
0.000000
  70
    32
  0
VERTEX
  8
0
  5
169A
 10
164.830
 20
269.789
 30
0.000000
  70
    32
  0
VERTEX
  8
0
  5
169B
 10
164.956
 20
269.939
 30
0.000000
  70
    32
  0
VERTEX
  8
0
  5
169C
 10
165.073
 20
270.091
 30
0.000000
  70
    32
  0
VERTEX
  8
0
  5
169D
 10
165.183
 20
270.243
 30
0.000000
  70
    32
  0
VERTEX
  8
0
  5
169E
 10
165.285
 20
270.397
 30
0.000000
  70
    32
  0
VERTEX
  8
0
  5
169F
 10
165.379
 20
270.552
 30
0.000000
  70
    32
  0
VERTEX
  8
0
  5
16A0
 10
165.465
 20
270.708
 30
0.000000
  70
    32
  0
VERTEX
  8
0
  5
16A1
 10
165.543
 20
270.865
 30
0.000000
  70
    32
  0
VERTEX
  8
0
  5
16A2
 10
165.613
 20
271.023
 30
0.000000
  70
    32
  0
VERTEX
  8
0
  5
16A3
 10
165.675
 20
271.182
 30
0.000000
  70
    32
  0
VERTEX
  8
0
  5
16A4
 10
165.728
 20
271.341
 30
0.000000
  70
    32
  0
VERTEX
  8
0
  5
16A5
 10
165.774
 20
271.501
 30
0.000000
  70
    32
  0
VERTEX
  8
0
  5
16A6
 10
165.811
 20
271.662
 30
0.000000
  70
    32
  0
VERTEX
  8
0
  5
16A7
 10
165.840
 20
271.823
 30
0.000000
  70
    32
  0
VERTEX
  8
0
  5
16A8
 10
165.861
 20
271.984
 30
0.000000
  70
    32
  0
VERTEX
  8
0
  5
16A9
 10
165.873
 20
272.145
 30
0.000000
  70
    32
  0
VERTEX
  8
0
  5
16AA
 10
165.877
 20
272.306
 30
0.000000
  70
    32
  0
SEQEND
  8
0
  5
16AB
  0
LINE
  5
1258
  8
0
 10
165.87709598900321
 20
272.3064589581461
 30
0.0
 11
165.62709598900321
 21
240.8053605178936
 31
0.0
  0
LINE
  5
1259
  8
0
 10
160.22226337257749
 20
286.22444630866943
 30
0.0
 11
158.7106417696906
 21
293.40831541625982
 31
0.0
  0
ARC
  5
125A
  8
0
 10
158.2213562815526
 20
293.30536051789352
 30
0.0
 40
0.5
 50
11.882762862839719
 51
90.0
  0
ARC
  5
125B
  8
0
 10
164.80774631805201
 20
282.05987531012681
 30
0.0
 40
6.0
 50
141.32779275757619
 51
207.67186019459629
  0
ARC
  5
125C
  8
0
 10
159.73297788443969
 20
286.12149141030318
 30
0.0
 40
0.5
 50
321.32779275757628
 51
11.88276286284132
  0
LINE
  5
125D
  8
0
 10
160.23297788443969
 20
286.12149141030318
 30
0.0
 11
160.23297788443961
 21
277.77352026492599
 31
0.0
  0
ARC
  5
125E
  8
0
 10
168.8025090278353
 20
282.92746399593159
 30
0.0
 40
10.0
 50
201.4323956628549
 51
229.77460563426351
  0
LINE
  5
125F
  8
0
 10
138.37709598900321
 20
272.3064589581461
 30
0.0
 11
138.62709598900321
 21
240.8053605178936
 31
0.0
  0
LINE
  5
1260
  8
0
 10
144.03192860542879
 20
286.22444630866943
 30
0.0
 11
145.54355020831579
 21
293.40831541625982
 31
0.0
  0
ARC
  5
1261
  8
0
 10
144.5212140935667
 20
286.12149141030318
 30
0.0
 40
0.5
 50
168.1172371371587
 51
218.67220724242381
  0
ARC
  5
1262
  8
0
 10
146.0328356964537
 20
293.30536051789352
 30
0.0
 40
0.5
 50
90.0
 51
168.1172371371602
  0
POLYLINE
  5
1263
  8
0
 10
141.89613515210371
 20
275.28115949750514
 30
0.0
 66
     1
 70
     8
  0
VERTEX
  8
0
  5
16AC
 10
141.896
 20
275.281
 30
0.000000
  70
    32
  0
VERTEX
  8
0
  5
16AD
 10
141.844
 20
275.262
 30
0.000000
  70
    32
  0
VERTEX
  8
0
  5
16AE
 10
141.792
 20
275.243
 30
0.000000
  70
    32
  0
VERTEX
  8
0
  5
16AF
 10
141.740
 20
275.224
 30
0.000000
  70
    32
  0
VERTEX
  8
0
  5
16B0
 10
141.689
 20
275.205
 30
0.000000
  70
    32
  0
VERTEX
  8
0
  5
16B1
 10
141.638
 20
275.185
 30
0.000000
  70
    32
  0
VERTEX
  8
0
  5
16B2
 10
141.587
 20
275.166
 30
0.000000
  70
    32
  0
VERTEX
  8
0
  5
16B3
 10
141.537
 20
275.146
 30
0.000000
  70
    32
  0
VERTEX
  8
0
  5
16B4
 10
141.487
 20
275.127
 30
0.000000
  70
    32
  0
VERTEX
  8
0
  5
16B5
 10
141.437
 20
275.107
 30
0.000000
  70
    32
  0
VERTEX
  8
0
  5
16B6
 10
141.388
 20
275.087
 30
0.000000
  70
    32
  0
VERTEX
  8
0
  5
16B7
 10
141.339
 20
275.067
 30
0.000000
  70
    32
  0
VERTEX
  8
0
  5
16B8
 10
141.291
 20
275.047
 30
0.000000
  70
    32
  0
VERTEX
  8
0
  5
16B9
 10
141.242
 20
275.027
 30
0.000000
  70
    32
  0
VERTEX
  8
0
  5
16BA
 10
141.195
 20
275.007
 30
0.000000
  70
    32
  0
VERTEX
  8
0
  5
16BB
 10
141.147
 20
274.987
 30
0.000000
  70
    32
  0
VERTEX
  8
0
  5
16BC
 10
141.100
 20
274.966
 30
0.000000
  70
    32
  0
VERTEX
  8
0
  5
16BD
 10
141.053
 20
274.946
 30
0.000000
  70
    32
  0
VERTEX
  8
0
  5
16BE
 10
141.007
 20
274.925
 30
0.000000
  70
    32
  0
VERTEX
  8
0
  5
16BF
 10
140.961
 20
274.905
 30
0.000000
  70
    32
  0
VERTEX
  8
0
  5
16C0
 10
140.915
 20
274.884
 30
0.000000
  70
    32
  0
VERTEX
  8
0
  5
16C1
 10
140.870
 20
274.863
 30
0.000000
  70
    32
  0
VERTEX
  8
0
  5
16C2
 10
140.825
 20
274.842
 30
0.000000
  70
    32
  0
VERTEX
  8
0
  5
16C3
 10
140.780
 20
274.821
 30
0.000000
  70
    32
  0
VERTEX
  8
0
  5
16C4
 10
140.736
 20
274.800
 30
0.000000
  70
    32
  0
VERTEX
  8
0
  5
16C5
 10
140.692
 20
274.779
 30
0.000000
  70
    32
  0
VERTEX
  8
0
  5
16C6
 10
140.649
 20
274.758
 30
0.000000
  70
    32
  0
VERTEX
  8
0
  5
16C7
 10
140.606
 20
274.737
 30
0.000000
  70
    32
  0
VERTEX
  8
0
  5
16C8
 10
140.563
 20
274.715
 30
0.000000
  70
    32
  0
VERTEX
  8
0
  5
16C9
 10
140.521
 20
274.694
 30
0.000000
  70
    32
  0
VERTEX
  8
0
  5
16CA
 10
140.479
 20
274.672
 30
0.000000
  70
    32
  0
VERTEX
  8
0
  5
16CB
 10
140.437
 20
274.651
 30
0.000000
  70
    32
  0
VERTEX
  8
0
  5
16CC
 10
140.396
 20
274.629
 30
0.000000
  70
    32
  0
VERTEX
  8
0
  5
16CD
 10
140.355
 20
274.607
 30
0.000000
  70
    32
  0
VERTEX
  8
0
  5
16CE
 10
140.315
 20
274.585
 30
0.000000
  70
    32
  0
VERTEX
  8
0
  5
16CF
 10
140.275
 20
274.563
 30
0.000000
  70
    32
  0
VERTEX
  8
0
  5
16D0
 10
140.235
 20
274.541
 30
0.000000
  70
    32
  0
VERTEX
  8
0
  5
16D1
 10
140.196
 20
274.519
 30
0.000000
  70
    32
  0
VERTEX
  8
0
  5
16D2
 10
140.157
 20
274.497
 30
0.000000
  70
    32
  0
VERTEX
  8
0
  5
16D3
 10
140.118
 20
274.475
 30
0.000000
  70
    32
  0
VERTEX
  8
0
  5
16D4
 10
140.080
 20
274.453
 30
0.000000
  70
    32
  0
VERTEX
  8
0
  5
16D5
 10
140.043
 20
274.431
 30
0.000000
  70
    32
  0
VERTEX
  8
0
  5
16D6
 10
140.005
 20
274.408
 30
0.000000
  70
    32
  0
VERTEX
  8
0
  5
16D7
 10
139.968
 20
274.386
 30
0.000000
  70
    32
  0
VERTEX
  8
0
  5
16D8
 10
139.932
 20
274.363
 30
0.000000
  70
    32
  0
VERTEX
  8
0
  5
16D9
 10
139.896
 20
274.340
 30
0.000000
  70
    32
  0
VERTEX
  8
0
  5
16DA
 10
139.860
 20
274.318
 30
0.000000
  70
    32
  0
VERTEX
  8
0
  5
16DB
 10
139.825
 20
274.295
 30
0.000000
  70
    32
  0
VERTEX
  8
0
  5
16DC
 10
139.790
 20
274.272
 30
0.000000
  70
    32
  0
VERTEX
  8
0
  5
16DD
 10
139.755
 20
274.249
 30
0.000000
  70
    32
  0
VERTEX
  8
0
  5
16DE
 10
139.721
 20
274.226
 30
0.000000
  70
    32
  0
VERTEX
  8
0
  5
16DF
 10
139.688
 20
274.203
 30
0.000000
  70
    32
  0
VERTEX
  8
0
  5
16E0
 10
139.654
 20
274.180
 30
0.000000
  70
    32
  0
VERTEX
  8
0
  5
16E1
 10
139.621
 20
274.157
 30
0.000000
  70
    32
  0
VERTEX
  8
0
  5
16E2
 10
139.589
 20
274.134
 30
0.000000
  70
    32
  0
VERTEX
  8
0
  5
16E3
 10
139.557
 20
274.111
 30
0.000000
  70
    32
  0
VERTEX
  8
0
  5
16E4
 10
139.525
 20
274.088
 30
0.000000
  70
    32
  0
VERTEX
  8
0
  5
16E5
 10
139.494
 20
274.064
 30
0.000000
  70
    32
  0
VERTEX
  8
0
  5
16E6
 10
139.463
 20
274.041
 30
0.000000
  70
    32
  0
VERTEX
  8
0
  5
16E7
 10
139.433
 20
274.017
 30
0.000000
  70
    32
  0
VERTEX
  8
0
  5
16E8
 10
139.403
 20
273.994
 30
0.000000
  70
    32
  0
VERTEX
  8
0
  5
16E9
 10
139.373
 20
273.970
 30
0.000000
  70
    32
  0
VERTEX
  8
0
  5
16EA
 10
139.344
 20
273.947
 30
0.000000
  70
    32
  0
VERTEX
  8
0
  5
16EB
 10
139.315
 20
273.923
 30
0.000000
  70
    32
  0
VERTEX
  8
0
  5
16EC
 10
139.287
 20
273.899
 30
0.000000
  70
    32
  0
VERTEX
  8
0
  5
16ED
 10
139.259
 20
273.875
 30
0.000000
  70
    32
  0
VERTEX
  8
0
  5
16EE
 10
139.232
 20
273.852
 30
0.000000
  70
    32
  0
VERTEX
  8
0
  5
16EF
 10
139.205
 20
273.828
 30
0.000000
  70
    32
  0
VERTEX
  8
0
  5
16F0
 10
139.178
 20
273.804
 30
0.000000
  70
    32
  0
VERTEX
  8
0
  5
16F1
 10
139.152
 20
273.780
 30
0.000000
  70
    32
  0
VERTEX
  8
0
  5
16F2
 10
139.126
 20
273.756
 30
0.000000
  70
    32
  0
VERTEX
  8
0
  5
16F3
 10
139.100
 20
273.732
 30
0.000000
  70
    32
  0
VERTEX
  8
0
  5
16F4
 10
139.076
 20
273.707
 30
0.000000
  70
    32
  0
VERTEX
  8
0
  5
16F5
 10
139.051
 20
273.683
 30
0.000000
  70
    32
  0
VERTEX
  8
0
  5
16F6
 10
139.027
 20
273.659
 30
0.000000
  70
    32
  0
VERTEX
  8
0
  5
16F7
 10
139.003
 20
273.635
 30
0.000000
  70
    32
  0
VERTEX
  8
0
  5
16F8
 10
138.980
 20
273.610
 30
0.000000
  70
    32
  0
VERTEX
  8
0
  5
16F9
 10
138.957
 20
273.586
 30
0.000000
  70
    32
  0
VERTEX
  8
0
  5
16FA
 10
138.935
 20
273.562
 30
0.000000
  70
    32
  0
VERTEX
  8
0
  5
16FB
 10
138.913
 20
273.537
 30
0.000000
  70
    32
  0
VERTEX
  8
0
  5
16FC
 10
138.891
 20
273.513
 30
0.000000
  70
    32
  0
VERTEX
  8
0
  5
16FD
 10
138.870
 20
273.488
 30
0.000000
  70
    32
  0
VERTEX
  8
0
  5
16FE
 10
138.850
 20
273.464
 30
0.000000
  70
    32
  0
VERTEX
  8
0
  5
16FF
 10
138.829
 20
273.439
 30
0.000000
  70
    32
  0
VERTEX
  8
0
  5
1700
 10
138.810
 20
273.415
 30
0.000000
  70
    32
  0
VERTEX
  8
0
  5
1701
 10
138.790
 20
273.390
 30
0.000000
  70
    32
  0
VERTEX
  8
0
  5
1702
 10
138.771
 20
273.365
 30
0.000000
  70
    32
  0
VERTEX
  8
0
  5
1703
 10
138.753
 20
273.340
 30
0.000000
  70
    32
  0
VERTEX
  8
0
  5
1704
 10
138.735
 20
273.316
 30
0.000000
  70
    32
  0
VERTEX
  8
0
  5
1705
 10
138.717
 20
273.291
 30
0.000000
  70
    32
  0
VERTEX
  8
0
  5
1706
 10
138.700
 20
273.266
 30
0.000000
  70
    32
  0
VERTEX
  8
0
  5
1707
 10
138.683
 20
273.241
 30
0.000000
  70
    32
  0
VERTEX
  8
0
  5
1708
 10
138.667
 20
273.216
 30
0.000000
  70
    32
  0
VERTEX
  8
0
  5
1709
 10
138.651
 20
273.191
 30
0.000000
  70
    32
  0
VERTEX
  8
0
  5
170A
 10
138.636
 20
273.166
 30
0.000000
  70
    32
  0
VERTEX
  8
0
  5
170B
 10
138.621
 20
273.141
 30
0.000000
  70
    32
  0
VERTEX
  8
0
  5
170C
 10
138.606
 20
273.116
 30
0.000000
  70
    32
  0
VERTEX
  8
0
  5
170D
 10
138.592
 20
273.091
 30
0.000000
  70
    32
  0
VERTEX
  8
0
  5
170E
 10
138.579
 20
273.066
 30
0.000000
  70
    32
  0
VERTEX
  8
0
  5
170F
 10
138.566
 20
273.041
 30
0.000000
  70
    32
  0
VERTEX
  8
0
  5
1710
 10
138.553
 20
273.016
 30
0.000000
  70
    32
  0
VERTEX
  8
0
  5
1711
 10
138.541
 20
272.991
 30
0.000000
  70
    32
  0
VERTEX
  8
0
  5
1712
 10
138.529
 20
272.966
 30
0.000000
  70
    32
  0
VERTEX
  8
0
  5
1713
 10
138.517
 20
272.941
 30
0.000000
  70
    32
  0
VERTEX
  8
0
  5
1714
 10
138.506
 20
272.915
 30
0.000000
  70
    32
  0
VERTEX
  8
0
  5
1715
 10
138.496
 20
272.890
 30
0.000000
  70
    32
  0
VERTEX
  8
0
  5
1716
 10
138.486
 20
272.865
 30
0.000000
  70
    32
  0
VERTEX
  8
0
  5
1717
 10
138.476
 20
272.840
 30
0.000000
  70
    32
  0
VERTEX
  8
0
  5
1718
 10
138.467
 20
272.814
 30
0.000000
  70
    32
  0
VERTEX
  8
0
  5
1719
 10
138.458
 20
272.789
 30
0.000000
  70
    32
  0
VERTEX
  8
0
  5
171A
 10
138.450
 20
272.764
 30
0.000000
  70
    32
  0
VERTEX
  8
0
  5
171B
 10
138.442
 20
272.738
 30
0.000000
  70
    32
  0
VERTEX
  8
0
  5
171C
 10
138.435
 20
272.713
 30
0.000000
  70
    32
  0
VERTEX
  8
0
  5
171D
 10
138.428
 20
272.688
 30
0.000000
  70
    32
  0
VERTEX
  8
0
  5
171E
 10
138.421
 20
272.662
 30
0.000000
  70
    32
  0
VERTEX
  8
0
  5
171F
 10
138.415
 20
272.637
 30
0.000000
  70
    32
  0
VERTEX
  8
0
  5
1720
 10
138.409
 20
272.612
 30
0.000000
  70
    32
  0
VERTEX
  8
0
  5
1721
 10
138.404
 20
272.586
 30
0.000000
  70
    32
  0
VERTEX
  8
0
  5
1722
 10
138.400
 20
272.561
 30
0.000000
  70
    32
  0
VERTEX
  8
0
  5
1723
 10
138.395
 20
272.535
 30
0.000000
  70
    32
  0
VERTEX
  8
0
  5
1724
 10
138.391
 20
272.510
 30
0.000000
  70
    32
  0
VERTEX
  8
0
  5
1725
 10
138.388
 20
272.485
 30
0.000000
  70
    32
  0
VERTEX
  8
0
  5
1726
 10
138.385
 20
272.459
 30
0.000000
  70
    32
  0
VERTEX
  8
0
  5
1727
 10
138.383
 20
272.434
 30
0.000000
  70
    32
  0
VERTEX
  8
0
  5
1728
 10
138.381
 20
272.408
 30
0.000000
  70
    32
  0
VERTEX
  8
0
  5
1729
 10
138.379
 20
272.383
 30
0.000000
  70
    32
  0
VERTEX
  8
0
  5
172A
 10
138.378
 20
272.357
 30
0.000000
  70
    32
  0
VERTEX
  8
0
  5
172B
 10
138.377
 20
272.332
 30
0.000000
  70
    32
  0
VERTEX
  8
0
  5
172C
 10
138.377
 20
272.306
 30
0.000000
  70
    32
  0
SEQEND
  8
0
  5
172D
  0
LINE
  5
1264
  8
0
 10
144.0212140935667
 20
286.12149141030318
 30
0.0
 11
144.0212140935667
 21
277.77352026492599
 31
0.0
  0
ARC
  5
1265
  8
0
 10
139.44644565995441
 20
282.05987531012681
 30
0.0
 40
6.0
 50
332.32813980540368
 51
38.672207242423767
  0
ARC
  5
1266
  8
0
 10
135.451682950171
 20
282.92746399593159
 30
0.0
 40
10.0
 50
310.22539436573652
 51
338.5676043371451
  0
LINE
  5
1267
  8
0
 10
446.6779157161485
 20
289.80533926069751
 30
0.0
 11
448.37810161248137
 21
289.80533926069751
 31
0.0
  0
LINE
  5
1268
  8
0
 10
446.2111536313908
 20
289.14439017905761
 30
0.0
 11
448.84486369723908
 21
289.14439017905761
 31
0.0
  0
LINE
  5
1269
  8
0
 10
440.92697805805818
 20
280.4680485077522
 30
0.0
 11
454.12903927057181
 21
280.4680485077522
 31
0.0
  0
LINE
  5
126A
  8
0
 10
441.04094013533762
 20
281.86258247711169
 30
0.0
 11
454.01507719329243
 21
281.86258247711169
 31
0.0
  0
LINE
  5
126B
  8
0
 10
454.63989601243333
 20
279.7753605178936
 30
0.0
 11
440.41612131619672
 21
279.7753605178936
 31
0.0
  0
LINE
  5
126C
  8
0
 10
454.02800866431488
 20
293.56054585246511
 30
0.0
 11
454.02800866431488
 21
281.7253833857776
 31
0.0
  0
LINE
  5
126D
  8
0
 10
461.02800866431488
 20
240.8053605178936
 30
0.0
 11
434.028008664315
 21
240.8053605178936
 31
0.0
  0
POLYLINE
  5
126E
  8
0
 66
     1
 10
0.0
 20
0.0
 30
0.0
  0
VERTEX
  5
14D0
  8
0
 10
439.795217820434
 20
260.08297800372748
 30
0.0
  0
VERTEX
  5
14D1
  8
0
 10
439.64291828467151
 20
259.70235766602178
 30
0.0
  0
VERTEX
  5
14D2
  8
0
 10
439.31219072337967
 20
258.94164127053722
 30
0.0
  0
VERTEX
  5
14D3
  8
0
 10
438.94832684179642
 20
258.18316745637293
 30
0.0
  0
VERTEX
  5
14D4
  8
0
 10
438.7546526680315
 20
257.80536051789352
 30
0.0
  0
SEQEND
  5
14D5
  8
0
  0
POLYLINE
  5
126F
  8
0
 66
     1
 10
0.0
 20
0.0
 30
0.0
  0
VERTEX
  5
14D6
  8
0
 10
439.65339918769348
 20
270.46099915593669
 30
0.0
  0
VERTEX
  5
14D7
  8
0
 10
440.02935537721868
 20
269.69523885236168
 30
0.0
  0
VERTEX
  5
14D8
  8
0
 10
440.58356684332779
 20
268.07855934727189
 30
0.0
  0
VERTEX
  5
14D9
  8
0
 10
440.8630826959735
 20
266.36046659860801
 30
0.0
  0
VERTEX
  5
14DA
  8
0
 10
440.898008664315
 20
265.46880339644451
 30
0.0
  0
SEQEND
  5
14DB
  8
0
  0
POLYLINE
  5
1270
  8
0
 66
     1
 10
0.0
 20
0.0
 30
0.0
  0
VERTEX
  5
14DC
  8
0
 10
440.898008664315
 20
265.46880339644451
 30
0.0
  0
VERTEX
  5
14DD
  8
0
 10
440.86629084721932
 20
264.59933898575542
 30
0.0
  0
VERTEX
  5
14DE
  8
0
 10
440.61541879044739
 20
262.81859319881403
 30
0.0
  0
VERTEX
  5
14DF
  8
0
 10
440.12485742820257
 20
260.99964012651662
 30
0.0
  0
VERTEX
  5
14E0
  8
0
 10
439.795217820434
 20
260.08297800372748
 30
0.0
  0
SEQEND
  5
14E1
  8
0
  0
POLYLINE
  5
1271
  8
0
 66
     1
 10
0.0
 20
0.0
 30
0.0
  0
VERTEX
  5
14E2
  8
0
 10
439.41062558739458
 20
271.5388645468704
 30
0.0
  0
VERTEX
  5
14E3
  8
0
 10
439.40825208714102
 20
271.51223951325971
 30
0.0
  0
VERTEX
  5
14E4
  8
0
 10
439.40481600092238
 20
271.45907921130498
 30
0.0
  0
VERTEX
  5
14E5
  8
0
 10
439.40310918998961
 20
271.40605383785828
 30
0.0
  0
VERTEX
  5
14E6
  8
0
 10
439.40289697148262
 20
271.37959749167601
 30
0.0
  0
SEQEND
  5
14E7
  8
0
  0
POLYLINE
  5
1272
  8
0
 66
     1
 10
0.0
 20
0.0
 30
0.0
  0
VERTEX
  5
14E8
  8
0
 10
439.40289697148262
 20
271.37959749167601
 30
0.0
  0
VERTEX
  5
14E9
  8
0
 10
439.40957016947129
 20
271.230816402801
 30
0.0
  0
VERTEX
  5
14EA
  8
0
 10
439.46415306831648
 20
270.92702910678969
 30
0.0
  0
VERTEX
  5
14EB
  8
0
 10
439.57574309399342
 20
270.61725334277452
 30
0.0
  0
VERTEX
  5
14EC
  8
0
 10
439.65339918769348
 20
270.46099915593669
 30
0.0
  0
SEQEND
  5
14ED
  8
0
  0
LINE
  5
1273
  8
0
 10
440.32467365468051
 20
279.45581666819402
 30
0.0
 11
454.73134367394931
 21
279.45581666819402
 31
0.0
  0
LINE
  5
1274
  8
0
 10
457.02800866431488
 20
230.8053605178936
 30
0.0
 11
457.02800866431488
 21
240.8053605178936
 31
0.0
  0
LINE
  5
1275
  8
0
 10
438.028008664315
 20
240.8053605178936
 30
0.0
 11
438.028008664315
 21
230.8053605178936
 31
0.0
  0
LINE
  5
1276
  8
0
 10
438.028008664315
 20
230.8053605178936
 30
0.0
 11
457.02800866431488
 21
230.8053605178936
 31
0.0
  0
LINE
  5
1277
  8
1
 10
447.52800866431511
 20
298.80536051789352
 30
0.0
 11
447.52800866431488
 21
155.80536051789349
 31
0.0
  0
LINE
  5
1278
  8
0
 10
453.62226895686439
 20
293.80536051789352
 30
0.0
 11
441.43374837176549
 21
293.80536051789352
 31
0.0
  0
ARC
  5
1279
  8
0
 10
441.43374837176549
 20
293.30536051789352
 30
0.0
 40
0.5
 50
90.0
 51
168.1172371371602
  0
ARC
  5
127A
  8
0
 10
453.62226895686439
 20
293.30536051789352
 30
0.0
 40
0.5
 50
11.882762862839719
 51
90.0
  0
LINE
  5
127B
  8
0
 10
455.6231760478895
 20
286.22444630866943
 30
0.0
 11
454.11155444500241
 21
293.40831541625982
 31
0.0
  0
LINE
  5
127C
  8
0
 10
439.43284128074049
 20
286.22444630866943
 30
0.0
 11
440.94446288362758
 21
293.40831541625982
 31
0.0
  0
LINE
  5
127D
  8
0
 10
439.42212676887851
 20
286.12149141030318
 30
0.0
 11
439.42212676887851
 21
271.65387073687822
 31
0.0
  0
ARC
  5
127E
  8
0
 10
439.92212676887851
 20
286.12149141030318
 30
0.0
 40
0.5
 50
168.1172371371587
 51
180.0
  0
ARC
  5
127F
  8
0
 10
455.13389055975148
 20
286.12149141030318
 30
0.0
 40
0.5
 50
0.0
 51
11.88276286284132
  0
LINE
  5
1280
  8
0
 10
455.63389055975148
 20
286.12149141030318
 30
0.0
 11
455.63389055975142
 21
271.63110534651707
 31
0.0
  0
LINE
  5
1281
  8
0
 10
433.778008664315
 20
272.3064589581461
 30
0.0
 11
434.028008664315
 21
240.8053605178936
 31
0.0
  0
LINE
  5
1282
  8
0
 10
461.27800866431488
 20
272.3064589581461
 30
0.0
 11
461.02800866431488
 21
240.8053605178936
 31
0.0
  0
POLYLINE
  5
1283
  8
0
 10
461.27800866431511
 20
272.3064589581461
 30
0.0
 66
     1
 70
     8
  0
VERTEX
  8
0
  5
172E
 10
461.278
 20
272.306
 30
0.000000
  70
    32
  0
VERTEX
  8
0
  5
172F
 10
461.278
 20
272.332
 30
0.000000
  70
    32
  0
VERTEX
  8
0
  5
1730
 10
461.277
 20
272.357
 30
0.000000
  70
    32
  0
VERTEX
  8
0
  5
1731
 10
461.276
 20
272.383
 30
0.000000
  70
    32
  0
VERTEX
  8
0
  5
1732
 10
461.274
 20
272.408
 30
0.000000
  70
    32
  0
VERTEX
  8
0
  5
1733
 10
461.272
 20
272.434
 30
0.000000
  70
    32
  0
VERTEX
  8
0
  5
1734
 10
461.270
 20
272.459
 30
0.000000
  70
    32
  0
VERTEX
  8
0
  5
1735
 10
461.267
 20
272.485
 30
0.000000
  70
    32
  0
VERTEX
  8
0
  5
1736
 10
461.264
 20
272.510
 30
0.000000
  70
    32
  0
VERTEX
  8
0
  5
1737
 10
461.260
 20
272.535
 30
0.000000
  70
    32
  0
VERTEX
  8
0
  5
1738
 10
461.256
 20
272.561
 30
0.000000
  70
    32
  0
VERTEX
  8
0
  5
1739
 10
461.251
 20
272.586
 30
0.000000
  70
    32
  0
VERTEX
  8
0
  5
173A
 10
461.246
 20
272.612
 30
0.000000
  70
    32
  0
VERTEX
  8
0
  5
173B
 10
461.240
 20
272.637
 30
0.000000
  70
    32
  0
VERTEX
  8
0
  5
173C
 10
461.234
 20
272.662
 30
0.000000
  70
    32
  0
VERTEX
  8
0
  5
173D
 10
461.227
 20
272.688
 30
0.000000
  70
    32
  0
VERTEX
  8
0
  5
173E
 10
461.221
 20
272.713
 30
0.000000
  70
    32
  0
VERTEX
  8
0
  5
173F
 10
461.213
 20
272.738
 30
0.000000
  70
    32
  0
VERTEX
  8
0
  5
1740
 10
461.205
 20
272.764
 30
0.000000
  70
    32
  0
VERTEX
  8
0
  5
1741
 10
461.197
 20
272.789
 30
0.000000
  70
    32
  0
VERTEX
  8
0
  5
1742
 10
461.188
 20
272.814
 30
0.000000
  70
    32
  0
VERTEX
  8
0
  5
1743
 10
461.179
 20
272.840
 30
0.000000
  70
    32
  0
VERTEX
  8
0
  5
1744
 10
461.169
 20
272.865
 30
0.000000
  70
    32
  0
VERTEX
  8
0
  5
1745
 10
461.159
 20
272.890
 30
0.000000
  70
    32
  0
VERTEX
  8
0
  5
1746
 10
461.149
 20
272.915
 30
0.000000
  70
    32
  0
VERTEX
  8
0
  5
1747
 10
461.138
 20
272.941
 30
0.000000
  70
    32
  0
VERTEX
  8
0
  5
1748
 10
461.126
 20
272.966
 30
0.000000
  70
    32
  0
VERTEX
  8
0
  5
1749
 10
461.115
 20
272.991
 30
0.000000
  70
    32
  0
VERTEX
  8
0
  5
174A
 10
461.102
 20
273.016
 30
0.000000
  70
    32
  0
VERTEX
  8
0
  5
174B
 10
461.090
 20
273.041
 30
0.000000
  70
    32
  0
VERTEX
  8
0
  5
174C
 10
461.076
 20
273.066
 30
0.000000
  70
    32
  0
VERTEX
  8
0
  5
174D
 10
461.063
 20
273.091
 30
0.000000
  70
    32
  0
VERTEX
  8
0
  5
174E
 10
461.049
 20
273.116
 30
0.000000
  70
    32
  0
VERTEX
  8
0
  5
174F
 10
461.034
 20
273.141
 30
0.000000
  70
    32
  0
VERTEX
  8
0
  5
1750
 10
461.019
 20
273.166
 30
0.000000
  70
    32
  0
VERTEX
  8
0
  5
1751
 10
461.004
 20
273.191
 30
0.000000
  70
    32
  0
VERTEX
  8
0
  5
1752
 10
460.988
 20
273.216
 30
0.000000
  70
    32
  0
VERTEX
  8
0
  5
1753
 10
460.972
 20
273.241
 30
0.000000
  70
    32
  0
VERTEX
  8
0
  5
1754
 10
460.955
 20
273.266
 30
0.000000
  70
    32
  0
VERTEX
  8
0
  5
1755
 10
460.938
 20
273.291
 30
0.000000
  70
    32
  0
VERTEX
  8
0
  5
1756
 10
460.920
 20
273.316
 30
0.000000
  70
    32
  0
VERTEX
  8
0
  5
1757
 10
460.902
 20
273.340
 30
0.000000
  70
    32
  0
VERTEX
  8
0
  5
1758
 10
460.884
 20
273.365
 30
0.000000
  70
    32
  0
VERTEX
  8
0
  5
1759
 10
460.865
 20
273.390
 30
0.000000
  70
    32
  0
VERTEX
  8
0
  5
175A
 10
460.845
 20
273.415
 30
0.000000
  70
    32
  0
VERTEX
  8
0
  5
175B
 10
460.826
 20
273.439
 30
0.000000
  70
    32
  0
VERTEX
  8
0
  5
175C
 10
460.805
 20
273.464
 30
0.000000
  70
    32
  0
VERTEX
  8
0
  5
175D
 10
460.785
 20
273.488
 30
0.000000
  70
    32
  0
VERTEX
  8
0
  5
175E
 10
460.764
 20
273.513
 30
0.000000
  70
    32
  0
VERTEX
  8
0
  5
175F
 10
460.742
 20
273.537
 30
0.000000
  70
    32
  0
VERTEX
  8
0
  5
1760
 10
460.720
 20
273.562
 30
0.000000
  70
    32
  0
VERTEX
  8
0
  5
1761
 10
460.698
 20
273.586
 30
0.000000
  70
    32
  0
VERTEX
  8
0
  5
1762
 10
460.675
 20
273.610
 30
0.000000
  70
    32
  0
VERTEX
  8
0
  5
1763
 10
460.652
 20
273.635
 30
0.000000
  70
    32
  0
VERTEX
  8
0
  5
1764
 10
460.628
 20
273.659
 30
0.000000
  70
    32
  0
VERTEX
  8
0
  5
1765
 10
460.604
 20
273.683
 30
0.000000
  70
    32
  0
VERTEX
  8
0
  5
1766
 10
460.580
 20
273.707
 30
0.000000
  70
    32
  0
VERTEX
  8
0
  5
1767
 10
460.555
 20
273.732
 30
0.000000
  70
    32
  0
VERTEX
  8
0
  5
1768
 10
460.529
 20
273.756
 30
0.000000
  70
    32
  0
VERTEX
  8
0
  5
1769
 10
460.503
 20
273.780
 30
0.000000
  70
    32
  0
VERTEX
  8
0
  5
176A
 10
460.477
 20
273.804
 30
0.000000
  70
    32
  0
VERTEX
  8
0
  5
176B
 10
460.451
 20
273.828
 30
0.000000
  70
    32
  0
VERTEX
  8
0
  5
176C
 10
460.424
 20
273.852
 30
0.000000
  70
    32
  0
VERTEX
  8
0
  5
176D
 10
460.396
 20
273.875
 30
0.000000
  70
    32
  0
VERTEX
  8
0
  5
176E
 10
460.368
 20
273.899
 30
0.000000
  70
    32
  0
VERTEX
  8
0
  5
176F
 10
460.340
 20
273.923
 30
0.000000
  70
    32
  0
VERTEX
  8
0
  5
1770
 10
460.311
 20
273.947
 30
0.000000
  70
    32
  0
VERTEX
  8
0
  5
1771
 10
460.282
 20
273.970
 30
0.000000
  70
    32
  0
VERTEX
  8
0
  5
1772
 10
460.252
 20
273.994
 30
0.000000
  70
    32
  0
VERTEX
  8
0
  5
1773
 10
460.222
 20
274.017
 30
0.000000
  70
    32
  0
VERTEX
  8
0
  5
1774
 10
460.192
 20
274.041
 30
0.000000
  70
    32
  0
VERTEX
  8
0
  5
1775
 10
460.161
 20
274.064
 30
0.000000
  70
    32
  0
VERTEX
  8
0
  5
1776
 10
460.130
 20
274.088
 30
0.000000
  70
    32
  0
VERTEX
  8
0
  5
1777
 10
460.098
 20
274.111
 30
0.000000
  70
    32
  0
VERTEX
  8
0
  5
1778
 10
460.066
 20
274.134
 30
0.000000
  70
    32
  0
VERTEX
  8
0
  5
1779
 10
460.034
 20
274.157
 30
0.000000
  70
    32
  0
VERTEX
  8
0
  5
177A
 10
460.001
 20
274.180
 30
0.000000
  70
    32
  0
VERTEX
  8
0
  5
177B
 10
459.968
 20
274.203
 30
0.000000
  70
    32
  0
VERTEX
  8
0
  5
177C
 10
459.934
 20
274.226
 30
0.000000
  70
    32
  0
VERTEX
  8
0
  5
177D
 10
459.900
 20
274.249
 30
0.000000
  70
    32
  0
VERTEX
  8
0
  5
177E
 10
459.865
 20
274.272
 30
0.000000
  70
    32
  0
VERTEX
  8
0
  5
177F
 10
459.830
 20
274.295
 30
0.000000
  70
    32
  0
VERTEX
  8
0
  5
1780
 10
459.795
 20
274.318
 30
0.000000
  70
    32
  0
VERTEX
  8
0
  5
1781
 10
459.759
 20
274.340
 30
0.000000
  70
    32
  0
VERTEX
  8
0
  5
1782
 10
459.723
 20
274.363
 30
0.000000
  70
    32
  0
VERTEX
  8
0
  5
1783
 10
459.687
 20
274.386
 30
0.000000
  70
    32
  0
VERTEX
  8
0
  5
1784
 10
459.650
 20
274.408
 30
0.000000
  70
    32
  0
VERTEX
  8
0
  5
1785
 10
459.613
 20
274.431
 30
0.000000
  70
    32
  0
VERTEX
  8
0
  5
1786
 10
459.575
 20
274.453
 30
0.000000
  70
    32
  0
VERTEX
  8
0
  5
1787
 10
459.537
 20
274.475
 30
0.000000
  70
    32
  0
VERTEX
  8
0
  5
1788
 10
459.498
 20
274.497
 30
0.000000
  70
    32
  0
VERTEX
  8
0
  5
1789
 10
459.459
 20
274.519
 30
0.000000
  70
    32
  0
VERTEX
  8
0
  5
178A
 10
459.420
 20
274.541
 30
0.000000
  70
    32
  0
VERTEX
  8
0
  5
178B
 10
459.381
 20
274.563
 30
0.000000
  70
    32
  0
VERTEX
  8
0
  5
178C
 10
459.340
 20
274.585
 30
0.000000
  70
    32
  0
VERTEX
  8
0
  5
178D
 10
459.300
 20
274.607
 30
0.000000
  70
    32
  0
VERTEX
  8
0
  5
178E
 10
459.259
 20
274.629
 30
0.000000
  70
    32
  0
VERTEX
  8
0
  5
178F
 10
459.218
 20
274.651
 30
0.000000
  70
    32
  0
VERTEX
  8
0
  5
1790
 10
459.177
 20
274.672
 30
0.000000
  70
    32
  0
VERTEX
  8
0
  5
1791
 10
459.135
 20
274.694
 30
0.000000
  70
    32
  0
VERTEX
  8
0
  5
1792
 10
459.092
 20
274.715
 30
0.000000
  70
    32
  0
VERTEX
  8
0
  5
1793
 10
459.050
 20
274.737
 30
0.000000
  70
    32
  0
VERTEX
  8
0
  5
1794
 10
459.006
 20
274.758
 30
0.000000
  70
    32
  0
VERTEX
  8
0
  5
1795
 10
458.963
 20
274.779
 30
0.000000
  70
    32
  0
VERTEX
  8
0
  5
1796
 10
458.919
 20
274.800
 30
0.000000
  70
    32
  0
VERTEX
  8
0
  5
1797
 10
458.875
 20
274.821
 30
0.000000
  70
    32
  0
VERTEX
  8
0
  5
1798
 10
458.830
 20
274.842
 30
0.000000
  70
    32
  0
VERTEX
  8
0
  5
1799
 10
458.785
 20
274.863
 30
0.000000
  70
    32
  0
VERTEX
  8
0
  5
179A
 10
458.740
 20
274.884
 30
0.000000
  70
    32
  0
VERTEX
  8
0
  5
179B
 10
458.694
 20
274.905
 30
0.000000
  70
    32
  0
VERTEX
  8
0
  5
179C
 10
458.648
 20
274.925
 30
0.000000
  70
    32
  0
VERTEX
  8
0
  5
179D
 10
458.602
 20
274.946
 30
0.000000
  70
    32
  0
VERTEX
  8
0
  5
179E
 10
458.555
 20
274.966
 30
0.000000
  70
    32
  0
VERTEX
  8
0
  5
179F
 10
458.508
 20
274.987
 30
0.000000
  70
    32
  0
VERTEX
  8
0
  5
17A0
 10
458.461
 20
275.007
 30
0.000000
  70
    32
  0
VERTEX
  8
0
  5
17A1
 10
458.413
 20
275.027
 30
0.000000
  70
    32
  0
VERTEX
  8
0
  5
17A2
 10
458.365
 20
275.047
 30
0.000000
  70
    32
  0
VERTEX
  8
0
  5
17A3
 10
458.316
 20
275.067
 30
0.000000
  70
    32
  0
VERTEX
  8
0
  5
17A4
 10
458.267
 20
275.087
 30
0.000000
  70
    32
  0
VERTEX
  8
0
  5
17A5
 10
458.218
 20
275.107
 30
0.000000
  70
    32
  0
VERTEX
  8
0
  5
17A6
 10
458.168
 20
275.127
 30
0.000000
  70
    32
  0
VERTEX
  8
0
  5
17A7
 10
458.118
 20
275.146
 30
0.000000
  70
    32
  0
VERTEX
  8
0
  5
17A8
 10
458.068
 20
275.166
 30
0.000000
  70
    32
  0
VERTEX
  8
0
  5
17A9
 10
458.017
 20
275.185
 30
0.000000
  70
    32
  0
VERTEX
  8
0
  5
17AA
 10
457.966
 20
275.205
 30
0.000000
  70
    32
  0
VERTEX
  8
0
  5
17AB
 10
457.915
 20
275.224
 30
0.000000
  70
    32
  0
VERTEX
  8
0
  5
17AC
 10
457.863
 20
275.243
 30
0.000000
  70
    32
  0
VERTEX
  8
0
  5
17AD
 10
457.811
 20
275.262
 30
0.000000
  70
    32
  0
VERTEX
  8
0
  5
17AE
 10
457.759
 20
275.281
 30
0.000000
  70
    32
  0
SEQEND
  8
0
  5
17AF
  0
ARC
  5
1284
  8
0
 10
464.20342170314711
 20
282.92746399593159
 30
0.0
 40
10.0
 50
211.0238190760582
 51
229.77460563426351
  0
ARC
  5
1285
  8
0
 10
430.85259562548282
 20
282.92746399593159
 30
0.0
 40
10.0
 50
310.22539436573652
 51
328.97618092394111
  0
POLYLINE
  5
1286
  8
0
 10
437.29704782741561
 20
275.28115949750514
 30
0.0
 66
     1
 70
     8
  0
VERTEX
  8
0
  5
17B0
 10
437.297
 20
275.281
 30
0.000000
  70
    32
  0
VERTEX
  8
0
  5
17B1
 10
437.245
 20
275.262
 30
0.000000
  70
    32
  0
VERTEX
  8
0
  5
17B2
 10
437.193
 20
275.243
 30
0.000000
  70
    32
  0
VERTEX
  8
0
  5
17B3
 10
437.141
 20
275.224
 30
0.000000
  70
    32
  0
VERTEX
  8
0
  5
17B4
 10
437.090
 20
275.205
 30
0.000000
  70
    32
  0
VERTEX
  8
0
  5
17B5
 10
437.039
 20
275.185
 30
0.000000
  70
    32
  0
VERTEX
  8
0
  5
17B6
 10
436.988
 20
275.166
 30
0.000000
  70
    32
  0
VERTEX
  8
0
  5
17B7
 10
436.938
 20
275.146
 30
0.000000
  70
    32
  0
VERTEX
  8
0
  5
17B8
 10
436.888
 20
275.127
 30
0.000000
  70
    32
  0
VERTEX
  8
0
  5
17B9
 10
436.838
 20
275.107
 30
0.000000
  70
    32
  0
VERTEX
  8
0
  5
17BA
 10
436.789
 20
275.087
 30
0.000000
  70
    32
  0
VERTEX
  8
0
  5
17BB
 10
436.740
 20
275.067
 30
0.000000
  70
    32
  0
VERTEX
  8
0
  5
17BC
 10
436.691
 20
275.047
 30
0.000000
  70
    32
  0
VERTEX
  8
0
  5
17BD
 10
436.643
 20
275.027
 30
0.000000
  70
    32
  0
VERTEX
  8
0
  5
17BE
 10
436.595
 20
275.007
 30
0.000000
  70
    32
  0
VERTEX
  8
0
  5
17BF
 10
436.548
 20
274.987
 30
0.000000
  70
    32
  0
VERTEX
  8
0
  5
17C0
 10
436.501
 20
274.966
 30
0.000000
  70
    32
  0
VERTEX
  8
0
  5
17C1
 10
436.454
 20
274.946
 30
0.000000
  70
    32
  0
VERTEX
  8
0
  5
17C2
 10
436.408
 20
274.925
 30
0.000000
  70
    32
  0
VERTEX
  8
0
  5
17C3
 10
436.362
 20
274.905
 30
0.000000
  70
    32
  0
VERTEX
  8
0
  5
17C4
 10
436.316
 20
274.884
 30
0.000000
  70
    32
  0
VERTEX
  8
0
  5
17C5
 10
436.271
 20
274.863
 30
0.000000
  70
    32
  0
VERTEX
  8
0
  5
17C6
 10
436.226
 20
274.842
 30
0.000000
  70
    32
  0
VERTEX
  8
0
  5
17C7
 10
436.181
 20
274.821
 30
0.000000
  70
    32
  0
VERTEX
  8
0
  5
17C8
 10
436.137
 20
274.800
 30
0.000000
  70
    32
  0
VERTEX
  8
0
  5
17C9
 10
436.093
 20
274.779
 30
0.000000
  70
    32
  0
VERTEX
  8
0
  5
17CA
 10
436.050
 20
274.758
 30
0.000000
  70
    32
  0
VERTEX
  8
0
  5
17CB
 10
436.007
 20
274.737
 30
0.000000
  70
    32
  0
VERTEX
  8
0
  5
17CC
 10
435.964
 20
274.715
 30
0.000000
  70
    32
  0
VERTEX
  8
0
  5
17CD
 10
435.921
 20
274.694
 30
0.000000
  70
    32
  0
VERTEX
  8
0
  5
17CE
 10
435.880
 20
274.672
 30
0.000000
  70
    32
  0
VERTEX
  8
0
  5
17CF
 10
435.838
 20
274.651
 30
0.000000
  70
    32
  0
VERTEX
  8
0
  5
17D0
 10
435.797
 20
274.629
 30
0.000000
  70
    32
  0
VERTEX
  8
0
  5
17D1
 10
435.756
 20
274.607
 30
0.000000
  70
    32
  0
VERTEX
  8
0
  5
17D2
 10
435.716
 20
274.585
 30
0.000000
  70
    32
  0
VERTEX
  8
0
  5
17D3
 10
435.675
 20
274.563
 30
0.000000
  70
    32
  0
VERTEX
  8
0
  5
17D4
 10
435.636
 20
274.541
 30
0.000000
  70
    32
  0
VERTEX
  8
0
  5
17D5
 10
435.597
 20
274.519
 30
0.000000
  70
    32
  0
VERTEX
  8
0
  5
17D6
 10
435.558
 20
274.497
 30
0.000000
  70
    32
  0
VERTEX
  8
0
  5
17D7
 10
435.519
 20
274.475
 30
0.000000
  70
    32
  0
VERTEX
  8
0
  5
17D8
 10
435.481
 20
274.453
 30
0.000000
  70
    32
  0
VERTEX
  8
0
  5
17D9
 10
435.443
 20
274.431
 30
0.000000
  70
    32
  0
VERTEX
  8
0
  5
17DA
 10
435.406
 20
274.408
 30
0.000000
  70
    32
  0
VERTEX
  8
0
  5
17DB
 10
435.369
 20
274.386
 30
0.000000
  70
    32
  0
VERTEX
  8
0
  5
17DC
 10
435.333
 20
274.363
 30
0.000000
  70
    32
  0
VERTEX
  8
0
  5
17DD
 10
435.297
 20
274.340
 30
0.000000
  70
    32
  0
VERTEX
  8
0
  5
17DE
 10
435.261
 20
274.318
 30
0.000000
  70
    32
  0
VERTEX
  8
0
  5
17DF
 10
435.226
 20
274.295
 30
0.000000
  70
    32
  0
VERTEX
  8
0
  5
17E0
 10
435.191
 20
274.272
 30
0.000000
  70
    32
  0
VERTEX
  8
0
  5
17E1
 10
435.156
 20
274.249
 30
0.000000
  70
    32
  0
VERTEX
  8
0
  5
17E2
 10
435.122
 20
274.226
 30
0.000000
  70
    32
  0
VERTEX
  8
0
  5
17E3
 10
435.088
 20
274.203
 30
0.000000
  70
    32
  0
VERTEX
  8
0
  5
17E4
 10
435.055
 20
274.180
 30
0.000000
  70
    32
  0
VERTEX
  8
0
  5
17E5
 10
435.022
 20
274.157
 30
0.000000
  70
    32
  0
VERTEX
  8
0
  5
17E6
 10
434.990
 20
274.134
 30
0.000000
  70
    32
  0
VERTEX
  8
0
  5
17E7
 10
434.958
 20
274.111
 30
0.000000
  70
    32
  0
VERTEX
  8
0
  5
17E8
 10
434.926
 20
274.088
 30
0.000000
  70
    32
  0
VERTEX
  8
0
  5
17E9
 10
434.895
 20
274.064
 30
0.000000
  70
    32
  0
VERTEX
  8
0
  5
17EA
 10
434.864
 20
274.041
 30
0.000000
  70
    32
  0
VERTEX
  8
0
  5
17EB
 10
434.834
 20
274.017
 30
0.000000
  70
    32
  0
VERTEX
  8
0
  5
17EC
 10
434.804
 20
273.994
 30
0.000000
  70
    32
  0
VERTEX
  8
0
  5
17ED
 10
434.774
 20
273.970
 30
0.000000
  70
    32
  0
VERTEX
  8
0
  5
17EE
 10
434.745
 20
273.947
 30
0.000000
  70
    32
  0
VERTEX
  8
0
  5
17EF
 10
434.716
 20
273.923
 30
0.000000
  70
    32
  0
VERTEX
  8
0
  5
17F0
 10
434.688
 20
273.899
 30
0.000000
  70
    32
  0
VERTEX
  8
0
  5
17F1
 10
434.660
 20
273.875
 30
0.000000
  70
    32
  0
VERTEX
  8
0
  5
17F2
 10
434.632
 20
273.852
 30
0.000000
  70
    32
  0
VERTEX
  8
0
  5
17F3
 10
434.605
 20
273.828
 30
0.000000
  70
    32
  0
VERTEX
  8
0
  5
17F4
 10
434.579
 20
273.804
 30
0.000000
  70
    32
  0
VERTEX
  8
0
  5
17F5
 10
434.553
 20
273.780
 30
0.000000
  70
    32
  0
VERTEX
  8
0
  5
17F6
 10
434.527
 20
273.756
 30
0.000000
  70
    32
  0
VERTEX
  8
0
  5
17F7
 10
434.501
 20
273.732
 30
0.000000
  70
    32
  0
VERTEX
  8
0
  5
17F8
 10
434.476
 20
273.707
 30
0.000000
  70
    32
  0
VERTEX
  8
0
  5
17F9
 10
434.452
 20
273.683
 30
0.000000
  70
    32
  0
VERTEX
  8
0
  5
17FA
 10
434.428
 20
273.659
 30
0.000000
  70
    32
  0
VERTEX
  8
0
  5
17FB
 10
434.404
 20
273.635
 30
0.000000
  70
    32
  0
VERTEX
  8
0
  5
17FC
 10
434.381
 20
273.610
 30
0.000000
  70
    32
  0
VERTEX
  8
0
  5
17FD
 10
434.358
 20
273.586
 30
0.000000
  70
    32
  0
VERTEX
  8
0
  5
17FE
 10
434.336
 20
273.562
 30
0.000000
  70
    32
  0
VERTEX
  8
0
  5
17FF
 10
434.314
 20
273.537
 30
0.000000
  70
    32
  0
VERTEX
  8
0
  5
1800
 10
434.292
 20
273.513
 30
0.000000
  70
    32
  0
VERTEX
  8
0
  5
1801
 10
434.271
 20
273.488
 30
0.000000
  70
    32
  0
VERTEX
  8
0
  5
1802
 10
434.251
 20
273.464
 30
0.000000
  70
    32
  0
VERTEX
  8
0
  5
1803
 10
434.230
 20
273.439
 30
0.000000
  70
    32
  0
VERTEX
  8
0
  5
1804
 10
434.211
 20
273.415
 30
0.000000
  70
    32
  0
VERTEX
  8
0
  5
1805
 10
434.191
 20
273.390
 30
0.000000
  70
    32
  0
VERTEX
  8
0
  5
1806
 10
434.172
 20
273.365
 30
0.000000
  70
    32
  0
VERTEX
  8
0
  5
1807
 10
434.154
 20
273.340
 30
0.000000
  70
    32
  0
VERTEX
  8
0
  5
1808
 10
434.136
 20
273.316
 30
0.000000
  70
    32
  0
VERTEX
  8
0
  5
1809
 10
434.118
 20
273.291
 30
0.000000
  70
    32
  0
VERTEX
  8
0
  5
180A
 10
434.101
 20
273.266
 30
0.000000
  70
    32
  0
VERTEX
  8
0
  5
180B
 10
434.084
 20
273.241
 30
0.000000
  70
    32
  0
VERTEX
  8
0
  5
180C
 10
434.068
 20
273.216
 30
0.000000
  70
    32
  0
VERTEX
  8
0
  5
180D
 10
434.052
 20
273.191
 30
0.000000
  70
    32
  0
VERTEX
  8
0
  5
180E
 10
434.037
 20
273.166
 30
0.000000
  70
    32
  0
VERTEX
  8
0
  5
180F
 10
434.022
 20
273.141
 30
0.000000
  70
    32
  0
VERTEX
  8
0
  5
1810
 10
434.007
 20
273.116
 30
0.000000
  70
    32
  0
VERTEX
  8
0
  5
1811
 10
433.993
 20
273.091
 30
0.000000
  70
    32
  0
VERTEX
  8
0
  5
1812
 10
433.980
 20
273.066
 30
0.000000
  70
    32
  0
VERTEX
  8
0
  5
1813
 10
433.966
 20
273.041
 30
0.000000
  70
    32
  0
VERTEX
  8
0
  5
1814
 10
433.954
 20
273.016
 30
0.000000
  70
    32
  0
VERTEX
  8
0
  5
1815
 10
433.941
 20
272.991
 30
0.000000
  70
    32
  0
VERTEX
  8
0
  5
1816
 10
433.930
 20
272.966
 30
0.000000
  70
    32
  0
VERTEX
  8
0
  5
1817
 10
433.918
 20
272.941
 30
0.000000
  70
    32
  0
VERTEX
  8
0
  5
1818
 10
433.907
 20
272.915
 30
0.000000
  70
    32
  0
VERTEX
  8
0
  5
1819
 10
433.897
 20
272.890
 30
0.000000
  70
    32
  0
VERTEX
  8
0
  5
181A
 10
433.887
 20
272.865
 30
0.000000
  70
    32
  0
VERTEX
  8
0
  5
181B
 10
433.877
 20
272.840
 30
0.000000
  70
    32
  0
VERTEX
  8
0
  5
181C
 10
433.868
 20
272.814
 30
0.000000
  70
    32
  0
VERTEX
  8
0
  5
181D
 10
433.859
 20
272.789
 30
0.000000
  70
    32
  0
VERTEX
  8
0
  5
181E
 10
433.851
 20
272.764
 30
0.000000
  70
    32
  0
VERTEX
  8
0
  5
181F
 10
433.843
 20
272.738
 30
0.000000
  70
    32
  0
VERTEX
  8
0
  5
1820
 10
433.835
 20
272.713
 30
0.000000
  70
    32
  0
VERTEX
  8
0
  5
1821
 10
433.829
 20
272.688
 30
0.000000
  70
    32
  0
VERTEX
  8
0
  5
1822
 10
433.822
 20
272.662
 30
0.000000
  70
    32
  0
VERTEX
  8
0
  5
1823
 10
433.816
 20
272.637
 30
0.000000
  70
    32
  0
VERTEX
  8
0
  5
1824
 10
433.810
 20
272.612
 30
0.000000
  70
    32
  0
VERTEX
  8
0
  5
1825
 10
433.805
 20
272.586
 30
0.000000
  70
    32
  0
VERTEX
  8
0
  5
1826
 10
433.800
 20
272.561
 30
0.000000
  70
    32
  0
VERTEX
  8
0
  5
1827
 10
433.796
 20
272.535
 30
0.000000
  70
    32
  0
VERTEX
  8
0
  5
1828
 10
433.792
 20
272.510
 30
0.000000
  70
    32
  0
VERTEX
  8
0
  5
1829
 10
433.789
 20
272.485
 30
0.000000
  70
    32
  0
VERTEX
  8
0
  5
182A
 10
433.786
 20
272.459
 30
0.000000
  70
    32
  0
VERTEX
  8
0
  5
182B
 10
433.784
 20
272.434
 30
0.000000
  70
    32
  0
VERTEX
  8
0
  5
182C
 10
433.782
 20
272.408
 30
0.000000
  70
    32
  0
VERTEX
  8
0
  5
182D
 10
433.780
 20
272.383
 30
0.000000
  70
    32
  0
VERTEX
  8
0
  5
182E
 10
433.779
 20
272.357
 30
0.000000
  70
    32
  0
VERTEX
  8
0
  5
182F
 10
433.778
 20
272.332
 30
0.000000
  70
    32
  0
VERTEX
  8
0
  5
1830
 10
433.778
 20
272.306
 30
0.000000
  70
    32
  0
SEQEND
  8
0
  5
1831
  0
ARC
  5
1287
  8
0
 10
467.68117384294823
 20
265.07947712434071
 30
0.0
 40
13.5
 50
154.9957370749591
 51
212.6035820132258
  0
ARC
  5
1288
  8
0
 10
453.63389055975142
 20
271.63110534651707
 30
0.0
 40
2.0
 50
334.99573707495921
 51
0.0
  0
LINE
  5
1289
  8
0
 10
454.73134367394931
 20
279.45581666819379
 30
0.0
 11
455.6337437383354
 21
271.65533887923448
 31
0.0
  0
LINE
  5
128A
  8
0
 10
454.63989601243333
 20
279.7753605178936
 30
0.0
 11
454.73134367394931
 21
279.45581666819402
 31
0.0
  0
LINE
  5
128B
  8
0
 10
454.01507719329243
 20
281.86258247711169
 30
0.0
 11
454.18564611125498
 21
279.7753605178936
 31
0.0
  0
ARC
  5
128C
  8
0
 10
461.63820383593759
 20
275.7996994554988
 30
0.0
 40
20.0
 50
117.22668439682791
 51
131.85703956953191
  0
ARC
  5
128D
  8
0
 10
453.40298593015399
 20
291.80536051789352
 30
0.0
 40
2.0
 50
90.0
 51
117.22668439682791
  0
ARC
  5
128E
  8
0
 10
522.12685217183378
 20
341.3914012438961
 30
0.0
 40
90.0
 50
214.79142625443711
 51
219.8857855585226
  0
ARC
  5
128F
  8
0
 10
448.62635533141128
 20
290.32353498524958
 30
0.0
 40
0.5
 50
131.85703956953191
 51
214.79142625443771
  0
ARC
  5
1290
  8
0
 10
446.50734517851828
 20
279.09962029960423
 30
0.0
 40
8.0
 50
20.2044001903514
 51
34.911162194464822
  0
ARC
  5
1291
  8
0
 10
433.41781349269218
 20
275.7996994554988
 30
0.0
 40
20.0
 50
48.14296043046803
 51
62.773315603172058
  0
ARC
  5
1292
  8
0
 10
441.65303139847589
 20
291.80536051789352
 30
0.0
 40
2.0
 50
62.773315603172058
 51
90.0
  0
ARC
  5
1293
  8
0
 10
446.42966199721872
 20
290.32353498524958
 30
0.0
 40
0.5
 50
325.20857374556232
 51
48.14296043046803
  0
ARC
  5
1294
  8
0
 10
372.9291651567961
 20
341.3914012438961
 30
0.0
 40
90.0
 50
320.11421444147737
 51
325.208573745563
  0
ARC
  5
1295
  8
0
 10
448.5486721501116
 20
279.09962029960423
 30
0.0
 40
8.0
 50
145.08883780553521
 51
159.79559980964859
  0
LINE
  5
1296
  8
0
 10
441.04094013533762
 20
281.86258247711169
 30
0.0
 11
440.87037121737501
 21
279.7753605178936
 31
0.0
  0
LINE
  5
1297
  8
0
 10
440.41612131619672
 20
279.7753605178936
 30
0.0
 11
440.32467365468051
 21
279.45581666819402
 31
0.0
  0
LINE
  5
1298
  8
0
 10
440.32467365468051
 20
279.45581666819379
 30
0.0
 11
439.42227359029471
 21
271.65533887923448
 31
0.0
  0
LINE
  5
1299
  8
0
 10
441.028008664315
 20
293.56054585246511
 30
0.0
 11
441.028008664315
 21
281.7253833857776
 31
0.0
  0
LINE
  5
12C5
  8
0
 10
156.12709598900321
 20
160.80536051789349
 30
0.0
 11
148.12709598900321
 21
160.8053605178936
 31
0.0
  0
LINE
  5
12C6
  8
0
 10
146.12709598900321
 20
230.8053605178936
 30
0.0
 11
146.12709598900301
 21
162.8053605178938
 31
0.0
  0
LINE
  5
12C7
  8
3
 10
147.07409598900321
 20
220.8053605178936
 30
0.0
 11
147.0740959890031
 21
161.85836051789369
 31
0.0
  0
LINE
  5
12C8
  8
3
 10
157.18009598900321
 20
220.8053605178936
 30
0.0
 11
157.18009598900309
 21
161.85836051789349
 31
0.0
  0
LINE
  5
12C9
  8
0
 10
158.12709598900321
 20
230.8053605178936
 30
0.0
 11
158.12709598900301
 21
162.8053605178934
 31
0.0
  0
LINE
  5
12CA
  8
0
 10
156.12709598900321
 20
160.80536051789349
 30
0.0
 11
158.12709598900321
 21
162.80536051789349
 31
0.0
  0
LINE
  5
12CB
  8
0
 10
148.12709598900321
 20
160.8053605178936
 30
0.0
 11
146.12709598900321
 21
162.8053605178936
 31
0.0
  0
LINE
  5
12CC
  8
0
 10
158.12709598900329
 20
162.8053605178936
 30
0.0
 11
146.12709598900321
 21
162.8053605178936
 31
0.0
  0
LINE
  5
12CD
  8
0
 10
146.1270959890031
 20
220.8053605178936
 30
0.0
 11
158.12709598900329
 21
220.8053605178936
 31
0.0
  0
LINE
  5
12CE
  8
3
 10
157.18009598900321
 20
220.8053605178936
 30
0.0
 11
158.12709598900329
 21
222.44561263266129
 31
0.0
  0
LINE
  5
12CF
  8
3
 10
147.0740959890031
 20
220.8053605178936
 30
0.0
 11
146.12709598900321
 21
222.44561263266129
 31
0.0
  0
LINE
  5
12D3
  8
0
 10
267.47260149911608
 20
160.80536051789349
 30
0.0
 11
259.47260149911608
 21
160.8053605178936
 31
0.0
  0
LINE
  5
12D4
  8
0
 10
269.47260149911608
 20
162.8053605178936
 30
0.0
 11
257.47260149911608
 21
162.8053605178936
 31
0.0
  0
LINE
  5
12D5
  8
0
 10
257.47260149911602
 20
220.8053605178936
 30
0.0
 11
269.47260149911608
 21
220.8053605178936
 31
0.0
  0
LINE
  5
12D6
  8
3
 10
258.41960149911591
 20
220.8053605178936
 30
0.0
 11
258.41960149911591
 21
161.85836051789369
 31
0.0
  0
LINE
  5
12D7
  8
0
 10
257.47260149911608
 20
230.8053605178936
 30
0.0
 11
257.47260149911568
 21
162.805360517894
 31
0.0
  0
LINE
  5
12D8
  8
0
 10
259.47260149911608
 20
160.8053605178936
 30
0.0
 11
257.47260149911608
 21
162.8053605178936
 31
0.0
  0
LINE
  5
12D9
  8
3
 10
258.41960149911603
 20
220.8053605178936
 30
0.0
 11
257.47260149911608
 21
222.44561263266129
 31
0.0
  0
LINE
  5
12DA
  8
0
 10
269.47260149911608
 20
230.8053605178936
 30
0.0
 11
269.47260149911568
 21
162.80536051789321
 31
0.0
  0
LINE
  5
12DB
  8
3
 10
268.52560149911608
 20
220.8053605178936
 30
0.0
 11
268.52560149911608
 21
161.85836051789349
 31
0.0
  0
LINE
  5
12DC
  8
0
 10
267.47260149911608
 20
160.80536051789349
 30
0.0
 11
269.47260149911608
 21
162.80536051789349
 31
0.0
  0
LINE
  5
12DD
  8
3
 10
268.52560149911608
 20
220.8053605178936
 30
0.0
 11
269.47260149911608
 21
222.44561263266129
 31
0.0
  0
LINE
  5
12DF
  8
3
 10
452.59100866431498
 20
220.80536051789349
 30
0.0
 11
452.59100866431498
 21
162.8053605178936
 31
0.0
  0
LINE
  5
12E0
  8
0
 10
453.53800866431487
 20
230.8053605178936
 30
0.0
 11
453.53800866431487
 21
162.80536051789349
 31
0.0
  0
LINE
  5
12E1
  8
0
 10
441.53800866431499
 20
230.8053605178936
 30
0.0
 11
441.53800866431459
 21
162.805360517894
 31
0.0
  0
LINE
  5
12E2
  8
3
 10
442.48500866431471
 20
220.80536051789349
 30
0.0
 11
442.48500866431471
 21
162.8053605178936
 31
0.0
  0
LINE
  5
12E3
  8
0
 10
443.53800866431499
 20
160.8053605178936
 30
0.0
 11
441.53800866431499
 21
162.8053605178936
 31
0.0
  0
LINE
  5
12E4
  8
0
 10
453.53800866431499
 20
162.8053605178936
 30
0.0
 11
441.53800866431499
 21
162.8053605178936
 31
0.0
  0
LINE
  5
12E5
  8
0
 10
451.53800866431487
 20
160.80536051789349
 30
0.0
 11
443.53800866431499
 21
160.8053605178936
 31
0.0
  0
LINE
  5
12E6
  8
0
 10
451.53800866431487
 20
160.80536051789349
 30
0.0
 11
453.53800866431487
 21
162.80536051789349
 31
0.0
  0
LINE
  5
12E7
  8
3
 10
442.48500866431488
 20
220.8053605178936
 30
0.0
 11
441.53800866431499
 21
222.44561263266129
 31
0.0
  0
LINE
  5
12E8
  8
0
 10
441.53800866431487
 20
220.8053605178936
 30
0.0
 11
453.53800866431499
 21
220.8053605178936
 31
0.0
  0
LINE
  5
12E9
  8
3
 10
452.59100866431498
 20
220.8053605178936
 30
0.0
 11
453.53800866431499
 21
222.44561263266129
 31
0.0
  0
LINE
  5
135C
  8
0
 10
259.66260149911608
 20
374.86066272205881
 30
0.0
 11
259.66260149911608
 21
373.51066272205873
 31
0.0
  0
LINE
  5
135D
  8
0
 10
267.2626014991161
 20
374.86066272205881
 30
0.0
 11
267.2626014991161
 21
373.51066272205873
 31
0.0
  0
LINE
  5
135E
  8
0
 10
265.2597234173208
 20
374.86066272205881
 30
0.0
 11
267.2626014991161
 21
374.86066272205881
 31
0.0
  0
LINE
  5
135F
  8
0
 10
265.25972341732057
 20
373.51066272205873
 30
0.0
 11
267.2626014991161
 21
373.51066272205873
 31
0.0
  0
LINE
  5
1360
  8
0
 10
259.66260149911608
 20
374.86066272205881
 30
0.0
 11
261.66547958091149
 21
374.86066272205881
 31
0.0
  0
LINE
  5
1361
  8
0
 10
259.66260149911608
 20
373.51066272205873
 30
0.0
 11
261.66547958091172
 21
373.51066272205873
 31
0.0
  0
CIRCLE
  5
1362
  8
0
 10
263.46260149911609
 20
374.18566272205868
 30
0.0
 40
3.999175415007485
  0
CIRCLE
  5
1374
  8
0
 10
263.46260149911609
 20
374.18566272205868
 30
0.0
 40
6.75
  0
ARC
  5
1375
  8
0
 10
265.82624092206828
 20
375.5503105791675
 30
0.0
 40
0.8925000000000011
 50
163.3417582272229
 51
230.59829508168929
  0
ARC
  5
1376
  8
0
 10
265.82624092206828
 20
372.82101486495009
 30
0.0
 40
0.8925000000000002
 50
129.40170491832319
 51
196.65824177277699
  0
ARC
  5
1377
  8
0
 10
264.48260149911607
 20
372.4189708983385
 30
0.0
 40
0.5099999999999997
 50
223.3417582272223
 51
16.658241772777039
  0
ARC
  5
1378
  8
0
 10
263.4626014991162
 20
371.45636700784149
 30
0.0
 40
0.8925000000000002
 50
43.341758227222343
 51
136.65824177277651
  0
ARC
  5
1379
  8
0
 10
262.44260149911622
 20
372.4189708983385
 30
0.0
 40
0.5100000000000002
 50
163.3417582272229
 51
316.65824177277773
  0
ARC
  5
137A
  8
0
 10
261.09896207616401
 20
372.82101486495009
 30
0.0
 40
0.8925000000000011
 50
343.3417582272229
 51
50.598295081676767
  0
ARC
  5
137B
  8
0
 10
264.48260149911607
 20
375.95235454577897
 30
0.0
 40
0.5100000000000003
 50
343.3417582272229
 51
136.65824177277759
  0
ARC
  5
137C
  8
0
 10
263.4626014991162
 20
376.91495843627598
 30
0.0
 40
0.8924999999999984
 50
223.3417582272223
 51
316.65824177277773
  0
ARC
  5
137D
  8
0
 10
262.44260149911622
 20
375.95235454577897
 30
0.0
 40
0.5099999999999997
 50
43.341758227222343
 51
196.65824177277699
  0
ARC
  5
137E
  8
0
 10
261.09896207616401
 20
375.5503105791675
 30
0.0
 40
0.8925000000000004
 50
309.40170491831071
 51
16.658241772777039
  0
LINE
  5
1384
  8
0
 10
256.71260149911598
 20
272.41292793438561
 30
0.0
 11
256.71260149911598
 21
269.1214342312818
 31
0.0
  0
LINE
  5
1385
  8
0
 10
267.4617769141235
 20
273.80536051789352
 30
0.0
 11
259.46342608410868
 21
273.80536051789352
 31
0.0
  0
ARC
  5
1386
  8
0
 10
263.46260149911609
 20
262.4913605178935
 30
0.0
 40
12.0
 50
109.4670447595973
 51
124.2288663278118
  0
LINE
  5
1387
  8
0
 10
264.56196434404308
 20
272.41292793438572
 30
0.0
 11
256.71260149911598
 21
272.41292793438561
 31
0.0
  0
ARC
  5
1388
  8
0
 10
263.46260149911609
 20
262.4913605178935
 30
0.0
 40
12.0
 50
68.926730289442943
 51
70.532955240402714
  0
LINE
  5
138A
  8
0
 10
158.8770959890031
 20
272.41292793438572
 30
0.0
 11
158.8770959890031
 21
270.14278515743041
 31
0.0
  0
LINE
  5
138B
  8
0
 10
156.12627140401059
 20
273.80536051789352
 30
0.0
 11
148.12792057399579
 21
273.80536051789352
 31
0.0
  0
ARC
  5
138C
  8
0
 10
152.1270959890031
 20
262.4913605178935
 30
0.0
 40
12.0
 50
55.771133672188213
 51
70.532955240402714
  0
LINE
  5
138D
  8
0
 10
158.8770959890031
 20
272.41292793438572
 30
0.0
 11
145.3770959890031
 21
272.41292793438561
 31
0.0
  0
LINE
  5
138E
  8
0
 10
145.3770959890031
 20
272.41292793438561
 30
0.0
 11
145.3770959890031
 21
270.14278515743041
 31
0.0
  0
ARC
  5
138F
  8
0
 10
152.1270959890031
 20
262.4913605178935
 30
0.0
 40
12.0
 50
109.4670447595973
 51
124.2288663278118
  0
TEXT
  5
1477
  8
0
 62
     3
 10
0.0
 20
0.0
 30
0.0
 40
10.0
  1
FKR12X70-BR
  7
STANDARD1
  0
ENDSEC
  0
EOF
