  0
SECTION
  2
HEADER
  9
$ACADVER
  1
AC1009
  9
$INSBASE
 10
0.0
 20
0.0
 30
0.0
  9
$EXTMIN
 10
0.0
 20
-2.960436562073669
 30
0.0
  9
$EXTMAX
 10
471.278008664315
 20
402.93566272205868
 30
0.0
  9
$LIMMIN
 10
0.0
 20
0.0
  9
$LIMMAX
 10
187.5
 20
135.0
  9
$ORTHOMODE
 70
     0
  9
$REGENMODE
 70
     1
  9
$FILLMODE
 70
     1
  9
$QTEXTMODE
 70
     0
  9
$MIRRTEXT
 70
     0
  9
$DRAGMODE
 70
     2
  9
$LTSCALE
 40
10.0
  9
$OSMODE
 70
    55
  9
$ATTMODE
 70
     1
  9
$TEXTSIZE
 40
4.0
  9
$TRACEWID
 40
0.05
  9
$TEXTSTYLE
  7
STANDARD
  9
$CLAYER
  8
0
  9
$CELTYPE
  6
BYLAYER
  9
$CECOLOR
 62
   256
  9
$DIMSCALE
 40
0.5
  9
$DIMASZ
 40
3.0
  9
$DIMEXO
 40
2.0
  9
$DIMDLI
 40
0.38
  9
$DIMRND
 40
0.0
  9
$DIMDLE
 40
0.0
  9
$DIMEXE
 40
2.0
  9
$DIMTP
 40
0.0
  9
$DIMTM
 40
0.0
  9
$DIMTXT
 40
3.0
  9
$DIMCEN
 40
0.0
  9
$DIMTSZ
 40
0.0
  9
$DIMTOL
 70
     0
  9
$DIMLIM
 70
     0
  9
$DIMTIH
 70
     0
  9
$DIMTOH
 70
     0
  9
$DIMSE1
 70
     0
  9
$DIMSE2
 70
     0
  9
$DIMTAD
 70
     1
  9
$DIMZIN
 70
     0
  9
$DIMBLK
  1

  9
$DIMASO
 70
     0
  9
$DIMSHO
 70
     0
  9
$DIMPOST
  1

  9
$DIMAPOST
  1

  9
$DIMALT
 70
     0
  9
$DIMALTD
 70
     2
  9
$DIMALTF
 40
25.399999999999999
  9
$DIMLFAC
 40
1.0
  9
$DIMTOFL
 70
     0
  9
$DIMTVP
 40
1.6000000000000001
  9
$DIMTIX
 70
     1
  9
$DIMSOXD
 70
     0
  9
$DIMSAH
 70
     0
  9
$DIMBLK1
  1

  9
$DIMBLK2
  1

  9
$DIMSTYLE
  2
STANDARD
  9
$DIMCLRD
 70
     0
  9
$DIMCLRE
 70
     0
  9
$DIMCLRT
 70
     0
  9
$DIMTFAC
 40
1.0
  9
$DIMGAP
 40
0.09
  9
$LUNITS
 70
     2
  9
$LUPREC
 70
     4
  9
$SKETCHINC
 40
0.1
  9
$FILLETRAD
 40
1.25
  9
$AUNITS
 70
     0
  9
$AUPREC
 70
     0
  9
$MENU
  1
E:\r13\win\SUPPORT\ACAD
  9
$ELEVATION
 40
0.0
  9
$PELEVATION
 40
0.0
  9
$THICKNESS
 40
0.0
  9
$LIMCHECK
 70
     0
  9
$BLIPMODE
 70
     0
  9
$CHAMFERA
 40
0.0
  9
$CHAMFERB
 40
0.0
  9
$SKPOLY
 70
     0
  9
$TDCREATE
 40
2449840.6143865739
  9
$TDUPDATE
 40
2456598.6600694908
  9
$TDINDWG
 40
0.2864375
  9
$TDUSRTIMER
 40
0.2864375
  9
$USRTIMER
 70
     1
  9
$ANGBASE
 50
0.0
  9
$ANGDIR
 70
     0
  9
$PDMODE
 70
     0
  9
$PDSIZE
 40
0.0
  9
$PLINEWID
 40
0.0
  9
$COORDS
 70
     1
  9
$SPLFRAME
 70
     0
  9
$SPLINETYPE
 70
     6
  9
$SPLINESEGS
 70
     8
  9
$ATTDIA
 70
     0
  9
$ATTREQ
 70
     1
  9
$HANDLING
 70
     1
  9
$HANDSEED
  5
182F
  9
$SURFTAB1
 70
     6
  9
$SURFTAB2
 70
     6
  9
$SURFTYPE
 70
     6
  9
$SURFU
 70
     6
  9
$SURFV
 70
     6
  9
$UCSNAME
  2

  9
$UCSORG
 10
0.0
 20
0.0
 30
0.0
  9
$UCSXDIR
 10
1.0
 20
0.0
 30
0.0
  9
$UCSYDIR
 10
0.0
 20
1.0
 30
0.0
  9
$PUCSNAME
  2

  9
$PUCSORG
 10
0.0
 20
0.0
 30
0.0
  9
$PUCSXDIR
 10
1.0
 20
0.0
 30
0.0
  9
$PUCSYDIR
 10
0.0
 20
1.0
 30
0.0
  9
$USERI1
 70
     0
  9
$USERI2
 70
     1
  9
$USERI3
 70
     1
  9
$USERI4
 70
     0
  9
$USERI5
 70
     0
  9
$USERR1
 40
0.0
  9
$USERR2
 40
0.0
  9
$USERR3
 40
0.0
  9
$USERR4
 40
0.0
  9
$USERR5
 40
0.0
  9
$WORLDVIEW
 70
     1
  9
$SHADEDGE
 70
     3
  9
$SHADEDIF
 70
    70
  9
$TILEMODE
 70
     1
  9
$MAXACTVP
 70
    16
  9
$PLIMCHECK
 70
     0
  9
$PEXTMIN
 10
1.0000000000000000E+020
 20
1.0000000000000000E+020
 30
1.0000000000000000E+020
  9
$PEXTMAX
 10
-1.0000000000000000E+020
 20
-1.0000000000000000E+020
 30
-1.0000000000000000E+020
  9
$PLIMMIN
 10
0.0
 20
0.0
  9
$PLIMMAX
 10
12.0
 20
9.0
  9
$UNITMODE
 70
     0
  9
$VISRETAIN
 70
     0
  9
$PLINEGEN
 70
     0
  9
$PSLTSCALE
 70
     0
  0
ENDSEC
  0
SECTION
  2
TABLES
  0
TABLE
  2
VPORT
 70
     1
  0
VPORT
  2
*ACTIVE
 70
     0
 10
0.0
 20
0.0
 11
1.0
 21
1.0
 12
235.63900542943719
 22
261.55979583102118
 13
0.0
 23
0.0
 14
5.0
 24
5.0
 15
5.0
 25
5.0
 16
0.0
 26
0.0
 36
1.0
 17
0.0
 27
0.0
 37
0.0
 40
533.71220969764886
 41
1.7807262569832401
 42
50.0
 43
0.0
 44
0.0
 50
0.0
 51
0.0
 71
     0
 72
   100
 73
     1
 74
     0
 75
     0
 76
     0
 77
     0
 78
     0
  0
ENDTAB
  0
TABLE
  2
LTYPE
 70
     3
  0
LTYPE
  2
CONTINUOUS
 70
     0
  3
Solid Line
 72
    65
 73
     0
 40
0.0
  0
LTYPE
  2
CENTER
 70
     0
  3
____ _ ____ _ ____ _ ____ _ ____ _ ____ _ ____
 72
    65
 73
     4
 40
2.0
 49
1.25
 49
-0.25
 49
0.25
 49
-0.25
  0
LTYPE
  2
PHANTOM2
 70
     0
  3
___ _ _ ___ _ _ ___ _ _ ___ _ _
 72
    65
 73
     6
 40
1.25
 49
0.625
 49
-0.125
 49
0.125
 49
-0.125
 49
0.125
 49
-0.125
  0
ENDTAB
  0
TABLE
  2
LAYER
 70
     3
  0
LAYER
  2
0
 70
     0
 62
     7
  6
CONTINUOUS
  0
LAYER
  2
1
 70
     0
 62
     1
  6
CENTER
  0
LAYER
  2
3
 70
     0
 62
     3
  6
CONTINUOUS
  0
ENDTAB
  0
TABLE
  2
STYLE
 70
     2
  0
STYLE
  2
STANDARD
 70
     0
 40
0.0
 41
1.0
 50
0.0
 71
     0
 42
4.0
  3
TXT
  4
BIGFONT
  0
STYLE
  2
STANDARD1
 70
     0
 40
0.0
 41
1.0
 50
0.0
 71
     0
 42
3.0
  3
txt
  4

  0
ENDTAB
  0
TABLE
  2
VIEW
 70
     1
  0
VIEW
  2
ALL
 70
     0
 40
179.66152299999999
 10
141.903918
 20
89.830760999999995
 41
0.0
 11
0.0
 21
0.0
 31
1.0
 12
0.0
 22
0.0
 32
0.0
 42
0.0
 43
0.0
 44
0.0
 50
0.0
 71
     0
  0
ENDTAB
  0
TABLE
  2
UCS
 70
     0
  0
ENDTAB
  0
TABLE
  2
APPID
 70
     4
  0
APPID
  2
ACAD
 70
     0
  0
APPID
  2
DCO15
 70
     0
  0
APPID
  2
ACAD_MLEADERVER
 70
     0
  0
APPID
  2
ACAD_NAV_VCDISPLAY
 70
     0
  0
ENDTAB
  0
TABLE
  2
DIMSTYLE
 70
     1
  0
DIMSTYLE
  2
STANDARD
 70
     0
  3

  4

  5

  6

  7

 40
1.0
 41
0.18
 42
0.0625
 43
0.38
 44
0.18
 45
0.0
 46
0.0
 47
0.0
 48
0.0
140
0.18
141
0.09
142
0.0
143
25.399999999999999
144
1.0
145
0.0
146
1.0
147
0.09
 71
     0
 72
     0
 73
     1
 74
     1
 75
     0
 76
     0
 77
     0
 78
     0
170
     0
171
     2
172
     0
173
     0
174
     0
175
     0
176
     0
177
     0
178
     0
  0
ENDTAB
  0
ENDSEC
  0
SECTION
  2
BLOCKS
  0
BLOCK
  8
0
  2
$MODEL_SPACE
 70
     0
 10
0.0
 20
0.0
 30
0.0
  3
$MODEL_SPACE
  1

  0
ENDBLK
  5
1BD
  8
0
  0
BLOCK
 67
     1
  8
0
  2
$PAPER_SPACE
 70
     0
 10
0.0
 20
0.0
 30
0.0
  3
$PAPER_SPACE
  1

  0
ENDBLK
  5
1BB
 67
     1
  8
0
  0
ENDSEC
  0
SECTION
  2
ENTITIES
  0
LINE
  5
11FE
  8
0
 10
259.96260149911609
 20
272.22906710372229
 30
0.0
 11
259.96260149911609
 21
250.8053605178936
 31
0.0
  0
LINE
  5
11FF
  8
0
 10
286.96260149911609
 20
250.8053605178936
 30
0.0
 11
286.96260149911609
 21
267.80536051789352
 31
0.0
  0
LINE
  5
1200
  8
0
 10
354.67755536839832
 20
289.7753605178936
 30
0.0
 11
345.81556358971761
 21
289.7753605178936
 31
0.0
  0
LINE
  5
1201
  8
0
 10
361.42855185630663
 20
291.2172139862621
 30
0.0
 11
359.43960784749328
 21
290.55133660810122
 31
0.0
  0
LINE
  5
1202
  8
0
 10
286.96260149911609
 20
250.8053605178936
 30
0.0
 11
259.96260149911609
 21
250.8053605178936
 31
0.0
  0
LINE
  5
1203
  8
1
 10
273.46260149911609
 20
288.80536051789352
 30
0.0
 11
273.4626014991162
 21
155.8053605178936
 31
0.0
  0
LINE
  5
1205
  8
0
 10
282.97260149911608
 20
240.8053605178936
 30
0.0
 11
282.97260149911608
 21
250.8053605178936
 31
0.0
  0
LINE
  5
1206
  8
0
 10
263.97260149911608
 20
250.8053605178936
 30
0.0
 11
263.97260149911608
 21
240.8053605178936
 31
0.0
  0
LINE
  5
1208
  8
0
 10
263.97260149911608
 20
240.8053605178936
 30
0.0
 11
282.97260149911608
 21
240.8053605178936
 31
0.0
  0
LINE
  5
1216
  8
0
 10
364.34017957332878
 20
303.80536051789352
 30
0.0
 11
364.47260149911602
 21
303.80536051789358
 31
0.0
  0
LINE
  5
1217
  8
0
 10
368.47260149911608
 20
299.80536051789358
 30
0.0
 11
368.47260149911608
 21
298.96642430942569
 31
0.0
  0
ARC
  5
1218
  8
0
 10
265.96260149911609
 20
272.22906710372229
 30
0.0
 40
6.0
 50
114.1848432038958
 51
180.0
  0
ARC
  5
1219
  8
0
 10
390.50584769206819
 20
-5.0884040871886782
 30
0.0
 40
310.0
 50
94.841832834640755
 51
114.18484320389619
  0
ARC
  5
121A
  8
0
 10
364.47260149911608
 20
299.80536051789358
 30
0.0
 40
4.0
 50
0.0
 51
90.0
  0
ARC
  5
121B
  8
0
 10
420.1891110567521
 20
10.220789305655551
 30
0.0
 40
290.0
 50
105.9892849829359
 51
117.3485107169774
  0
ARC
  5
121C
  8
0
 10
345.81556358971761
 20
269.77536051789349
 30
0.0
 40
20.0
 50
90.0
 51
105.9892849829359
  0
ARC
  5
121D
  8
0
 10
354.67755536839832
 20
304.7753605178936
 30
0.0
 40
15.0
 50
270.0
 51
288.50999999999942
  0
ARC
  5
121E
  8
0
 10
358.8532330546999
 20
300.87991200855862
 30
0.0
 40
10.0
 50
284.92366289757967
 51
337.4991251017791
  0
ARC
  5
121F
  8
0
 10
363.47260149911608
 20
298.96642430942569
 30
0.0
 40
5.0
 50
337.4991251017791
 51
0.0
  0
LINE
  5
1220
  8
0
 10
259.9526014991161
 20
381.62785115745902
 30
0.0
 11
259.9526014991161
 21
386.7434742866584
 31
0.0
  0
LINE
  5
122D
  8
1
 10
273.46260149911609
 20
402.93566272205868
 30
0.0
 11
273.46260149911609
 21
365.43566272205868
 31
0.0
  0
LINE
  5
122E
  8
1
 10
373.46260149911609
 20
384.18566272205868
 30
0.0
 11
254.712601499116
 21
384.18566272205868
 31
0.0
  0
ARC
  5
122F
  8
0
 10
361.96260149911609
 20
384.18566272205868
 30
0.0
 40
6.5
 50
270.0
 51
90.0
  0
ARC
  5
1230
  8
0
 10
273.46260149911609
 20
384.18566272205868
 30
0.0
 40
13.75
 50
190.72076149353649
 51
312.917560328555
  0
CIRCLE
  5
1232
  8
0
 10
274.73645154251608
 20
384.18545483284157
 30
0.0
 40
8.8183418569113723
  0
ARC
  5
1233
  8
0
 10
302.68166751090422
 20
450.8744829552316
 30
0.0
 40
60.0
 50
250.67449694773779
 51
281.65751361817053
  0
LINE
  5
1234
  8
0
 10
361.96260149911609
 20
390.68566272205868
 30
0.0
 11
317.18889461062872
 21
392.311790236251
 31
0.0
  0
ARC
  5
1235
  8
0
 10
316.82594585997299
 20
382.3183789966194
 30
0.0
 40
10.0
 50
87.919999999999831
 51
101.6575136181721
  0
ARC
  5
1236
  8
0
 10
302.68166751090422
 20
317.49684248888582
 30
0.0
 40
60.0
 50
78.34248638182946
 51
109.32550305226221
  0
LINE
  5
1237
  8
0
 10
361.96260149911609
 20
377.68566272205868
 30
0.0
 11
317.18889461062872
 21
376.05953520786647
 31
0.0
  0
ARC
  5
1238
  8
0
 10
316.82594585997299
 20
386.05294644749807
 30
0.0
 40
10.0
 50
258.34248638182788
 51
272.0800000000001
  0
ARC
  5
1239
  8
0
 10
273.46260149911609
 20
384.18566272205868
 30
0.0
 40
13.75
 50
47.08243967144503
 51
169.27923850646351
  0
LINE
  5
123A
  8
1
 10
373.46260149911609
 20
80.881372164038495
 30
0.0
 11
254.712601499116
 21
80.881372164038396
 31
0.0
  0
ARC
  5
123B
  8
0
 10
302.68166751090422
 20
14.19255193086553
 30
0.0
 40
60.0
 50
78.34248638182946
 51
109.32550305226221
  0
ARC
  5
123C
  8
0
 10
302.68166751090422
 20
147.57019239721129
 30
0.0
 40
60.0
 50
250.67449694773779
 51
281.65751361817053
  0
LINE
  5
123D
  8
1
 10
273.46260149911609
 20
99.631372164038453
 30
0.0
 11
273.46260149911609
 21
62.131372164038503
 31
0.0
  0
ARC
  5
123E
  8
0
 10
273.46260149911609
 20
80.881372164038495
 30
0.0
 40
13.75
 50
190.72076149353649
 51
312.917560328555
  0
ARC
  5
123F
  8
0
 10
273.46260149911609
 20
80.881372164038495
 30
0.0
 40
13.75
 50
47.08243967144503
 51
169.27923850646351
  0
LINE
  5
1240
  8
0
 10
259.9526014991161
 20
78.323560599438736
 30
0.0
 11
259.9526014991161
 21
83.439183728638156
 31
0.0
  0
LINE
  5
1241
  8
0
 10
361.96260149911609
 20
74.38137216403851
 30
0.0
 11
317.18889461062872
 21
72.755244649846134
 31
0.0
  0
LINE
  5
1242
  8
0
 10
361.96260149911609
 20
87.381372164038453
 30
0.0
 11
317.18889461062872
 21
89.007499678230772
 31
0.0
  0
ARC
  5
1243
  8
0
 10
316.82594585997299
 20
82.748655889477902
 30
0.0
 40
10.0
 50
258.34248638182788
 51
272.0800000000001
  0
ARC
  5
1244
  8
0
 10
316.82594585997299
 20
79.01408843859906
 30
0.0
 40
10.0
 50
87.919999999999831
 51
101.6575136181721
  0
ARC
  5
1245
  8
0
 10
361.96260149911609
 20
80.881372164038453
 30
0.0
 40
6.5
 50
270.0
 51
90.0
  0
CIRCLE
  5
1246
  8
0
 10
273.46260149911609
 20
80.881372164038495
 30
0.0
 40
13.5
  0
CIRCLE
  5
1247
  8
0
 10
273.46260149911609
 20
80.881372164038495
 30
0.0
 40
9.5
  0
CIRCLE
  5
1248
  8
3
 10
273.46260149911609
 20
80.881372164038396
 30
0.0
 40
5.0
  0
CIRCLE
  5
1249
  8
0
 10
273.46260149911609
 20
80.881372164038396
 30
0.0
 40
6.0
  0
LINE
  5
124C
  8
0
 10
171.62709598900321
 20
240.8053605178936
 30
0.0
 11
171.62709598900321
 21
250.8053605178936
 31
0.0
  0
LINE
  5
124D
  8
0
 10
152.62709598900321
 20
250.8053605178936
 30
0.0
 11
152.62709598900321
 21
240.8053605178936
 31
0.0
  0
LINE
  5
124F
  8
0
 10
152.62709598900321
 20
240.8053605178936
 30
0.0
 11
171.62709598900321
 21
240.8053605178936
 31
0.0
  0
LINE
  5
1250
  8
0
 10
168.2213562815526
 20
303.80536051789352
 30
0.0
 11
156.0328356964537
 21
303.80536051789358
 31
0.0
  0
LINE
  5
1251
  8
0
 10
148.62709598900321
 20
267.80536051789358
 30
0.0
 11
148.62709598900321
 21
250.8053605178936
 31
0.0
  0
LINE
  5
1252
  8
0
 10
175.62709598900321
 20
250.8053605178936
 30
0.0
 11
148.62709598900321
 21
250.8053605178936
 31
0.0
  0
LINE
  5
1253
  8
1
 10
162.12709598900321
 20
308.80536051789352
 30
0.0
 11
162.1270959890031
 21
155.80536051789349
 31
0.0
  0
LINE
  5
1254
  8
0
 10
163.61695252357151
 20
278.97309839000371
 30
0.0
 11
160.6372394544349
 21
278.97309839000371
 31
0.0
  0
POLYLINE
  5
1255
  8
0
 10
163.61695252357151
 20
278.9730983900036
 30
0.0
 66
     1
 70
     8
  0
VERTEX
  8
0
  5
1523
 10
163.617
 20
278.973
 30
0.000000
  70
    32
  0
VERTEX
  8
0
  5
1524
 10
164.017
 20
279.003
 30
0.000000
  70
    32
  0
VERTEX
  8
0
  5
1525
 10
164.413
 20
279.041
 30
0.000000
  70
    32
  0
VERTEX
  8
0
  5
1526
 10
164.804
 20
279.085
 30
0.000000
  70
    32
  0
VERTEX
  8
0
  5
1527
 10
165.189
 20
279.136
 30
0.000000
  70
    32
  0
VERTEX
  8
0
  5
1528
 10
165.568
 20
279.194
 30
0.000000
  70
    32
  0
VERTEX
  8
0
  5
1529
 10
165.939
 20
279.259
 30
0.000000
  70
    32
  0
VERTEX
  8
0
  5
152A
 10
166.302
 20
279.331
 30
0.000000
  70
    32
  0
VERTEX
  8
0
  5
152B
 10
166.656
 20
279.409
 30
0.000000
  70
    32
  0
VERTEX
  8
0
  5
152C
 10
167.000
 20
279.493
 30
0.000000
  70
    32
  0
VERTEX
  8
0
  5
152D
 10
167.334
 20
279.583
 30
0.000000
  70
    32
  0
VERTEX
  8
0
  5
152E
 10
167.657
 20
279.679
 30
0.000000
  70
    32
  0
VERTEX
  8
0
  5
152F
 10
167.967
 20
279.780
 30
0.000000
  70
    32
  0
VERTEX
  8
0
  5
1530
 10
168.265
 20
279.888
 30
0.000000
  70
    32
  0
VERTEX
  8
0
  5
1531
 10
168.550
 20
280.000
 30
0.000000
  70
    32
  0
VERTEX
  8
0
  5
1532
 10
168.821
 20
280.117
 30
0.000000
  70
    32
  0
VERTEX
  8
0
  5
1533
 10
169.078
 20
280.239
 30
0.000000
  70
    32
  0
VERTEX
  8
0
  5
1534
 10
169.319
 20
280.366
 30
0.000000
  70
    32
  0
VERTEX
  8
0
  5
1535
 10
169.546
 20
280.496
 30
0.000000
  70
    32
  0
VERTEX
  8
0
  5
1536
 10
169.756
 20
280.631
 30
0.000000
  70
    32
  0
VERTEX
  8
0
  5
1537
 10
169.949
 20
280.769
 30
0.000000
  70
    32
  0
VERTEX
  8
0
  5
1538
 10
170.126
 20
280.911
 30
0.000000
  70
    32
  0
VERTEX
  8
0
  5
1539
 10
170.286
 20
281.055
 30
0.000000
  70
    32
  0
VERTEX
  8
0
  5
153A
 10
170.428
 20
281.202
 30
0.000000
  70
    32
  0
VERTEX
  8
0
  5
153B
 10
170.552
 20
281.352
 30
0.000000
  70
    32
  0
VERTEX
  8
0
  5
153C
 10
170.658
 20
281.503
 30
0.000000
  70
    32
  0
VERTEX
  8
0
  5
153D
 10
170.745
 20
281.657
 30
0.000000
  70
    32
  0
VERTEX
  8
0
  5
153E
 10
170.814
 20
281.811
 30
0.000000
  70
    32
  0
VERTEX
  8
0
  5
153F
 10
170.865
 20
281.967
 30
0.000000
  70
    32
  0
VERTEX
  8
0
  5
1540
 10
170.896
 20
282.124
 30
0.000000
  70
    32
  0
VERTEX
  8
0
  5
1541
 10
170.909
 20
282.281
 30
0.000000
  70
    32
  0
VERTEX
  8
0
  5
1542
 10
170.902
 20
282.438
 30
0.000000
  70
    32
  0
VERTEX
  8
0
  5
1543
 10
170.877
 20
282.594
 30
0.000000
  70
    32
  0
VERTEX
  8
0
  5
1544
 10
170.833
 20
282.751
 30
0.000000
  70
    32
  0
VERTEX
  8
0
  5
1545
 10
170.770
 20
282.906
 30
0.000000
  70
    32
  0
VERTEX
  8
0
  5
1546
 10
170.689
 20
283.059
 30
0.000000
  70
    32
  0
VERTEX
  8
0
  5
1547
 10
170.589
 20
283.212
 30
0.000000
  70
    32
  0
VERTEX
  8
0
  5
1548
 10
170.470
 20
283.362
 30
0.000000
  70
    32
  0
VERTEX
  8
0
  5
1549
 10
170.334
 20
283.510
 30
0.000000
  70
    32
  0
VERTEX
  8
0
  5
154A
 10
170.180
 20
283.655
 30
0.000000
  70
    32
  0
VERTEX
  8
0
  5
154B
 10
170.009
 20
283.798
 30
0.000000
  70
    32
  0
VERTEX
  8
0
  5
154C
 10
169.821
 20
283.937
 30
0.000000
  70
    32
  0
VERTEX
  8
0
  5
154D
 10
169.616
 20
284.073
 30
0.000000
  70
    32
  0
VERTEX
  8
0
  5
154E
 10
169.395
 20
284.205
 30
0.000000
  70
    32
  0
VERTEX
  8
0
  5
154F
 10
169.159
 20
284.333
 30
0.000000
  70
    32
  0
VERTEX
  8
0
  5
1550
 10
168.907
 20
284.456
 30
0.000000
  70
    32
  0
VERTEX
  8
0
  5
1551
 10
168.641
 20
284.575
 30
0.000000
  70
    32
  0
VERTEX
  8
0
  5
1552
 10
168.360
 20
284.689
 30
0.000000
  70
    32
  0
VERTEX
  8
0
  5
1553
 10
168.067
 20
284.798
 30
0.000000
  70
    32
  0
VERTEX
  8
0
  5
1554
 10
167.760
 20
284.901
 30
0.000000
  70
    32
  0
VERTEX
  8
0
  5
1555
 10
167.441
 20
284.999
 30
0.000000
  70
    32
  0
VERTEX
  8
0
  5
1556
 10
167.111
 20
285.091
 30
0.000000
  70
    32
  0
VERTEX
  8
0
  5
1557
 10
166.770
 20
285.177
 30
0.000000
  70
    32
  0
VERTEX
  8
0
  5
1558
 10
166.419
 20
285.257
 30
0.000000
  70
    32
  0
VERTEX
  8
0
  5
1559
 10
166.059
 20
285.331
 30
0.000000
  70
    32
  0
VERTEX
  8
0
  5
155A
 10
165.690
 20
285.398
 30
0.000000
  70
    32
  0
VERTEX
  8
0
  5
155B
 10
165.314
 20
285.458
 30
0.000000
  70
    32
  0
VERTEX
  8
0
  5
155C
 10
164.931
 20
285.512
 30
0.000000
  70
    32
  0
VERTEX
  8
0
  5
155D
 10
164.542
 20
285.558
 30
0.000000
  70
    32
  0
VERTEX
  8
0
  5
155E
 10
164.147
 20
285.598
 30
0.000000
  70
    32
  0
VERTEX
  8
0
  5
155F
 10
163.748
 20
285.631
 30
0.000000
  70
    32
  0
VERTEX
  8
0
  5
1560
 10
163.346
 20
285.656
 30
0.000000
  70
    32
  0
VERTEX
  8
0
  5
1561
 10
162.941
 20
285.674
 30
0.000000
  70
    32
  0
VERTEX
  8
0
  5
1562
 10
162.535
 20
285.685
 30
0.000000
  70
    32
  0
VERTEX
  8
0
  5
1563
 10
162.127
 20
285.689
 30
0.000000
  70
    32
  0
VERTEX
  8
0
  5
1564
 10
161.720
 20
285.685
 30
0.000000
  70
    32
  0
VERTEX
  8
0
  5
1565
 10
161.313
 20
285.674
 30
0.000000
  70
    32
  0
VERTEX
  8
0
  5
1566
 10
160.908
 20
285.656
 30
0.000000
  70
    32
  0
VERTEX
  8
0
  5
1567
 10
160.506
 20
285.631
 30
0.000000
  70
    32
  0
VERTEX
  8
0
  5
1568
 10
160.107
 20
285.598
 30
0.000000
  70
    32
  0
VERTEX
  8
0
  5
1569
 10
159.713
 20
285.558
 30
0.000000
  70
    32
  0
VERTEX
  8
0
  5
156A
 10
159.323
 20
285.512
 30
0.000000
  70
    32
  0
VERTEX
  8
0
  5
156B
 10
158.940
 20
285.458
 30
0.000000
  70
    32
  0
VERTEX
  8
0
  5
156C
 10
158.564
 20
285.398
 30
0.000000
  70
    32
  0
VERTEX
  8
0
  5
156D
 10
158.195
 20
285.331
 30
0.000000
  70
    32
  0
VERTEX
  8
0
  5
156E
 10
157.835
 20
285.257
 30
0.000000
  70
    32
  0
VERTEX
  8
0
  5
156F
 10
157.484
 20
285.177
 30
0.000000
  70
    32
  0
VERTEX
  8
0
  5
1570
 10
157.143
 20
285.091
 30
0.000000
  70
    32
  0
VERTEX
  8
0
  5
1571
 10
156.813
 20
284.999
 30
0.000000
  70
    32
  0
VERTEX
  8
0
  5
1572
 10
156.494
 20
284.901
 30
0.000000
  70
    32
  0
VERTEX
  8
0
  5
1573
 10
156.188
 20
284.798
 30
0.000000
  70
    32
  0
VERTEX
  8
0
  5
1574
 10
155.894
 20
284.689
 30
0.000000
  70
    32
  0
VERTEX
  8
0
  5
1575
 10
155.613
 20
284.575
 30
0.000000
  70
    32
  0
VERTEX
  8
0
  5
1576
 10
155.347
 20
284.456
 30
0.000000
  70
    32
  0
VERTEX
  8
0
  5
1577
 10
155.095
 20
284.333
 30
0.000000
  70
    32
  0
VERTEX
  8
0
  5
1578
 10
154.859
 20
284.205
 30
0.000000
  70
    32
  0
VERTEX
  8
0
  5
1579
 10
154.638
 20
284.073
 30
0.000000
  70
    32
  0
VERTEX
  8
0
  5
157A
 10
154.433
 20
283.937
 30
0.000000
  70
    32
  0
VERTEX
  8
0
  5
157B
 10
154.245
 20
283.798
 30
0.000000
  70
    32
  0
VERTEX
  8
0
  5
157C
 10
154.074
 20
283.655
 30
0.000000
  70
    32
  0
VERTEX
  8
0
  5
157D
 10
153.920
 20
283.510
 30
0.000000
  70
    32
  0
VERTEX
  8
0
  5
157E
 10
153.784
 20
283.362
 30
0.000000
  70
    32
  0
VERTEX
  8
0
  5
157F
 10
153.666
 20
283.212
 30
0.000000
  70
    32
  0
VERTEX
  8
0
  5
1580
 10
153.566
 20
283.059
 30
0.000000
  70
    32
  0
VERTEX
  8
0
  5
1581
 10
153.484
 20
282.906
 30
0.000000
  70
    32
  0
VERTEX
  8
0
  5
1582
 10
153.421
 20
282.751
 30
0.000000
  70
    32
  0
VERTEX
  8
0
  5
1583
 10
153.377
 20
282.594
 30
0.000000
  70
    32
  0
VERTEX
  8
0
  5
1584
 10
153.352
 20
282.438
 30
0.000000
  70
    32
  0
VERTEX
  8
0
  5
1585
 10
153.346
 20
282.281
 30
0.000000
  70
    32
  0
VERTEX
  8
0
  5
1586
 10
153.358
 20
282.124
 30
0.000000
  70
    32
  0
VERTEX
  8
0
  5
1587
 10
153.390
 20
281.967
 30
0.000000
  70
    32
  0
VERTEX
  8
0
  5
1588
 10
153.440
 20
281.811
 30
0.000000
  70
    32
  0
VERTEX
  8
0
  5
1589
 10
153.509
 20
281.657
 30
0.000000
  70
    32
  0
VERTEX
  8
0
  5
158A
 10
153.596
 20
281.503
 30
0.000000
  70
    32
  0
VERTEX
  8
0
  5
158B
 10
153.702
 20
281.352
 30
0.000000
  70
    32
  0
VERTEX
  8
0
  5
158C
 10
153.826
 20
281.202
 30
0.000000
  70
    32
  0
VERTEX
  8
0
  5
158D
 10
153.968
 20
281.055
 30
0.000000
  70
    32
  0
VERTEX
  8
0
  5
158E
 10
154.128
 20
280.911
 30
0.000000
  70
    32
  0
VERTEX
  8
0
  5
158F
 10
154.305
 20
280.769
 30
0.000000
  70
    32
  0
VERTEX
  8
0
  5
1590
 10
154.499
 20
280.631
 30
0.000000
  70
    32
  0
VERTEX
  8
0
  5
1591
 10
154.709
 20
280.496
 30
0.000000
  70
    32
  0
VERTEX
  8
0
  5
1592
 10
154.935
 20
280.366
 30
0.000000
  70
    32
  0
VERTEX
  8
0
  5
1593
 10
155.176
 20
280.239
 30
0.000000
  70
    32
  0
VERTEX
  8
0
  5
1594
 10
155.433
 20
280.117
 30
0.000000
  70
    32
  0
VERTEX
  8
0
  5
1595
 10
155.704
 20
280.000
 30
0.000000
  70
    32
  0
VERTEX
  8
0
  5
1596
 10
155.989
 20
279.888
 30
0.000000
  70
    32
  0
VERTEX
  8
0
  5
1597
 10
156.287
 20
279.780
 30
0.000000
  70
    32
  0
VERTEX
  8
0
  5
1598
 10
156.597
 20
279.679
 30
0.000000
  70
    32
  0
VERTEX
  8
0
  5
1599
 10
156.920
 20
279.583
 30
0.000000
  70
    32
  0
VERTEX
  8
0
  5
159A
 10
157.254
 20
279.493
 30
0.000000
  70
    32
  0
VERTEX
  8
0
  5
159B
 10
157.598
 20
279.409
 30
0.000000
  70
    32
  0
VERTEX
  8
0
  5
159C
 10
157.952
 20
279.331
 30
0.000000
  70
    32
  0
VERTEX
  8
0
  5
159D
 10
158.315
 20
279.259
 30
0.000000
  70
    32
  0
VERTEX
  8
0
  5
159E
 10
158.686
 20
279.194
 30
0.000000
  70
    32
  0
VERTEX
  8
0
  5
159F
 10
159.065
 20
279.136
 30
0.000000
  70
    32
  0
VERTEX
  8
0
  5
15A0
 10
159.450
 20
279.085
 30
0.000000
  70
    32
  0
VERTEX
  8
0
  5
15A1
 10
159.841
 20
279.041
 30
0.000000
  70
    32
  0
VERTEX
  8
0
  5
15A2
 10
160.237
 20
279.003
 30
0.000000
  70
    32
  0
VERTEX
  8
0
  5
15A3
 10
160.637
 20
278.973
 30
0.000000
  70
    32
  0
SEQEND
  8
0
  5
15A4
  0
POLYLINE
  5
1256
  8
0
 10
175.87709598900321
 20
282.3064589581461
 30
0.0
 66
     1
 70
     8
  0
VERTEX
  8
0
  5
15A5
 10
175.877
 20
282.306
 30
0.000000
  70
    32
  0
VERTEX
  8
0
  5
15A6
 10
175.877
 20
282.332
 30
0.000000
  70
    32
  0
VERTEX
  8
0
  5
15A7
 10
175.876
 20
282.357
 30
0.000000
  70
    32
  0
VERTEX
  8
0
  5
15A8
 10
175.875
 20
282.383
 30
0.000000
  70
    32
  0
VERTEX
  8
0
  5
15A9
 10
175.874
 20
282.408
 30
0.000000
  70
    32
  0
VERTEX
  8
0
  5
15AA
 10
175.871
 20
282.434
 30
0.000000
  70
    32
  0
VERTEX
  8
0
  5
15AB
 10
175.869
 20
282.459
 30
0.000000
  70
    32
  0
VERTEX
  8
0
  5
15AC
 10
175.866
 20
282.485
 30
0.000000
  70
    32
  0
VERTEX
  8
0
  5
15AD
 10
175.863
 20
282.510
 30
0.000000
  70
    32
  0
VERTEX
  8
0
  5
15AE
 10
175.859
 20
282.535
 30
0.000000
  70
    32
  0
VERTEX
  8
0
  5
15AF
 10
175.855
 20
282.561
 30
0.000000
  70
    32
  0
VERTEX
  8
0
  5
15B0
 10
175.850
 20
282.586
 30
0.000000
  70
    32
  0
VERTEX
  8
0
  5
15B1
 10
175.845
 20
282.612
 30
0.000000
  70
    32
  0
VERTEX
  8
0
  5
15B2
 10
175.839
 20
282.637
 30
0.000000
  70
    32
  0
VERTEX
  8
0
  5
15B3
 10
175.833
 20
282.662
 30
0.000000
  70
    32
  0
VERTEX
  8
0
  5
15B4
 10
175.827
 20
282.688
 30
0.000000
  70
    32
  0
VERTEX
  8
0
  5
15B5
 10
175.820
 20
282.713
 30
0.000000
  70
    32
  0
VERTEX
  8
0
  5
15B6
 10
175.812
 20
282.738
 30
0.000000
  70
    32
  0
VERTEX
  8
0
  5
15B7
 10
175.804
 20
282.764
 30
0.000000
  70
    32
  0
VERTEX
  8
0
  5
15B8
 10
175.796
 20
282.789
 30
0.000000
  70
    32
  0
VERTEX
  8
0
  5
15B9
 10
175.787
 20
282.814
 30
0.000000
  70
    32
  0
VERTEX
  8
0
  5
15BA
 10
175.778
 20
282.840
 30
0.000000
  70
    32
  0
VERTEX
  8
0
  5
15BB
 10
175.769
 20
282.865
 30
0.000000
  70
    32
  0
VERTEX
  8
0
  5
15BC
 10
175.758
 20
282.890
 30
0.000000
  70
    32
  0
VERTEX
  8
0
  5
15BD
 10
175.748
 20
282.915
 30
0.000000
  70
    32
  0
VERTEX
  8
0
  5
15BE
 10
175.737
 20
282.941
 30
0.000000
  70
    32
  0
VERTEX
  8
0
  5
15BF
 10
175.726
 20
282.966
 30
0.000000
  70
    32
  0
VERTEX
  8
0
  5
15C0
 10
175.714
 20
282.991
 30
0.000000
  70
    32
  0
VERTEX
  8
0
  5
15C1
 10
175.701
 20
283.016
 30
0.000000
  70
    32
  0
VERTEX
  8
0
  5
15C2
 10
175.689
 20
283.041
 30
0.000000
  70
    32
  0
VERTEX
  8
0
  5
15C3
 10
175.675
 20
283.066
 30
0.000000
  70
    32
  0
VERTEX
  8
0
  5
15C4
 10
175.662
 20
283.091
 30
0.000000
  70
    32
  0
VERTEX
  8
0
  5
15C5
 10
175.648
 20
283.116
 30
0.000000
  70
    32
  0
VERTEX
  8
0
  5
15C6
 10
175.633
 20
283.141
 30
0.000000
  70
    32
  0
VERTEX
  8
0
  5
15C7
 10
175.618
 20
283.166
 30
0.000000
  70
    32
  0
VERTEX
  8
0
  5
15C8
 10
175.603
 20
283.191
 30
0.000000
  70
    32
  0
VERTEX
  8
0
  5
15C9
 10
175.587
 20
283.216
 30
0.000000
  70
    32
  0
VERTEX
  8
0
  5
15CA
 10
175.571
 20
283.241
 30
0.000000
  70
    32
  0
VERTEX
  8
0
  5
15CB
 10
175.554
 20
283.266
 30
0.000000
  70
    32
  0
VERTEX
  8
0
  5
15CC
 10
175.537
 20
283.291
 30
0.000000
  70
    32
  0
VERTEX
  8
0
  5
15CD
 10
175.519
 20
283.316
 30
0.000000
  70
    32
  0
VERTEX
  8
0
  5
15CE
 10
175.501
 20
283.340
 30
0.000000
  70
    32
  0
VERTEX
  8
0
  5
15CF
 10
175.483
 20
283.365
 30
0.000000
  70
    32
  0
VERTEX
  8
0
  5
15D0
 10
175.464
 20
283.390
 30
0.000000
  70
    32
  0
VERTEX
  8
0
  5
15D1
 10
175.445
 20
283.415
 30
0.000000
  70
    32
  0
VERTEX
  8
0
  5
15D2
 10
175.425
 20
283.439
 30
0.000000
  70
    32
  0
VERTEX
  8
0
  5
15D3
 10
175.405
 20
283.464
 30
0.000000
  70
    32
  0
VERTEX
  8
0
  5
15D4
 10
175.384
 20
283.488
 30
0.000000
  70
    32
  0
VERTEX
  8
0
  5
15D5
 10
175.363
 20
283.513
 30
0.000000
  70
    32
  0
VERTEX
  8
0
  5
15D6
 10
175.341
 20
283.537
 30
0.000000
  70
    32
  0
VERTEX
  8
0
  5
15D7
 10
175.319
 20
283.562
 30
0.000000
  70
    32
  0
VERTEX
  8
0
  5
15D8
 10
175.297
 20
283.586
 30
0.000000
  70
    32
  0
VERTEX
  8
0
  5
15D9
 10
175.274
 20
283.610
 30
0.000000
  70
    32
  0
VERTEX
  8
0
  5
15DA
 10
175.251
 20
283.635
 30
0.000000
  70
    32
  0
VERTEX
  8
0
  5
15DB
 10
175.227
 20
283.659
 30
0.000000
  70
    32
  0
VERTEX
  8
0
  5
15DC
 10
175.203
 20
283.683
 30
0.000000
  70
    32
  0
VERTEX
  8
0
  5
15DD
 10
175.179
 20
283.707
 30
0.000000
  70
    32
  0
VERTEX
  8
0
  5
15DE
 10
175.154
 20
283.732
 30
0.000000
  70
    32
  0
VERTEX
  8
0
  5
15DF
 10
175.128
 20
283.756
 30
0.000000
  70
    32
  0
VERTEX
  8
0
  5
15E0
 10
175.103
 20
283.780
 30
0.000000
  70
    32
  0
VERTEX
  8
0
  5
15E1
 10
175.076
 20
283.804
 30
0.000000
  70
    32
  0
VERTEX
  8
0
  5
15E2
 10
175.050
 20
283.828
 30
0.000000
  70
    32
  0
VERTEX
  8
0
  5
15E3
 10
175.023
 20
283.852
 30
0.000000
  70
    32
  0
VERTEX
  8
0
  5
15E4
 10
174.995
 20
283.875
 30
0.000000
  70
    32
  0
VERTEX
  8
0
  5
15E5
 10
174.967
 20
283.899
 30
0.000000
  70
    32
  0
VERTEX
  8
0
  5
15E6
 10
174.939
 20
283.923
 30
0.000000
  70
    32
  0
VERTEX
  8
0
  5
15E7
 10
174.910
 20
283.947
 30
0.000000
  70
    32
  0
VERTEX
  8
0
  5
15E8
 10
174.881
 20
283.970
 30
0.000000
  70
    32
  0
VERTEX
  8
0
  5
15E9
 10
174.851
 20
283.994
 30
0.000000
  70
    32
  0
VERTEX
  8
0
  5
15EA
 10
174.821
 20
284.017
 30
0.000000
  70
    32
  0
VERTEX
  8
0
  5
15EB
 10
174.791
 20
284.041
 30
0.000000
  70
    32
  0
VERTEX
  8
0
  5
15EC
 10
174.760
 20
284.064
 30
0.000000
  70
    32
  0
VERTEX
  8
0
  5
15ED
 10
174.729
 20
284.088
 30
0.000000
  70
    32
  0
VERTEX
  8
0
  5
15EE
 10
174.697
 20
284.111
 30
0.000000
  70
    32
  0
VERTEX
  8
0
  5
15EF
 10
174.665
 20
284.134
 30
0.000000
  70
    32
  0
VERTEX
  8
0
  5
15F0
 10
174.633
 20
284.157
 30
0.000000
  70
    32
  0
VERTEX
  8
0
  5
15F1
 10
174.600
 20
284.180
 30
0.000000
  70
    32
  0
VERTEX
  8
0
  5
15F2
 10
174.567
 20
284.203
 30
0.000000
  70
    32
  0
VERTEX
  8
0
  5
15F3
 10
174.533
 20
284.226
 30
0.000000
  70
    32
  0
VERTEX
  8
0
  5
15F4
 10
174.499
 20
284.249
 30
0.000000
  70
    32
  0
VERTEX
  8
0
  5
15F5
 10
174.464
 20
284.272
 30
0.000000
  70
    32
  0
VERTEX
  8
0
  5
15F6
 10
174.429
 20
284.295
 30
0.000000
  70
    32
  0
VERTEX
  8
0
  5
15F7
 10
174.394
 20
284.318
 30
0.000000
  70
    32
  0
VERTEX
  8
0
  5
15F8
 10
174.358
 20
284.340
 30
0.000000
  70
    32
  0
VERTEX
  8
0
  5
15F9
 10
174.322
 20
284.363
 30
0.000000
  70
    32
  0
VERTEX
  8
0
  5
15FA
 10
174.286
 20
284.386
 30
0.000000
  70
    32
  0
VERTEX
  8
0
  5
15FB
 10
174.249
 20
284.408
 30
0.000000
  70
    32
  0
VERTEX
  8
0
  5
15FC
 10
174.212
 20
284.431
 30
0.000000
  70
    32
  0
VERTEX
  8
0
  5
15FD
 10
174.174
 20
284.453
 30
0.000000
  70
    32
  0
VERTEX
  8
0
  5
15FE
 10
174.136
 20
284.475
 30
0.000000
  70
    32
  0
VERTEX
  8
0
  5
15FF
 10
174.097
 20
284.497
 30
0.000000
  70
    32
  0
VERTEX
  8
0
  5
1600
 10
174.059
 20
284.519
 30
0.000000
  70
    32
  0
VERTEX
  8
0
  5
1601
 10
174.019
 20
284.541
 30
0.000000
  70
    32
  0
VERTEX
  8
0
  5
1602
 10
173.980
 20
284.563
 30
0.000000
  70
    32
  0
VERTEX
  8
0
  5
1603
 10
173.940
 20
284.585
 30
0.000000
  70
    32
  0
VERTEX
  8
0
  5
1604
 10
173.899
 20
284.607
 30
0.000000
  70
    32
  0
VERTEX
  8
0
  5
1605
 10
173.858
 20
284.629
 30
0.000000
  70
    32
  0
VERTEX
  8
0
  5
1606
 10
173.817
 20
284.651
 30
0.000000
  70
    32
  0
VERTEX
  8
0
  5
1607
 10
173.776
 20
284.672
 30
0.000000
  70
    32
  0
VERTEX
  8
0
  5
1608
 10
173.734
 20
284.694
 30
0.000000
  70
    32
  0
VERTEX
  8
0
  5
1609
 10
173.691
 20
284.715
 30
0.000000
  70
    32
  0
VERTEX
  8
0
  5
160A
 10
173.649
 20
284.737
 30
0.000000
  70
    32
  0
VERTEX
  8
0
  5
160B
 10
173.606
 20
284.758
 30
0.000000
  70
    32
  0
VERTEX
  8
0
  5
160C
 10
173.562
 20
284.779
 30
0.000000
  70
    32
  0
VERTEX
  8
0
  5
160D
 10
173.518
 20
284.800
 30
0.000000
  70
    32
  0
VERTEX
  8
0
  5
160E
 10
173.474
 20
284.821
 30
0.000000
  70
    32
  0
VERTEX
  8
0
  5
160F
 10
173.429
 20
284.842
 30
0.000000
  70
    32
  0
VERTEX
  8
0
  5
1610
 10
173.384
 20
284.863
 30
0.000000
  70
    32
  0
VERTEX
  8
0
  5
1611
 10
173.339
 20
284.884
 30
0.000000
  70
    32
  0
VERTEX
  8
0
  5
1612
 10
173.294
 20
284.905
 30
0.000000
  70
    32
  0
VERTEX
  8
0
  5
1613
 10
173.247
 20
284.925
 30
0.000000
  70
    32
  0
VERTEX
  8
0
  5
1614
 10
173.201
 20
284.946
 30
0.000000
  70
    32
  0
VERTEX
  8
0
  5
1615
 10
173.154
 20
284.966
 30
0.000000
  70
    32
  0
VERTEX
  8
0
  5
1616
 10
173.107
 20
284.987
 30
0.000000
  70
    32
  0
VERTEX
  8
0
  5
1617
 10
173.060
 20
285.007
 30
0.000000
  70
    32
  0
VERTEX
  8
0
  5
1618
 10
173.012
 20
285.027
 30
0.000000
  70
    32
  0
VERTEX
  8
0
  5
1619
 10
172.964
 20
285.047
 30
0.000000
  70
    32
  0
VERTEX
  8
0
  5
161A
 10
172.915
 20
285.067
 30
0.000000
  70
    32
  0
VERTEX
  8
0
  5
161B
 10
172.866
 20
285.087
 30
0.000000
  70
    32
  0
VERTEX
  8
0
  5
161C
 10
172.817
 20
285.107
 30
0.000000
  70
    32
  0
VERTEX
  8
0
  5
161D
 10
172.767
 20
285.127
 30
0.000000
  70
    32
  0
VERTEX
  8
0
  5
161E
 10
172.717
 20
285.146
 30
0.000000
  70
    32
  0
VERTEX
  8
0
  5
161F
 10
172.667
 20
285.166
 30
0.000000
  70
    32
  0
VERTEX
  8
0
  5
1620
 10
172.616
 20
285.185
 30
0.000000
  70
    32
  0
VERTEX
  8
0
  5
1621
 10
172.565
 20
285.205
 30
0.000000
  70
    32
  0
VERTEX
  8
0
  5
1622
 10
172.514
 20
285.224
 30
0.000000
  70
    32
  0
VERTEX
  8
0
  5
1623
 10
172.462
 20
285.243
 30
0.000000
  70
    32
  0
VERTEX
  8
0
  5
1624
 10
172.410
 20
285.262
 30
0.000000
  70
    32
  0
VERTEX
  8
0
  5
1625
 10
172.358
 20
285.281
 30
0.000000
  70
    32
  0
SEQEND
  8
0
  5
1626
  0
POLYLINE
  5
1257
  8
0
 10
148.37709598900321
 20
282.3064589581461
 30
0.0
 66
     1
 70
     8
  0
VERTEX
  8
0
  5
1627
 10
148.377
 20
282.306
 30
0.000000
  70
    32
  0
VERTEX
  8
0
  5
1628
 10
148.381
 20
282.145
 30
0.000000
  70
    32
  0
VERTEX
  8
0
  5
1629
 10
148.394
 20
281.984
 30
0.000000
  70
    32
  0
VERTEX
  8
0
  5
162A
 10
148.414
 20
281.823
 30
0.000000
  70
    32
  0
VERTEX
  8
0
  5
162B
 10
148.443
 20
281.662
 30
0.000000
  70
    32
  0
VERTEX
  8
0
  5
162C
 10
148.481
 20
281.501
 30
0.000000
  70
    32
  0
VERTEX
  8
0
  5
162D
 10
148.526
 20
281.341
 30
0.000000
  70
    32
  0
VERTEX
  8
0
  5
162E
 10
148.580
 20
281.182
 30
0.000000
  70
    32
  0
VERTEX
  8
0
  5
162F
 10
148.641
 20
281.023
 30
0.000000
  70
    32
  0
VERTEX
  8
0
  5
1630
 10
148.711
 20
280.865
 30
0.000000
  70
    32
  0
VERTEX
  8
0
  5
1631
 10
148.789
 20
280.708
 30
0.000000
  70
    32
  0
VERTEX
  8
0
  5
1632
 10
148.875
 20
280.552
 30
0.000000
  70
    32
  0
VERTEX
  8
0
  5
1633
 10
148.969
 20
280.397
 30
0.000000
  70
    32
  0
VERTEX
  8
0
  5
1634
 10
149.071
 20
280.243
 30
0.000000
  70
    32
  0
VERTEX
  8
0
  5
1635
 10
149.181
 20
280.091
 30
0.000000
  70
    32
  0
VERTEX
  8
0
  5
1636
 10
149.298
 20
279.939
 30
0.000000
  70
    32
  0
VERTEX
  8
0
  5
1637
 10
149.424
 20
279.789
 30
0.000000
  70
    32
  0
VERTEX
  8
0
  5
1638
 10
149.557
 20
279.641
 30
0.000000
  70
    32
  0
VERTEX
  8
0
  5
1639
 10
149.697
 20
279.494
 30
0.000000
  70
    32
  0
VERTEX
  8
0
  5
163A
 10
149.845
 20
279.349
 30
0.000000
  70
    32
  0
VERTEX
  8
0
  5
163B
 10
150.001
 20
279.206
 30
0.000000
  70
    32
  0
VERTEX
  8
0
  5
163C
 10
150.163
 20
279.064
 30
0.000000
  70
    32
  0
VERTEX
  8
0
  5
163D
 10
150.333
 20
278.925
 30
0.000000
  70
    32
  0
VERTEX
  8
0
  5
163E
 10
150.510
 20
278.788
 30
0.000000
  70
    32
  0
VERTEX
  8
0
  5
163F
 10
150.694
 20
278.652
 30
0.000000
  70
    32
  0
VERTEX
  8
0
  5
1640
 10
150.885
 20
278.519
 30
0.000000
  70
    32
  0
VERTEX
  8
0
  5
1641
 10
151.083
 20
278.388
 30
0.000000
  70
    32
  0
VERTEX
  8
0
  5
1642
 10
151.287
 20
278.260
 30
0.000000
  70
    32
  0
VERTEX
  8
0
  5
1643
 10
151.498
 20
278.134
 30
0.000000
  70
    32
  0
VERTEX
  8
0
  5
1644
 10
151.715
 20
278.010
 30
0.000000
  70
    32
  0
VERTEX
  8
0
  5
1645
 10
151.939
 20
277.889
 30
0.000000
  70
    32
  0
VERTEX
  8
0
  5
1646
 10
152.169
 20
277.771
 30
0.000000
  70
    32
  0
VERTEX
  8
0
  5
1647
 10
152.404
 20
277.656
 30
0.000000
  70
    32
  0
VERTEX
  8
0
  5
1648
 10
152.646
 20
277.543
 30
0.000000
  70
    32
  0
VERTEX
  8
0
  5
1649
 10
152.893
 20
277.433
 30
0.000000
  70
    32
  0
VERTEX
  8
0
  5
164A
 10
153.146
 20
277.326
 30
0.000000
  70
    32
  0
VERTEX
  8
0
  5
164B
 10
153.404
 20
277.222
 30
0.000000
  70
    32
  0
VERTEX
  8
0
  5
164C
 10
153.668
 20
277.121
 30
0.000000
  70
    32
  0
VERTEX
  8
0
  5
164D
 10
153.936
 20
277.023
 30
0.000000
  70
    32
  0
VERTEX
  8
0
  5
164E
 10
154.210
 20
276.929
 30
0.000000
  70
    32
  0
VERTEX
  8
0
  5
164F
 10
154.488
 20
276.838
 30
0.000000
  70
    32
  0
VERTEX
  8
0
  5
1650
 10
154.771
 20
276.750
 30
0.000000
  70
    32
  0
VERTEX
  8
0
  5
1651
 10
155.058
 20
276.665
 30
0.000000
  70
    32
  0
VERTEX
  8
0
  5
1652
 10
155.350
 20
276.584
 30
0.000000
  70
    32
  0
VERTEX
  8
0
  5
1653
 10
155.645
 20
276.506
 30
0.000000
  70
    32
  0
VERTEX
  8
0
  5
1654
 10
155.945
 20
276.431
 30
0.000000
  70
    32
  0
VERTEX
  8
0
  5
1655
 10
156.248
 20
276.361
 30
0.000000
  70
    32
  0
VERTEX
  8
0
  5
1656
 10
156.555
 20
276.293
 30
0.000000
  70
    32
  0
VERTEX
  8
0
  5
1657
 10
156.865
 20
276.230
 30
0.000000
  70
    32
  0
VERTEX
  8
0
  5
1658
 10
157.179
 20
276.170
 30
0.000000
  70
    32
  0
VERTEX
  8
0
  5
1659
 10
157.495
 20
276.114
 30
0.000000
  70
    32
  0
VERTEX
  8
0
  5
165A
 10
157.814
 20
276.061
 30
0.000000
  70
    32
  0
VERTEX
  8
0
  5
165B
 10
158.136
 20
276.012
 30
0.000000
  70
    32
  0
VERTEX
  8
0
  5
165C
 10
158.460
 20
275.967
 30
0.000000
  70
    32
  0
VERTEX
  8
0
  5
165D
 10
158.786
 20
275.926
 30
0.000000
  70
    32
  0
VERTEX
  8
0
  5
165E
 10
159.114
 20
275.889
 30
0.000000
  70
    32
  0
VERTEX
  8
0
  5
165F
 10
159.445
 20
275.855
 30
0.000000
  70
    32
  0
VERTEX
  8
0
  5
1660
 10
159.776
 20
275.826
 30
0.000000
  70
    32
  0
VERTEX
  8
0
  5
1661
 10
160.110
 20
275.800
 30
0.000000
  70
    32
  0
VERTEX
  8
0
  5
1662
 10
160.444
 20
275.779
 30
0.000000
  70
    32
  0
VERTEX
  8
0
  5
1663
 10
160.779
 20
275.761
 30
0.000000
  70
    32
  0
VERTEX
  8
0
  5
1664
 10
161.116
 20
275.747
 30
0.000000
  70
    32
  0
VERTEX
  8
0
  5
1665
 10
161.452
 20
275.737
 30
0.000000
  70
    32
  0
VERTEX
  8
0
  5
1666
 10
161.790
 20
275.731
 30
0.000000
  70
    32
  0
VERTEX
  8
0
  5
1667
 10
162.127
 20
275.729
 30
0.000000
  70
    32
  0
VERTEX
  8
0
  5
1668
 10
162.465
 20
275.731
 30
0.000000
  70
    32
  0
VERTEX
  8
0
  5
1669
 10
162.802
 20
275.737
 30
0.000000
  70
    32
  0
VERTEX
  8
0
  5
166A
 10
163.139
 20
275.747
 30
0.000000
  70
    32
  0
VERTEX
  8
0
  5
166B
 10
163.475
 20
275.761
 30
0.000000
  70
    32
  0
VERTEX
  8
0
  5
166C
 10
163.810
 20
275.779
 30
0.000000
  70
    32
  0
VERTEX
  8
0
  5
166D
 10
164.145
 20
275.800
 30
0.000000
  70
    32
  0
VERTEX
  8
0
  5
166E
 10
164.478
 20
275.826
 30
0.000000
  70
    32
  0
VERTEX
  8
0
  5
166F
 10
164.810
 20
275.855
 30
0.000000
  70
    32
  0
VERTEX
  8
0
  5
1670
 10
165.140
 20
275.889
 30
0.000000
  70
    32
  0
VERTEX
  8
0
  5
1671
 10
165.468
 20
275.926
 30
0.000000
  70
    32
  0
VERTEX
  8
0
  5
1672
 10
165.794
 20
275.967
 30
0.000000
  70
    32
  0
VERTEX
  8
0
  5
1673
 10
166.119
 20
276.012
 30
0.000000
  70
    32
  0
VERTEX
  8
0
  5
1674
 10
166.440
 20
276.061
 30
0.000000
  70
    32
  0
VERTEX
  8
0
  5
1675
 10
166.759
 20
276.114
 30
0.000000
  70
    32
  0
VERTEX
  8
0
  5
1676
 10
167.076
 20
276.170
 30
0.000000
  70
    32
  0
VERTEX
  8
0
  5
1677
 10
167.389
 20
276.230
 30
0.000000
  70
    32
  0
VERTEX
  8
0
  5
1678
 10
167.699
 20
276.293
 30
0.000000
  70
    32
  0
VERTEX
  8
0
  5
1679
 10
168.006
 20
276.361
 30
0.000000
  70
    32
  0
VERTEX
  8
0
  5
167A
 10
168.309
 20
276.431
 30
0.000000
  70
    32
  0
VERTEX
  8
0
  5
167B
 10
168.609
 20
276.506
 30
0.000000
  70
    32
  0
VERTEX
  8
0
  5
167C
 10
168.904
 20
276.584
 30
0.000000
  70
    32
  0
VERTEX
  8
0
  5
167D
 10
169.196
 20
276.665
 30
0.000000
  70
    32
  0
VERTEX
  8
0
  5
167E
 10
169.483
 20
276.750
 30
0.000000
  70
    32
  0
VERTEX
  8
0
  5
167F
 10
169.766
 20
276.838
 30
0.000000
  70
    32
  0
VERTEX
  8
0
  5
1680
 10
170.044
 20
276.929
 30
0.000000
  70
    32
  0
VERTEX
  8
0
  5
1681
 10
170.318
 20
277.023
 30
0.000000
  70
    32
  0
VERTEX
  8
0
  5
1682
 10
170.587
 20
277.121
 30
0.000000
  70
    32
  0
VERTEX
  8
0
  5
1683
 10
170.850
 20
277.222
 30
0.000000
  70
    32
  0
VERTEX
  8
0
  5
1684
 10
171.108
 20
277.326
 30
0.000000
  70
    32
  0
VERTEX
  8
0
  5
1685
 10
171.361
 20
277.433
 30
0.000000
  70
    32
  0
VERTEX
  8
0
  5
1686
 10
171.608
 20
277.543
 30
0.000000
  70
    32
  0
VERTEX
  8
0
  5
1687
 10
171.850
 20
277.656
 30
0.000000
  70
    32
  0
VERTEX
  8
0
  5
1688
 10
172.085
 20
277.771
 30
0.000000
  70
    32
  0
VERTEX
  8
0
  5
1689
 10
172.315
 20
277.889
 30
0.000000
  70
    32
  0
VERTEX
  8
0
  5
168A
 10
172.539
 20
278.010
 30
0.000000
  70
    32
  0
VERTEX
  8
0
  5
168B
 10
172.756
 20
278.134
 30
0.000000
  70
    32
  0
VERTEX
  8
0
  5
168C
 10
172.967
 20
278.260
 30
0.000000
  70
    32
  0
VERTEX
  8
0
  5
168D
 10
173.171
 20
278.388
 30
0.000000
  70
    32
  0
VERTEX
  8
0
  5
168E
 10
173.369
 20
278.519
 30
0.000000
  70
    32
  0
VERTEX
  8
0
  5
168F
 10
173.560
 20
278.652
 30
0.000000
  70
    32
  0
VERTEX
  8
0
  5
1690
 10
173.744
 20
278.788
 30
0.000000
  70
    32
  0
VERTEX
  8
0
  5
1691
 10
173.921
 20
278.925
 30
0.000000
  70
    32
  0
VERTEX
  8
0
  5
1692
 10
174.091
 20
279.064
 30
0.000000
  70
    32
  0
VERTEX
  8
0
  5
1693
 10
174.254
 20
279.206
 30
0.000000
  70
    32
  0
VERTEX
  8
0
  5
1694
 10
174.409
 20
279.349
 30
0.000000
  70
    32
  0
VERTEX
  8
0
  5
1695
 10
174.557
 20
279.494
 30
0.000000
  70
    32
  0
VERTEX
  8
0
  5
1696
 10
174.697
 20
279.641
 30
0.000000
  70
    32
  0
VERTEX
  8
0
  5
1697
 10
174.830
 20
279.789
 30
0.000000
  70
    32
  0
VERTEX
  8
0
  5
1698
 10
174.956
 20
279.939
 30
0.000000
  70
    32
  0
VERTEX
  8
0
  5
1699
 10
175.073
 20
280.091
 30
0.000000
  70
    32
  0
VERTEX
  8
0
  5
169A
 10
175.183
 20
280.243
 30
0.000000
  70
    32
  0
VERTEX
  8
0
  5
169B
 10
175.285
 20
280.397
 30
0.000000
  70
    32
  0
VERTEX
  8
0
  5
169C
 10
175.379
 20
280.552
 30
0.000000
  70
    32
  0
VERTEX
  8
0
  5
169D
 10
175.465
 20
280.708
 30
0.000000
  70
    32
  0
VERTEX
  8
0
  5
169E
 10
175.543
 20
280.865
 30
0.000000
  70
    32
  0
VERTEX
  8
0
  5
169F
 10
175.613
 20
281.023
 30
0.000000
  70
    32
  0
VERTEX
  8
0
  5
16A0
 10
175.675
 20
281.182
 30
0.000000
  70
    32
  0
VERTEX
  8
0
  5
16A1
 10
175.728
 20
281.341
 30
0.000000
  70
    32
  0
VERTEX
  8
0
  5
16A2
 10
175.774
 20
281.501
 30
0.000000
  70
    32
  0
VERTEX
  8
0
  5
16A3
 10
175.811
 20
281.662
 30
0.000000
  70
    32
  0
VERTEX
  8
0
  5
16A4
 10
175.840
 20
281.823
 30
0.000000
  70
    32
  0
VERTEX
  8
0
  5
16A5
 10
175.861
 20
281.984
 30
0.000000
  70
    32
  0
VERTEX
  8
0
  5
16A6
 10
175.873
 20
282.145
 30
0.000000
  70
    32
  0
VERTEX
  8
0
  5
16A7
 10
175.877
 20
282.306
 30
0.000000
  70
    32
  0
SEQEND
  8
0
  5
16A8
  0
LINE
  5
1258
  8
0
 10
175.87709598900321
 20
282.3064589581461
 30
0.0
 11
175.62709598900321
 21
250.8053605178936
 31
0.0
  0
LINE
  5
1259
  8
0
 10
170.22226337257749
 20
296.22444630866943
 30
0.0
 11
168.7106417696906
 21
303.40831541625982
 31
0.0
  0
ARC
  5
125A
  8
0
 10
168.2213562815526
 20
303.30536051789352
 30
0.0
 40
0.5
 50
11.882762862839719
 51
90.0
  0
ARC
  5
125B
  8
0
 10
174.80774631805201
 20
292.05987531012681
 30
0.0
 40
6.0
 50
141.32779275757619
 51
207.67186019459629
  0
ARC
  5
125C
  8
0
 10
169.73297788443969
 20
296.12149141030318
 30
0.0
 40
0.5
 50
321.32779275757628
 51
11.88276286284132
  0
LINE
  5
125D
  8
0
 10
170.23297788443969
 20
296.12149141030318
 30
0.0
 11
170.23297788443961
 21
287.77352026492599
 31
0.0
  0
ARC
  5
125E
  8
0
 10
178.8025090278353
 20
292.92746399593159
 30
0.0
 40
10.0
 50
201.4323956628549
 51
229.77460563426351
  0
LINE
  5
125F
  8
0
 10
148.37709598900321
 20
282.3064589581461
 30
0.0
 11
148.62709598900321
 21
250.8053605178936
 31
0.0
  0
LINE
  5
1260
  8
0
 10
154.03192860542879
 20
296.22444630866943
 30
0.0
 11
155.54355020831579
 21
303.40831541625982
 31
0.0
  0
ARC
  5
1261
  8
0
 10
154.5212140935667
 20
296.12149141030318
 30
0.0
 40
0.5
 50
168.1172371371587
 51
218.67220724242381
  0
ARC
  5
1262
  8
0
 10
156.0328356964537
 20
303.30536051789352
 30
0.0
 40
0.5
 50
90.0
 51
168.1172371371602
  0
POLYLINE
  5
1263
  8
0
 10
151.89613515210371
 20
285.28115949750514
 30
0.0
 66
     1
 70
     8
  0
VERTEX
  8
0
  5
16A9
 10
151.896
 20
285.281
 30
0.000000
  70
    32
  0
VERTEX
  8
0
  5
16AA
 10
151.844
 20
285.262
 30
0.000000
  70
    32
  0
VERTEX
  8
0
  5
16AB
 10
151.792
 20
285.243
 30
0.000000
  70
    32
  0
VERTEX
  8
0
  5
16AC
 10
151.740
 20
285.224
 30
0.000000
  70
    32
  0
VERTEX
  8
0
  5
16AD
 10
151.689
 20
285.205
 30
0.000000
  70
    32
  0
VERTEX
  8
0
  5
16AE
 10
151.638
 20
285.185
 30
0.000000
  70
    32
  0
VERTEX
  8
0
  5
16AF
 10
151.587
 20
285.166
 30
0.000000
  70
    32
  0
VERTEX
  8
0
  5
16B0
 10
151.537
 20
285.146
 30
0.000000
  70
    32
  0
VERTEX
  8
0
  5
16B1
 10
151.487
 20
285.127
 30
0.000000
  70
    32
  0
VERTEX
  8
0
  5
16B2
 10
151.437
 20
285.107
 30
0.000000
  70
    32
  0
VERTEX
  8
0
  5
16B3
 10
151.388
 20
285.087
 30
0.000000
  70
    32
  0
VERTEX
  8
0
  5
16B4
 10
151.339
 20
285.067
 30
0.000000
  70
    32
  0
VERTEX
  8
0
  5
16B5
 10
151.291
 20
285.047
 30
0.000000
  70
    32
  0
VERTEX
  8
0
  5
16B6
 10
151.242
 20
285.027
 30
0.000000
  70
    32
  0
VERTEX
  8
0
  5
16B7
 10
151.195
 20
285.007
 30
0.000000
  70
    32
  0
VERTEX
  8
0
  5
16B8
 10
151.147
 20
284.987
 30
0.000000
  70
    32
  0
VERTEX
  8
0
  5
16B9
 10
151.100
 20
284.966
 30
0.000000
  70
    32
  0
VERTEX
  8
0
  5
16BA
 10
151.053
 20
284.946
 30
0.000000
  70
    32
  0
VERTEX
  8
0
  5
16BB
 10
151.007
 20
284.925
 30
0.000000
  70
    32
  0
VERTEX
  8
0
  5
16BC
 10
150.961
 20
284.905
 30
0.000000
  70
    32
  0
VERTEX
  8
0
  5
16BD
 10
150.915
 20
284.884
 30
0.000000
  70
    32
  0
VERTEX
  8
0
  5
16BE
 10
150.870
 20
284.863
 30
0.000000
  70
    32
  0
VERTEX
  8
0
  5
16BF
 10
150.825
 20
284.842
 30
0.000000
  70
    32
  0
VERTEX
  8
0
  5
16C0
 10
150.780
 20
284.821
 30
0.000000
  70
    32
  0
VERTEX
  8
0
  5
16C1
 10
150.736
 20
284.800
 30
0.000000
  70
    32
  0
VERTEX
  8
0
  5
16C2
 10
150.692
 20
284.779
 30
0.000000
  70
    32
  0
VERTEX
  8
0
  5
16C3
 10
150.649
 20
284.758
 30
0.000000
  70
    32
  0
VERTEX
  8
0
  5
16C4
 10
150.606
 20
284.737
 30
0.000000
  70
    32
  0
VERTEX
  8
0
  5
16C5
 10
150.563
 20
284.715
 30
0.000000
  70
    32
  0
VERTEX
  8
0
  5
16C6
 10
150.521
 20
284.694
 30
0.000000
  70
    32
  0
VERTEX
  8
0
  5
16C7
 10
150.479
 20
284.672
 30
0.000000
  70
    32
  0
VERTEX
  8
0
  5
16C8
 10
150.437
 20
284.651
 30
0.000000
  70
    32
  0
VERTEX
  8
0
  5
16C9
 10
150.396
 20
284.629
 30
0.000000
  70
    32
  0
VERTEX
  8
0
  5
16CA
 10
150.355
 20
284.607
 30
0.000000
  70
    32
  0
VERTEX
  8
0
  5
16CB
 10
150.315
 20
284.585
 30
0.000000
  70
    32
  0
VERTEX
  8
0
  5
16CC
 10
150.275
 20
284.563
 30
0.000000
  70
    32
  0
VERTEX
  8
0
  5
16CD
 10
150.235
 20
284.541
 30
0.000000
  70
    32
  0
VERTEX
  8
0
  5
16CE
 10
150.196
 20
284.519
 30
0.000000
  70
    32
  0
VERTEX
  8
0
  5
16CF
 10
150.157
 20
284.497
 30
0.000000
  70
    32
  0
VERTEX
  8
0
  5
16D0
 10
150.118
 20
284.475
 30
0.000000
  70
    32
  0
VERTEX
  8
0
  5
16D1
 10
150.080
 20
284.453
 30
0.000000
  70
    32
  0
VERTEX
  8
0
  5
16D2
 10
150.043
 20
284.431
 30
0.000000
  70
    32
  0
VERTEX
  8
0
  5
16D3
 10
150.005
 20
284.408
 30
0.000000
  70
    32
  0
VERTEX
  8
0
  5
16D4
 10
149.968
 20
284.386
 30
0.000000
  70
    32
  0
VERTEX
  8
0
  5
16D5
 10
149.932
 20
284.363
 30
0.000000
  70
    32
  0
VERTEX
  8
0
  5
16D6
 10
149.896
 20
284.340
 30
0.000000
  70
    32
  0
VERTEX
  8
0
  5
16D7
 10
149.860
 20
284.318
 30
0.000000
  70
    32
  0
VERTEX
  8
0
  5
16D8
 10
149.825
 20
284.295
 30
0.000000
  70
    32
  0
VERTEX
  8
0
  5
16D9
 10
149.790
 20
284.272
 30
0.000000
  70
    32
  0
VERTEX
  8
0
  5
16DA
 10
149.755
 20
284.249
 30
0.000000
  70
    32
  0
VERTEX
  8
0
  5
16DB
 10
149.721
 20
284.226
 30
0.000000
  70
    32
  0
VERTEX
  8
0
  5
16DC
 10
149.688
 20
284.203
 30
0.000000
  70
    32
  0
VERTEX
  8
0
  5
16DD
 10
149.654
 20
284.180
 30
0.000000
  70
    32
  0
VERTEX
  8
0
  5
16DE
 10
149.621
 20
284.157
 30
0.000000
  70
    32
  0
VERTEX
  8
0
  5
16DF
 10
149.589
 20
284.134
 30
0.000000
  70
    32
  0
VERTEX
  8
0
  5
16E0
 10
149.557
 20
284.111
 30
0.000000
  70
    32
  0
VERTEX
  8
0
  5
16E1
 10
149.525
 20
284.088
 30
0.000000
  70
    32
  0
VERTEX
  8
0
  5
16E2
 10
149.494
 20
284.064
 30
0.000000
  70
    32
  0
VERTEX
  8
0
  5
16E3
 10
149.463
 20
284.041
 30
0.000000
  70
    32
  0
VERTEX
  8
0
  5
16E4
 10
149.433
 20
284.017
 30
0.000000
  70
    32
  0
VERTEX
  8
0
  5
16E5
 10
149.403
 20
283.994
 30
0.000000
  70
    32
  0
VERTEX
  8
0
  5
16E6
 10
149.373
 20
283.970
 30
0.000000
  70
    32
  0
VERTEX
  8
0
  5
16E7
 10
149.344
 20
283.947
 30
0.000000
  70
    32
  0
VERTEX
  8
0
  5
16E8
 10
149.315
 20
283.923
 30
0.000000
  70
    32
  0
VERTEX
  8
0
  5
16E9
 10
149.287
 20
283.899
 30
0.000000
  70
    32
  0
VERTEX
  8
0
  5
16EA
 10
149.259
 20
283.875
 30
0.000000
  70
    32
  0
VERTEX
  8
0
  5
16EB
 10
149.232
 20
283.852
 30
0.000000
  70
    32
  0
VERTEX
  8
0
  5
16EC
 10
149.205
 20
283.828
 30
0.000000
  70
    32
  0
VERTEX
  8
0
  5
16ED
 10
149.178
 20
283.804
 30
0.000000
  70
    32
  0
VERTEX
  8
0
  5
16EE
 10
149.152
 20
283.780
 30
0.000000
  70
    32
  0
VERTEX
  8
0
  5
16EF
 10
149.126
 20
283.756
 30
0.000000
  70
    32
  0
VERTEX
  8
0
  5
16F0
 10
149.100
 20
283.732
 30
0.000000
  70
    32
  0
VERTEX
  8
0
  5
16F1
 10
149.076
 20
283.707
 30
0.000000
  70
    32
  0
VERTEX
  8
0
  5
16F2
 10
149.051
 20
283.683
 30
0.000000
  70
    32
  0
VERTEX
  8
0
  5
16F3
 10
149.027
 20
283.659
 30
0.000000
  70
    32
  0
VERTEX
  8
0
  5
16F4
 10
149.003
 20
283.635
 30
0.000000
  70
    32
  0
VERTEX
  8
0
  5
16F5
 10
148.980
 20
283.610
 30
0.000000
  70
    32
  0
VERTEX
  8
0
  5
16F6
 10
148.957
 20
283.586
 30
0.000000
  70
    32
  0
VERTEX
  8
0
  5
16F7
 10
148.935
 20
283.562
 30
0.000000
  70
    32
  0
VERTEX
  8
0
  5
16F8
 10
148.913
 20
283.537
 30
0.000000
  70
    32
  0
VERTEX
  8
0
  5
16F9
 10
148.891
 20
283.513
 30
0.000000
  70
    32
  0
VERTEX
  8
0
  5
16FA
 10
148.870
 20
283.488
 30
0.000000
  70
    32
  0
VERTEX
  8
0
  5
16FB
 10
148.850
 20
283.464
 30
0.000000
  70
    32
  0
VERTEX
  8
0
  5
16FC
 10
148.829
 20
283.439
 30
0.000000
  70
    32
  0
VERTEX
  8
0
  5
16FD
 10
148.810
 20
283.415
 30
0.000000
  70
    32
  0
VERTEX
  8
0
  5
16FE
 10
148.790
 20
283.390
 30
0.000000
  70
    32
  0
VERTEX
  8
0
  5
16FF
 10
148.771
 20
283.365
 30
0.000000
  70
    32
  0
VERTEX
  8
0
  5
1700
 10
148.753
 20
283.340
 30
0.000000
  70
    32
  0
VERTEX
  8
0
  5
1701
 10
148.735
 20
283.316
 30
0.000000
  70
    32
  0
VERTEX
  8
0
  5
1702
 10
148.717
 20
283.291
 30
0.000000
  70
    32
  0
VERTEX
  8
0
  5
1703
 10
148.700
 20
283.266
 30
0.000000
  70
    32
  0
VERTEX
  8
0
  5
1704
 10
148.683
 20
283.241
 30
0.000000
  70
    32
  0
VERTEX
  8
0
  5
1705
 10
148.667
 20
283.216
 30
0.000000
  70
    32
  0
VERTEX
  8
0
  5
1706
 10
148.651
 20
283.191
 30
0.000000
  70
    32
  0
VERTEX
  8
0
  5
1707
 10
148.636
 20
283.166
 30
0.000000
  70
    32
  0
VERTEX
  8
0
  5
1708
 10
148.621
 20
283.141
 30
0.000000
  70
    32
  0
VERTEX
  8
0
  5
1709
 10
148.606
 20
283.116
 30
0.000000
  70
    32
  0
VERTEX
  8
0
  5
170A
 10
148.592
 20
283.091
 30
0.000000
  70
    32
  0
VERTEX
  8
0
  5
170B
 10
148.579
 20
283.066
 30
0.000000
  70
    32
  0
VERTEX
  8
0
  5
170C
 10
148.566
 20
283.041
 30
0.000000
  70
    32
  0
VERTEX
  8
0
  5
170D
 10
148.553
 20
283.016
 30
0.000000
  70
    32
  0
VERTEX
  8
0
  5
170E
 10
148.541
 20
282.991
 30
0.000000
  70
    32
  0
VERTEX
  8
0
  5
170F
 10
148.529
 20
282.966
 30
0.000000
  70
    32
  0
VERTEX
  8
0
  5
1710
 10
148.517
 20
282.941
 30
0.000000
  70
    32
  0
VERTEX
  8
0
  5
1711
 10
148.506
 20
282.915
 30
0.000000
  70
    32
  0
VERTEX
  8
0
  5
1712
 10
148.496
 20
282.890
 30
0.000000
  70
    32
  0
VERTEX
  8
0
  5
1713
 10
148.486
 20
282.865
 30
0.000000
  70
    32
  0
VERTEX
  8
0
  5
1714
 10
148.476
 20
282.840
 30
0.000000
  70
    32
  0
VERTEX
  8
0
  5
1715
 10
148.467
 20
282.814
 30
0.000000
  70
    32
  0
VERTEX
  8
0
  5
1716
 10
148.458
 20
282.789
 30
0.000000
  70
    32
  0
VERTEX
  8
0
  5
1717
 10
148.450
 20
282.764
 30
0.000000
  70
    32
  0
VERTEX
  8
0
  5
1718
 10
148.442
 20
282.738
 30
0.000000
  70
    32
  0
VERTEX
  8
0
  5
1719
 10
148.435
 20
282.713
 30
0.000000
  70
    32
  0
VERTEX
  8
0
  5
171A
 10
148.428
 20
282.688
 30
0.000000
  70
    32
  0
VERTEX
  8
0
  5
171B
 10
148.421
 20
282.662
 30
0.000000
  70
    32
  0
VERTEX
  8
0
  5
171C
 10
148.415
 20
282.637
 30
0.000000
  70
    32
  0
VERTEX
  8
0
  5
171D
 10
148.409
 20
282.612
 30
0.000000
  70
    32
  0
VERTEX
  8
0
  5
171E
 10
148.404
 20
282.586
 30
0.000000
  70
    32
  0
VERTEX
  8
0
  5
171F
 10
148.400
 20
282.561
 30
0.000000
  70
    32
  0
VERTEX
  8
0
  5
1720
 10
148.395
 20
282.535
 30
0.000000
  70
    32
  0
VERTEX
  8
0
  5
1721
 10
148.391
 20
282.510
 30
0.000000
  70
    32
  0
VERTEX
  8
0
  5
1722
 10
148.388
 20
282.485
 30
0.000000
  70
    32
  0
VERTEX
  8
0
  5
1723
 10
148.385
 20
282.459
 30
0.000000
  70
    32
  0
VERTEX
  8
0
  5
1724
 10
148.383
 20
282.434
 30
0.000000
  70
    32
  0
VERTEX
  8
0
  5
1725
 10
148.381
 20
282.408
 30
0.000000
  70
    32
  0
VERTEX
  8
0
  5
1726
 10
148.379
 20
282.383
 30
0.000000
  70
    32
  0
VERTEX
  8
0
  5
1727
 10
148.378
 20
282.357
 30
0.000000
  70
    32
  0
VERTEX
  8
0
  5
1728
 10
148.377
 20
282.332
 30
0.000000
  70
    32
  0
VERTEX
  8
0
  5
1729
 10
148.377
 20
282.306
 30
0.000000
  70
    32
  0
SEQEND
  8
0
  5
172A
  0
LINE
  5
1264
  8
0
 10
154.0212140935667
 20
296.12149141030318
 30
0.0
 11
154.0212140935667
 21
287.77352026492599
 31
0.0
  0
ARC
  5
1265
  8
0
 10
149.44644565995441
 20
292.05987531012681
 30
0.0
 40
6.0
 50
332.32813980540368
 51
38.672207242423767
  0
ARC
  5
1266
  8
0
 10
145.451682950171
 20
292.92746399593159
 30
0.0
 40
10.0
 50
310.22539436573652
 51
338.5676043371451
  0
LINE
  5
1267
  8
0
 10
456.6779157161485
 20
299.80533926069751
 30
0.0
 11
458.37810161248149
 21
299.80533926069751
 31
0.0
  0
LINE
  5
1268
  8
0
 10
456.2111536313908
 20
299.14439017905761
 30
0.0
 11
458.84486369723908
 21
299.14439017905761
 31
0.0
  0
LINE
  5
1269
  8
0
 10
450.92697805805818
 20
290.4680485077522
 30
0.0
 11
464.12903927057192
 21
290.4680485077522
 31
0.0
  0
LINE
  5
126A
  8
0
 10
451.04094013533768
 20
291.86258247711169
 30
0.0
 11
464.01507719329243
 21
291.86258247711169
 31
0.0
  0
LINE
  5
126B
  8
0
 10
464.63989601243338
 20
289.7753605178936
 30
0.0
 11
450.41612131619672
 21
289.7753605178936
 31
0.0
  0
LINE
  5
126C
  8
0
 10
464.02800866431488
 20
303.56054585246511
 30
0.0
 11
464.02800866431488
 21
291.7253833857776
 31
0.0
  0
LINE
  5
126D
  8
0
 10
471.02800866431488
 20
250.8053605178936
 30
0.0
 11
444.028008664315
 21
250.8053605178936
 31
0.0
  0
POLYLINE
  5
126E
  8
0
 66
     1
 10
0.0
 20
0.0
 30
0.0
  0
VERTEX
  5
14CD
  8
0
 10
449.79521782043389
 20
270.08297800372748
 30
0.0
  0
VERTEX
  5
14CE
  8
0
 10
449.64291828467151
 20
269.70235766602178
 30
0.0
  0
VERTEX
  5
14CF
  8
0
 10
449.31219072337962
 20
268.94164127053722
 30
0.0
  0
VERTEX
  5
14D0
  8
0
 10
448.94832684179642
 20
268.18316745637293
 30
0.0
  0
VERTEX
  5
14D1
  8
0
 10
448.7546526680315
 20
267.80536051789352
 30
0.0
  0
SEQEND
  5
14D2
  8
0
  0
POLYLINE
  5
126F
  8
0
 66
     1
 10
0.0
 20
0.0
 30
0.0
  0
VERTEX
  5
14D3
  8
0
 10
449.65339918769342
 20
280.4609991559368
 30
0.0
  0
VERTEX
  5
14D4
  8
0
 10
450.02935537721868
 20
279.69523885236168
 30
0.0
  0
VERTEX
  5
14D5
  8
0
 10
450.58356684332779
 20
278.07855934727189
 30
0.0
  0
VERTEX
  5
14D6
  8
0
 10
450.86308269597362
 20
276.36046659860801
 30
0.0
  0
VERTEX
  5
14D7
  8
0
 10
450.898008664315
 20
275.46880339644451
 30
0.0
  0
SEQEND
  5
14D8
  8
0
  0
POLYLINE
  5
1270
  8
0
 66
     1
 10
0.0
 20
0.0
 30
0.0
  0
VERTEX
  5
14D9
  8
0
 10
450.898008664315
 20
275.46880339644451
 30
0.0
  0
VERTEX
  5
14DA
  8
0
 10
450.8662908472192
 20
274.59933898575542
 30
0.0
  0
VERTEX
  5
14DB
  8
0
 10
450.61541879044728
 20
272.81859319881403
 30
0.0
  0
VERTEX
  5
14DC
  8
0
 10
450.12485742820257
 20
270.99964012651662
 30
0.0
  0
VERTEX
  5
14DD
  8
0
 10
449.79521782043389
 20
270.08297800372748
 30
0.0
  0
SEQEND
  5
14DE
  8
0
  0
POLYLINE
  5
1271
  8
0
 66
     1
 10
0.0
 20
0.0
 30
0.0
  0
VERTEX
  5
14DF
  8
0
 10
449.41062558739458
 20
281.5388645468704
 30
0.0
  0
VERTEX
  5
14E0
  8
0
 10
449.40825208714102
 20
281.51223951325971
 30
0.0
  0
VERTEX
  5
14E1
  8
0
 10
449.40481600092238
 20
281.4590792113051
 30
0.0
  0
VERTEX
  5
14E2
  8
0
 10
449.40310918998972
 20
281.40605383785828
 30
0.0
  0
VERTEX
  5
14E3
  8
0
 10
449.40289697148251
 20
281.37959749167601
 30
0.0
  0
SEQEND
  5
14E4
  8
0
  0
POLYLINE
  5
1272
  8
0
 66
     1
 10
0.0
 20
0.0
 30
0.0
  0
VERTEX
  5
14E5
  8
0
 10
449.40289697148251
 20
281.37959749167601
 30
0.0
  0
VERTEX
  5
14E6
  8
0
 10
449.40957016947118
 20
281.230816402801
 30
0.0
  0
VERTEX
  5
14E7
  8
0
 10
449.46415306831659
 20
280.92702910678969
 30
0.0
  0
VERTEX
  5
14E8
  8
0
 10
449.57574309399342
 20
280.61725334277452
 30
0.0
  0
VERTEX
  5
14E9
  8
0
 10
449.65339918769342
 20
280.4609991559368
 30
0.0
  0
SEQEND
  5
14EA
  8
0
  0
LINE
  5
1273
  8
0
 10
450.32467365468062
 20
289.45581666819402
 30
0.0
 11
464.73134367394931
 21
289.45581666819402
 31
0.0
  0
LINE
  5
1274
  8
0
 10
467.02800866431488
 20
240.8053605178936
 30
0.0
 11
467.02800866431488
 21
250.8053605178936
 31
0.0
  0
LINE
  5
1275
  8
0
 10
448.028008664315
 20
250.8053605178936
 30
0.0
 11
448.028008664315
 21
240.8053605178936
 31
0.0
  0
LINE
  5
1276
  8
0
 10
448.028008664315
 20
240.8053605178936
 30
0.0
 11
467.02800866431488
 21
240.8053605178936
 31
0.0
  0
LINE
  5
1277
  8
1
 10
457.528008664315
 20
308.80536051789352
 30
0.0
 11
457.52800866431511
 21
155.80536051789349
 31
0.0
  0
LINE
  5
1278
  8
0
 10
463.62226895686439
 20
303.80536051789352
 30
0.0
 11
451.43374837176549
 21
303.80536051789352
 31
0.0
  0
ARC
  5
1279
  8
0
 10
451.43374837176549
 20
303.30536051789352
 30
0.0
 40
0.5
 50
90.0
 51
168.1172371371602
  0
ARC
  5
127A
  8
0
 10
463.62226895686439
 20
303.30536051789352
 30
0.0
 40
0.5
 50
11.882762862839719
 51
90.0
  0
LINE
  5
127B
  8
0
 10
465.62317604788939
 20
296.22444630866943
 30
0.0
 11
464.1115544450023
 21
303.40831541625982
 31
0.0
  0
LINE
  5
127C
  8
0
 10
449.4328412807406
 20
296.22444630866943
 30
0.0
 11
450.94446288362752
 21
303.40831541625982
 31
0.0
  0
LINE
  5
127D
  8
0
 10
449.42212676887851
 20
296.12149141030318
 30
0.0
 11
449.42212676887851
 21
281.65387073687822
 31
0.0
  0
ARC
  5
127E
  8
0
 10
449.92212676887863
 20
296.12149141030318
 30
0.0
 40
0.5
 50
168.1172371371587
 51
180.0
  0
ARC
  5
127F
  8
0
 10
465.13389055975148
 20
296.12149141030318
 30
0.0
 40
0.5
 50
0.0
 51
11.88276286284132
  0
LINE
  5
1280
  8
0
 10
465.63389055975148
 20
296.12149141030318
 30
0.0
 11
465.63389055975142
 21
281.63110534651707
 31
0.0
  0
LINE
  5
1281
  8
0
 10
443.778008664315
 20
282.3064589581461
 30
0.0
 11
444.028008664315
 21
250.8053605178936
 31
0.0
  0
LINE
  5
1282
  8
0
 10
471.27800866431488
 20
282.3064589581461
 30
0.0
 11
471.02800866431488
 21
250.8053605178936
 31
0.0
  0
POLYLINE
  5
1283
  8
0
 10
471.278008664315
 20
282.3064589581461
 30
0.0
 66
     1
 70
     8
  0
VERTEX
  8
0
  5
172B
 10
471.278
 20
282.306
 30
0.000000
  70
    32
  0
VERTEX
  8
0
  5
172C
 10
471.278
 20
282.332
 30
0.000000
  70
    32
  0
VERTEX
  8
0
  5
172D
 10
471.277
 20
282.357
 30
0.000000
  70
    32
  0
VERTEX
  8
0
  5
172E
 10
471.276
 20
282.383
 30
0.000000
  70
    32
  0
VERTEX
  8
0
  5
172F
 10
471.274
 20
282.408
 30
0.000000
  70
    32
  0
VERTEX
  8
0
  5
1730
 10
471.272
 20
282.434
 30
0.000000
  70
    32
  0
VERTEX
  8
0
  5
1731
 10
471.270
 20
282.459
 30
0.000000
  70
    32
  0
VERTEX
  8
0
  5
1732
 10
471.267
 20
282.485
 30
0.000000
  70
    32
  0
VERTEX
  8
0
  5
1733
 10
471.264
 20
282.510
 30
0.000000
  70
    32
  0
VERTEX
  8
0
  5
1734
 10
471.260
 20
282.535
 30
0.000000
  70
    32
  0
VERTEX
  8
0
  5
1735
 10
471.256
 20
282.561
 30
0.000000
  70
    32
  0
VERTEX
  8
0
  5
1736
 10
471.251
 20
282.586
 30
0.000000
  70
    32
  0
VERTEX
  8
0
  5
1737
 10
471.246
 20
282.612
 30
0.000000
  70
    32
  0
VERTEX
  8
0
  5
1738
 10
471.240
 20
282.637
 30
0.000000
  70
    32
  0
VERTEX
  8
0
  5
1739
 10
471.234
 20
282.662
 30
0.000000
  70
    32
  0
VERTEX
  8
0
  5
173A
 10
471.227
 20
282.688
 30
0.000000
  70
    32
  0
VERTEX
  8
0
  5
173B
 10
471.221
 20
282.713
 30
0.000000
  70
    32
  0
VERTEX
  8
0
  5
173C
 10
471.213
 20
282.738
 30
0.000000
  70
    32
  0
VERTEX
  8
0
  5
173D
 10
471.205
 20
282.764
 30
0.000000
  70
    32
  0
VERTEX
  8
0
  5
173E
 10
471.197
 20
282.789
 30
0.000000
  70
    32
  0
VERTEX
  8
0
  5
173F
 10
471.188
 20
282.814
 30
0.000000
  70
    32
  0
VERTEX
  8
0
  5
1740
 10
471.179
 20
282.840
 30
0.000000
  70
    32
  0
VERTEX
  8
0
  5
1741
 10
471.169
 20
282.865
 30
0.000000
  70
    32
  0
VERTEX
  8
0
  5
1742
 10
471.159
 20
282.890
 30
0.000000
  70
    32
  0
VERTEX
  8
0
  5
1743
 10
471.149
 20
282.915
 30
0.000000
  70
    32
  0
VERTEX
  8
0
  5
1744
 10
471.138
 20
282.941
 30
0.000000
  70
    32
  0
VERTEX
  8
0
  5
1745
 10
471.126
 20
282.966
 30
0.000000
  70
    32
  0
VERTEX
  8
0
  5
1746
 10
471.115
 20
282.991
 30
0.000000
  70
    32
  0
VERTEX
  8
0
  5
1747
 10
471.102
 20
283.016
 30
0.000000
  70
    32
  0
VERTEX
  8
0
  5
1748
 10
471.090
 20
283.041
 30
0.000000
  70
    32
  0
VERTEX
  8
0
  5
1749
 10
471.076
 20
283.066
 30
0.000000
  70
    32
  0
VERTEX
  8
0
  5
174A
 10
471.063
 20
283.091
 30
0.000000
  70
    32
  0
VERTEX
  8
0
  5
174B
 10
471.049
 20
283.116
 30
0.000000
  70
    32
  0
VERTEX
  8
0
  5
174C
 10
471.034
 20
283.141
 30
0.000000
  70
    32
  0
VERTEX
  8
0
  5
174D
 10
471.019
 20
283.166
 30
0.000000
  70
    32
  0
VERTEX
  8
0
  5
174E
 10
471.004
 20
283.191
 30
0.000000
  70
    32
  0
VERTEX
  8
0
  5
174F
 10
470.988
 20
283.216
 30
0.000000
  70
    32
  0
VERTEX
  8
0
  5
1750
 10
470.972
 20
283.241
 30
0.000000
  70
    32
  0
VERTEX
  8
0
  5
1751
 10
470.955
 20
283.266
 30
0.000000
  70
    32
  0
VERTEX
  8
0
  5
1752
 10
470.938
 20
283.291
 30
0.000000
  70
    32
  0
VERTEX
  8
0
  5
1753
 10
470.920
 20
283.316
 30
0.000000
  70
    32
  0
VERTEX
  8
0
  5
1754
 10
470.902
 20
283.340
 30
0.000000
  70
    32
  0
VERTEX
  8
0
  5
1755
 10
470.884
 20
283.365
 30
0.000000
  70
    32
  0
VERTEX
  8
0
  5
1756
 10
470.865
 20
283.390
 30
0.000000
  70
    32
  0
VERTEX
  8
0
  5
1757
 10
470.845
 20
283.415
 30
0.000000
  70
    32
  0
VERTEX
  8
0
  5
1758
 10
470.826
 20
283.439
 30
0.000000
  70
    32
  0
VERTEX
  8
0
  5
1759
 10
470.805
 20
283.464
 30
0.000000
  70
    32
  0
VERTEX
  8
0
  5
175A
 10
470.785
 20
283.488
 30
0.000000
  70
    32
  0
VERTEX
  8
0
  5
175B
 10
470.764
 20
283.513
 30
0.000000
  70
    32
  0
VERTEX
  8
0
  5
175C
 10
470.742
 20
283.537
 30
0.000000
  70
    32
  0
VERTEX
  8
0
  5
175D
 10
470.720
 20
283.562
 30
0.000000
  70
    32
  0
VERTEX
  8
0
  5
175E
 10
470.698
 20
283.586
 30
0.000000
  70
    32
  0
VERTEX
  8
0
  5
175F
 10
470.675
 20
283.610
 30
0.000000
  70
    32
  0
VERTEX
  8
0
  5
1760
 10
470.652
 20
283.635
 30
0.000000
  70
    32
  0
VERTEX
  8
0
  5
1761
 10
470.628
 20
283.659
 30
0.000000
  70
    32
  0
VERTEX
  8
0
  5
1762
 10
470.604
 20
283.683
 30
0.000000
  70
    32
  0
VERTEX
  8
0
  5
1763
 10
470.580
 20
283.707
 30
0.000000
  70
    32
  0
VERTEX
  8
0
  5
1764
 10
470.555
 20
283.732
 30
0.000000
  70
    32
  0
VERTEX
  8
0
  5
1765
 10
470.529
 20
283.756
 30
0.000000
  70
    32
  0
VERTEX
  8
0
  5
1766
 10
470.503
 20
283.780
 30
0.000000
  70
    32
  0
VERTEX
  8
0
  5
1767
 10
470.477
 20
283.804
 30
0.000000
  70
    32
  0
VERTEX
  8
0
  5
1768
 10
470.451
 20
283.828
 30
0.000000
  70
    32
  0
VERTEX
  8
0
  5
1769
 10
470.424
 20
283.852
 30
0.000000
  70
    32
  0
VERTEX
  8
0
  5
176A
 10
470.396
 20
283.875
 30
0.000000
  70
    32
  0
VERTEX
  8
0
  5
176B
 10
470.368
 20
283.899
 30
0.000000
  70
    32
  0
VERTEX
  8
0
  5
176C
 10
470.340
 20
283.923
 30
0.000000
  70
    32
  0
VERTEX
  8
0
  5
176D
 10
470.311
 20
283.947
 30
0.000000
  70
    32
  0
VERTEX
  8
0
  5
176E
 10
470.282
 20
283.970
 30
0.000000
  70
    32
  0
VERTEX
  8
0
  5
176F
 10
470.252
 20
283.994
 30
0.000000
  70
    32
  0
VERTEX
  8
0
  5
1770
 10
470.222
 20
284.017
 30
0.000000
  70
    32
  0
VERTEX
  8
0
  5
1771
 10
470.192
 20
284.041
 30
0.000000
  70
    32
  0
VERTEX
  8
0
  5
1772
 10
470.161
 20
284.064
 30
0.000000
  70
    32
  0
VERTEX
  8
0
  5
1773
 10
470.130
 20
284.088
 30
0.000000
  70
    32
  0
VERTEX
  8
0
  5
1774
 10
470.098
 20
284.111
 30
0.000000
  70
    32
  0
VERTEX
  8
0
  5
1775
 10
470.066
 20
284.134
 30
0.000000
  70
    32
  0
VERTEX
  8
0
  5
1776
 10
470.034
 20
284.157
 30
0.000000
  70
    32
  0
VERTEX
  8
0
  5
1777
 10
470.001
 20
284.180
 30
0.000000
  70
    32
  0
VERTEX
  8
0
  5
1778
 10
469.968
 20
284.203
 30
0.000000
  70
    32
  0
VERTEX
  8
0
  5
1779
 10
469.934
 20
284.226
 30
0.000000
  70
    32
  0
VERTEX
  8
0
  5
177A
 10
469.900
 20
284.249
 30
0.000000
  70
    32
  0
VERTEX
  8
0
  5
177B
 10
469.865
 20
284.272
 30
0.000000
  70
    32
  0
VERTEX
  8
0
  5
177C
 10
469.830
 20
284.295
 30
0.000000
  70
    32
  0
VERTEX
  8
0
  5
177D
 10
469.795
 20
284.318
 30
0.000000
  70
    32
  0
VERTEX
  8
0
  5
177E
 10
469.759
 20
284.340
 30
0.000000
  70
    32
  0
VERTEX
  8
0
  5
177F
 10
469.723
 20
284.363
 30
0.000000
  70
    32
  0
VERTEX
  8
0
  5
1780
 10
469.687
 20
284.386
 30
0.000000
  70
    32
  0
VERTEX
  8
0
  5
1781
 10
469.650
 20
284.408
 30
0.000000
  70
    32
  0
VERTEX
  8
0
  5
1782
 10
469.613
 20
284.431
 30
0.000000
  70
    32
  0
VERTEX
  8
0
  5
1783
 10
469.575
 20
284.453
 30
0.000000
  70
    32
  0
VERTEX
  8
0
  5
1784
 10
469.537
 20
284.475
 30
0.000000
  70
    32
  0
VERTEX
  8
0
  5
1785
 10
469.498
 20
284.497
 30
0.000000
  70
    32
  0
VERTEX
  8
0
  5
1786
 10
469.459
 20
284.519
 30
0.000000
  70
    32
  0
VERTEX
  8
0
  5
1787
 10
469.420
 20
284.541
 30
0.000000
  70
    32
  0
VERTEX
  8
0
  5
1788
 10
469.381
 20
284.563
 30
0.000000
  70
    32
  0
VERTEX
  8
0
  5
1789
 10
469.340
 20
284.585
 30
0.000000
  70
    32
  0
VERTEX
  8
0
  5
178A
 10
469.300
 20
284.607
 30
0.000000
  70
    32
  0
VERTEX
  8
0
  5
178B
 10
469.259
 20
284.629
 30
0.000000
  70
    32
  0
VERTEX
  8
0
  5
178C
 10
469.218
 20
284.651
 30
0.000000
  70
    32
  0
VERTEX
  8
0
  5
178D
 10
469.177
 20
284.672
 30
0.000000
  70
    32
  0
VERTEX
  8
0
  5
178E
 10
469.135
 20
284.694
 30
0.000000
  70
    32
  0
VERTEX
  8
0
  5
178F
 10
469.092
 20
284.715
 30
0.000000
  70
    32
  0
VERTEX
  8
0
  5
1790
 10
469.050
 20
284.737
 30
0.000000
  70
    32
  0
VERTEX
  8
0
  5
1791
 10
469.006
 20
284.758
 30
0.000000
  70
    32
  0
VERTEX
  8
0
  5
1792
 10
468.963
 20
284.779
 30
0.000000
  70
    32
  0
VERTEX
  8
0
  5
1793
 10
468.919
 20
284.800
 30
0.000000
  70
    32
  0
VERTEX
  8
0
  5
1794
 10
468.875
 20
284.821
 30
0.000000
  70
    32
  0
VERTEX
  8
0
  5
1795
 10
468.830
 20
284.842
 30
0.000000
  70
    32
  0
VERTEX
  8
0
  5
1796
 10
468.785
 20
284.863
 30
0.000000
  70
    32
  0
VERTEX
  8
0
  5
1797
 10
468.740
 20
284.884
 30
0.000000
  70
    32
  0
VERTEX
  8
0
  5
1798
 10
468.694
 20
284.905
 30
0.000000
  70
    32
  0
VERTEX
  8
0
  5
1799
 10
468.648
 20
284.925
 30
0.000000
  70
    32
  0
VERTEX
  8
0
  5
179A
 10
468.602
 20
284.946
 30
0.000000
  70
    32
  0
VERTEX
  8
0
  5
179B
 10
468.555
 20
284.966
 30
0.000000
  70
    32
  0
VERTEX
  8
0
  5
179C
 10
468.508
 20
284.987
 30
0.000000
  70
    32
  0
VERTEX
  8
0
  5
179D
 10
468.461
 20
285.007
 30
0.000000
  70
    32
  0
VERTEX
  8
0
  5
179E
 10
468.413
 20
285.027
 30
0.000000
  70
    32
  0
VERTEX
  8
0
  5
179F
 10
468.365
 20
285.047
 30
0.000000
  70
    32
  0
VERTEX
  8
0
  5
17A0
 10
468.316
 20
285.067
 30
0.000000
  70
    32
  0
VERTEX
  8
0
  5
17A1
 10
468.267
 20
285.087
 30
0.000000
  70
    32
  0
VERTEX
  8
0
  5
17A2
 10
468.218
 20
285.107
 30
0.000000
  70
    32
  0
VERTEX
  8
0
  5
17A3
 10
468.168
 20
285.127
 30
0.000000
  70
    32
  0
VERTEX
  8
0
  5
17A4
 10
468.118
 20
285.146
 30
0.000000
  70
    32
  0
VERTEX
  8
0
  5
17A5
 10
468.068
 20
285.166
 30
0.000000
  70
    32
  0
VERTEX
  8
0
  5
17A6
 10
468.017
 20
285.185
 30
0.000000
  70
    32
  0
VERTEX
  8
0
  5
17A7
 10
467.966
 20
285.205
 30
0.000000
  70
    32
  0
VERTEX
  8
0
  5
17A8
 10
467.915
 20
285.224
 30
0.000000
  70
    32
  0
VERTEX
  8
0
  5
17A9
 10
467.863
 20
285.243
 30
0.000000
  70
    32
  0
VERTEX
  8
0
  5
17AA
 10
467.811
 20
285.262
 30
0.000000
  70
    32
  0
VERTEX
  8
0
  5
17AB
 10
467.759
 20
285.281
 30
0.000000
  70
    32
  0
SEQEND
  8
0
  5
17AC
  0
ARC
  5
1284
  8
0
 10
474.20342170314711
 20
292.92746399593159
 30
0.0
 40
10.0
 50
211.0238190760582
 51
229.77460563426351
  0
ARC
  5
1285
  8
0
 10
440.85259562548288
 20
292.92746399593159
 30
0.0
 40
10.0
 50
310.22539436573652
 51
328.97618092394111
  0
POLYLINE
  5
1286
  8
0
 10
447.2970478274155
 20
285.28115949750514
 30
0.0
 66
     1
 70
     8
  0
VERTEX
  8
0
  5
17AD
 10
447.297
 20
285.281
 30
0.000000
  70
    32
  0
VERTEX
  8
0
  5
17AE
 10
447.245
 20
285.262
 30
0.000000
  70
    32
  0
VERTEX
  8
0
  5
17AF
 10
447.193
 20
285.243
 30
0.000000
  70
    32
  0
VERTEX
  8
0
  5
17B0
 10
447.141
 20
285.224
 30
0.000000
  70
    32
  0
VERTEX
  8
0
  5
17B1
 10
447.090
 20
285.205
 30
0.000000
  70
    32
  0
VERTEX
  8
0
  5
17B2
 10
447.039
 20
285.185
 30
0.000000
  70
    32
  0
VERTEX
  8
0
  5
17B3
 10
446.988
 20
285.166
 30
0.000000
  70
    32
  0
VERTEX
  8
0
  5
17B4
 10
446.938
 20
285.146
 30
0.000000
  70
    32
  0
VERTEX
  8
0
  5
17B5
 10
446.888
 20
285.127
 30
0.000000
  70
    32
  0
VERTEX
  8
0
  5
17B6
 10
446.838
 20
285.107
 30
0.000000
  70
    32
  0
VERTEX
  8
0
  5
17B7
 10
446.789
 20
285.087
 30
0.000000
  70
    32
  0
VERTEX
  8
0
  5
17B8
 10
446.740
 20
285.067
 30
0.000000
  70
    32
  0
VERTEX
  8
0
  5
17B9
 10
446.691
 20
285.047
 30
0.000000
  70
    32
  0
VERTEX
  8
0
  5
17BA
 10
446.643
 20
285.027
 30
0.000000
  70
    32
  0
VERTEX
  8
0
  5
17BB
 10
446.595
 20
285.007
 30
0.000000
  70
    32
  0
VERTEX
  8
0
  5
17BC
 10
446.548
 20
284.987
 30
0.000000
  70
    32
  0
VERTEX
  8
0
  5
17BD
 10
446.501
 20
284.966
 30
0.000000
  70
    32
  0
VERTEX
  8
0
  5
17BE
 10
446.454
 20
284.946
 30
0.000000
  70
    32
  0
VERTEX
  8
0
  5
17BF
 10
446.408
 20
284.925
 30
0.000000
  70
    32
  0
VERTEX
  8
0
  5
17C0
 10
446.362
 20
284.905
 30
0.000000
  70
    32
  0
VERTEX
  8
0
  5
17C1
 10
446.316
 20
284.884
 30
0.000000
  70
    32
  0
VERTEX
  8
0
  5
17C2
 10
446.271
 20
284.863
 30
0.000000
  70
    32
  0
VERTEX
  8
0
  5
17C3
 10
446.226
 20
284.842
 30
0.000000
  70
    32
  0
VERTEX
  8
0
  5
17C4
 10
446.181
 20
284.821
 30
0.000000
  70
    32
  0
VERTEX
  8
0
  5
17C5
 10
446.137
 20
284.800
 30
0.000000
  70
    32
  0
VERTEX
  8
0
  5
17C6
 10
446.093
 20
284.779
 30
0.000000
  70
    32
  0
VERTEX
  8
0
  5
17C7
 10
446.050
 20
284.758
 30
0.000000
  70
    32
  0
VERTEX
  8
0
  5
17C8
 10
446.007
 20
284.737
 30
0.000000
  70
    32
  0
VERTEX
  8
0
  5
17C9
 10
445.964
 20
284.715
 30
0.000000
  70
    32
  0
VERTEX
  8
0
  5
17CA
 10
445.921
 20
284.694
 30
0.000000
  70
    32
  0
VERTEX
  8
0
  5
17CB
 10
445.880
 20
284.672
 30
0.000000
  70
    32
  0
VERTEX
  8
0
  5
17CC
 10
445.838
 20
284.651
 30
0.000000
  70
    32
  0
VERTEX
  8
0
  5
17CD
 10
445.797
 20
284.629
 30
0.000000
  70
    32
  0
VERTEX
  8
0
  5
17CE
 10
445.756
 20
284.607
 30
0.000000
  70
    32
  0
VERTEX
  8
0
  5
17CF
 10
445.716
 20
284.585
 30
0.000000
  70
    32
  0
VERTEX
  8
0
  5
17D0
 10
445.675
 20
284.563
 30
0.000000
  70
    32
  0
VERTEX
  8
0
  5
17D1
 10
445.636
 20
284.541
 30
0.000000
  70
    32
  0
VERTEX
  8
0
  5
17D2
 10
445.597
 20
284.519
 30
0.000000
  70
    32
  0
VERTEX
  8
0
  5
17D3
 10
445.558
 20
284.497
 30
0.000000
  70
    32
  0
VERTEX
  8
0
  5
17D4
 10
445.519
 20
284.475
 30
0.000000
  70
    32
  0
VERTEX
  8
0
  5
17D5
 10
445.481
 20
284.453
 30
0.000000
  70
    32
  0
VERTEX
  8
0
  5
17D6
 10
445.443
 20
284.431
 30
0.000000
  70
    32
  0
VERTEX
  8
0
  5
17D7
 10
445.406
 20
284.408
 30
0.000000
  70
    32
  0
VERTEX
  8
0
  5
17D8
 10
445.369
 20
284.386
 30
0.000000
  70
    32
  0
VERTEX
  8
0
  5
17D9
 10
445.333
 20
284.363
 30
0.000000
  70
    32
  0
VERTEX
  8
0
  5
17DA
 10
445.297
 20
284.340
 30
0.000000
  70
    32
  0
VERTEX
  8
0
  5
17DB
 10
445.261
 20
284.318
 30
0.000000
  70
    32
  0
VERTEX
  8
0
  5
17DC
 10
445.226
 20
284.295
 30
0.000000
  70
    32
  0
VERTEX
  8
0
  5
17DD
 10
445.191
 20
284.272
 30
0.000000
  70
    32
  0
VERTEX
  8
0
  5
17DE
 10
445.156
 20
284.249
 30
0.000000
  70
    32
  0
VERTEX
  8
0
  5
17DF
 10
445.122
 20
284.226
 30
0.000000
  70
    32
  0
VERTEX
  8
0
  5
17E0
 10
445.088
 20
284.203
 30
0.000000
  70
    32
  0
VERTEX
  8
0
  5
17E1
 10
445.055
 20
284.180
 30
0.000000
  70
    32
  0
VERTEX
  8
0
  5
17E2
 10
445.022
 20
284.157
 30
0.000000
  70
    32
  0
VERTEX
  8
0
  5
17E3
 10
444.990
 20
284.134
 30
0.000000
  70
    32
  0
VERTEX
  8
0
  5
17E4
 10
444.958
 20
284.111
 30
0.000000
  70
    32
  0
VERTEX
  8
0
  5
17E5
 10
444.926
 20
284.088
 30
0.000000
  70
    32
  0
VERTEX
  8
0
  5
17E6
 10
444.895
 20
284.064
 30
0.000000
  70
    32
  0
VERTEX
  8
0
  5
17E7
 10
444.864
 20
284.041
 30
0.000000
  70
    32
  0
VERTEX
  8
0
  5
17E8
 10
444.834
 20
284.017
 30
0.000000
  70
    32
  0
VERTEX
  8
0
  5
17E9
 10
444.804
 20
283.994
 30
0.000000
  70
    32
  0
VERTEX
  8
0
  5
17EA
 10
444.774
 20
283.970
 30
0.000000
  70
    32
  0
VERTEX
  8
0
  5
17EB
 10
444.745
 20
283.947
 30
0.000000
  70
    32
  0
VERTEX
  8
0
  5
17EC
 10
444.716
 20
283.923
 30
0.000000
  70
    32
  0
VERTEX
  8
0
  5
17ED
 10
444.688
 20
283.899
 30
0.000000
  70
    32
  0
VERTEX
  8
0
  5
17EE
 10
444.660
 20
283.875
 30
0.000000
  70
    32
  0
VERTEX
  8
0
  5
17EF
 10
444.632
 20
283.852
 30
0.000000
  70
    32
  0
VERTEX
  8
0
  5
17F0
 10
444.605
 20
283.828
 30
0.000000
  70
    32
  0
VERTEX
  8
0
  5
17F1
 10
444.579
 20
283.804
 30
0.000000
  70
    32
  0
VERTEX
  8
0
  5
17F2
 10
444.553
 20
283.780
 30
0.000000
  70
    32
  0
VERTEX
  8
0
  5
17F3
 10
444.527
 20
283.756
 30
0.000000
  70
    32
  0
VERTEX
  8
0
  5
17F4
 10
444.501
 20
283.732
 30
0.000000
  70
    32
  0
VERTEX
  8
0
  5
17F5
 10
444.476
 20
283.707
 30
0.000000
  70
    32
  0
VERTEX
  8
0
  5
17F6
 10
444.452
 20
283.683
 30
0.000000
  70
    32
  0
VERTEX
  8
0
  5
17F7
 10
444.428
 20
283.659
 30
0.000000
  70
    32
  0
VERTEX
  8
0
  5
17F8
 10
444.404
 20
283.635
 30
0.000000
  70
    32
  0
VERTEX
  8
0
  5
17F9
 10
444.381
 20
283.610
 30
0.000000
  70
    32
  0
VERTEX
  8
0
  5
17FA
 10
444.358
 20
283.586
 30
0.000000
  70
    32
  0
VERTEX
  8
0
  5
17FB
 10
444.336
 20
283.562
 30
0.000000
  70
    32
  0
VERTEX
  8
0
  5
17FC
 10
444.314
 20
283.537
 30
0.000000
  70
    32
  0
VERTEX
  8
0
  5
17FD
 10
444.292
 20
283.513
 30
0.000000
  70
    32
  0
VERTEX
  8
0
  5
17FE
 10
444.271
 20
283.488
 30
0.000000
  70
    32
  0
VERTEX
  8
0
  5
17FF
 10
444.251
 20
283.464
 30
0.000000
  70
    32
  0
VERTEX
  8
0
  5
1800
 10
444.230
 20
283.439
 30
0.000000
  70
    32
  0
VERTEX
  8
0
  5
1801
 10
444.211
 20
283.415
 30
0.000000
  70
    32
  0
VERTEX
  8
0
  5
1802
 10
444.191
 20
283.390
 30
0.000000
  70
    32
  0
VERTEX
  8
0
  5
1803
 10
444.172
 20
283.365
 30
0.000000
  70
    32
  0
VERTEX
  8
0
  5
1804
 10
444.154
 20
283.340
 30
0.000000
  70
    32
  0
VERTEX
  8
0
  5
1805
 10
444.136
 20
283.316
 30
0.000000
  70
    32
  0
VERTEX
  8
0
  5
1806
 10
444.118
 20
283.291
 30
0.000000
  70
    32
  0
VERTEX
  8
0
  5
1807
 10
444.101
 20
283.266
 30
0.000000
  70
    32
  0
VERTEX
  8
0
  5
1808
 10
444.084
 20
283.241
 30
0.000000
  70
    32
  0
VERTEX
  8
0
  5
1809
 10
444.068
 20
283.216
 30
0.000000
  70
    32
  0
VERTEX
  8
0
  5
180A
 10
444.052
 20
283.191
 30
0.000000
  70
    32
  0
VERTEX
  8
0
  5
180B
 10
444.037
 20
283.166
 30
0.000000
  70
    32
  0
VERTEX
  8
0
  5
180C
 10
444.022
 20
283.141
 30
0.000000
  70
    32
  0
VERTEX
  8
0
  5
180D
 10
444.007
 20
283.116
 30
0.000000
  70
    32
  0
VERTEX
  8
0
  5
180E
 10
443.993
 20
283.091
 30
0.000000
  70
    32
  0
VERTEX
  8
0
  5
180F
 10
443.980
 20
283.066
 30
0.000000
  70
    32
  0
VERTEX
  8
0
  5
1810
 10
443.966
 20
283.041
 30
0.000000
  70
    32
  0
VERTEX
  8
0
  5
1811
 10
443.954
 20
283.016
 30
0.000000
  70
    32
  0
VERTEX
  8
0
  5
1812
 10
443.941
 20
282.991
 30
0.000000
  70
    32
  0
VERTEX
  8
0
  5
1813
 10
443.930
 20
282.966
 30
0.000000
  70
    32
  0
VERTEX
  8
0
  5
1814
 10
443.918
 20
282.941
 30
0.000000
  70
    32
  0
VERTEX
  8
0
  5
1815
 10
443.907
 20
282.915
 30
0.000000
  70
    32
  0
VERTEX
  8
0
  5
1816
 10
443.897
 20
282.890
 30
0.000000
  70
    32
  0
VERTEX
  8
0
  5
1817
 10
443.887
 20
282.865
 30
0.000000
  70
    32
  0
VERTEX
  8
0
  5
1818
 10
443.877
 20
282.840
 30
0.000000
  70
    32
  0
VERTEX
  8
0
  5
1819
 10
443.868
 20
282.814
 30
0.000000
  70
    32
  0
VERTEX
  8
0
  5
181A
 10
443.859
 20
282.789
 30
0.000000
  70
    32
  0
VERTEX
  8
0
  5
181B
 10
443.851
 20
282.764
 30
0.000000
  70
    32
  0
VERTEX
  8
0
  5
181C
 10
443.843
 20
282.738
 30
0.000000
  70
    32
  0
VERTEX
  8
0
  5
181D
 10
443.835
 20
282.713
 30
0.000000
  70
    32
  0
VERTEX
  8
0
  5
181E
 10
443.829
 20
282.688
 30
0.000000
  70
    32
  0
VERTEX
  8
0
  5
181F
 10
443.822
 20
282.662
 30
0.000000
  70
    32
  0
VERTEX
  8
0
  5
1820
 10
443.816
 20
282.637
 30
0.000000
  70
    32
  0
VERTEX
  8
0
  5
1821
 10
443.810
 20
282.612
 30
0.000000
  70
    32
  0
VERTEX
  8
0
  5
1822
 10
443.805
 20
282.586
 30
0.000000
  70
    32
  0
VERTEX
  8
0
  5
1823
 10
443.800
 20
282.561
 30
0.000000
  70
    32
  0
VERTEX
  8
0
  5
1824
 10
443.796
 20
282.535
 30
0.000000
  70
    32
  0
VERTEX
  8
0
  5
1825
 10
443.792
 20
282.510
 30
0.000000
  70
    32
  0
VERTEX
  8
0
  5
1826
 10
443.789
 20
282.485
 30
0.000000
  70
    32
  0
VERTEX
  8
0
  5
1827
 10
443.786
 20
282.459
 30
0.000000
  70
    32
  0
VERTEX
  8
0
  5
1828
 10
443.784
 20
282.434
 30
0.000000
  70
    32
  0
VERTEX
  8
0
  5
1829
 10
443.782
 20
282.408
 30
0.000000
  70
    32
  0
VERTEX
  8
0
  5
182A
 10
443.780
 20
282.383
 30
0.000000
  70
    32
  0
VERTEX
  8
0
  5
182B
 10
443.779
 20
282.357
 30
0.000000
  70
    32
  0
VERTEX
  8
0
  5
182C
 10
443.778
 20
282.332
 30
0.000000
  70
    32
  0
VERTEX
  8
0
  5
182D
 10
443.778
 20
282.306
 30
0.000000
  70
    32
  0
SEQEND
  8
0
  5
182E
  0
ARC
  5
1287
  8
0
 10
477.68117384294828
 20
275.0794771243406
 30
0.0
 40
13.5
 50
154.9957370749591
 51
212.6035820132258
  0
ARC
  5
1288
  8
0
 10
463.63389055975142
 20
281.63110534651707
 30
0.0
 40
2.0
 50
334.99573707495921
 51
0.0
  0
LINE
  5
1289
  8
0
 10
464.73134367394931
 20
289.45581666819379
 30
0.0
 11
465.6337437383354
 21
281.65533887923448
 31
0.0
  0
LINE
  5
128A
  8
0
 10
464.63989601243338
 20
289.7753605178936
 30
0.0
 11
464.73134367394931
 21
289.45581666819402
 31
0.0
  0
LINE
  5
128B
  8
0
 10
464.01507719329243
 20
291.86258247711169
 30
0.0
 11
464.18564611125493
 21
289.7753605178936
 31
0.0
  0
ARC
  5
128C
  8
0
 10
471.6382038359377
 20
285.79969945549868
 30
0.0
 40
20.0
 50
117.22668439682791
 51
131.85703956953191
  0
ARC
  5
128D
  8
0
 10
463.40298593015399
 20
301.80536051789352
 30
0.0
 40
2.0
 50
90.0
 51
117.22668439682791
  0
ARC
  5
128E
  8
0
 10
532.12685217183378
 20
351.3914012438961
 30
0.0
 40
90.0
 50
214.79142625443711
 51
219.8857855585226
  0
ARC
  5
128F
  8
0
 10
458.62635533141128
 20
300.32353498524958
 30
0.0
 40
0.5
 50
131.85703956953191
 51
214.79142625443771
  0
ARC
  5
1290
  8
0
 10
456.50734517851828
 20
289.09962029960423
 30
0.0
 40
8.0
 50
20.2044001903514
 51
34.911162194464822
  0
ARC
  5
1291
  8
0
 10
443.41781349269229
 20
285.79969945549868
 30
0.0
 40
20.0
 50
48.14296043046803
 51
62.773315603172058
  0
ARC
  5
1292
  8
0
 10
451.65303139847589
 20
301.80536051789352
 30
0.0
 40
2.0
 50
62.773315603172058
 51
90.0
  0
ARC
  5
1293
  8
0
 10
456.42966199721872
 20
300.32353498524958
 30
0.0
 40
0.5
 50
325.20857374556232
 51
48.14296043046803
  0
ARC
  5
1294
  8
0
 10
382.9291651567961
 20
351.3914012438961
 30
0.0
 40
90.0
 50
320.11421444147737
 51
325.208573745563
  0
ARC
  5
1295
  8
0
 10
458.54867215011171
 20
289.09962029960423
 30
0.0
 40
8.0
 50
145.08883780553521
 51
159.79559980964859
  0
LINE
  5
1296
  8
0
 10
451.04094013533768
 20
291.86258247711169
 30
0.0
 11
450.8703712173749
 21
289.7753605178936
 31
0.0
  0
LINE
  5
1297
  8
0
 10
450.41612131619672
 20
289.7753605178936
 30
0.0
 11
450.32467365468062
 21
289.45581666819402
 31
0.0
  0
LINE
  5
1298
  8
0
 10
450.32467365468062
 20
289.45581666819379
 30
0.0
 11
449.42227359029471
 21
281.65533887923448
 31
0.0
  0
LINE
  5
1299
  8
0
 10
451.028008664315
 20
303.56054585246511
 30
0.0
 11
451.028008664315
 21
291.7253833857776
 31
0.0
  0
LINE
  5
12C5
  8
0
 10
166.12709598900321
 20
160.80536051789349
 30
0.0
 11
158.12709598900321
 21
160.8053605178936
 31
0.0
  0
LINE
  5
12C6
  8
0
 10
156.12709598900321
 20
240.8053605178936
 30
0.0
 11
156.12709598900301
 21
162.8053605178938
 31
0.0
  0
LINE
  5
12C7
  8
3
 10
157.0740959890031
 20
220.8053605178936
 30
0.0
 11
157.0740959890031
 21
161.85836051789369
 31
0.0
  0
LINE
  5
12C8
  8
3
 10
167.18009598900321
 20
220.8053605178936
 30
0.0
 11
167.18009598900321
 21
161.85836051789349
 31
0.0
  0
LINE
  5
12C9
  8
0
 10
168.12709598900321
 20
240.8053605178936
 30
0.0
 11
168.12709598900301
 21
162.80536051789329
 31
0.0
  0
LINE
  5
12CA
  8
0
 10
166.12709598900321
 20
160.80536051789349
 30
0.0
 11
168.12709598900321
 21
162.80536051789349
 31
0.0
  0
LINE
  5
12CB
  8
0
 10
158.12709598900321
 20
160.8053605178936
 30
0.0
 11
156.12709598900321
 21
162.8053605178936
 31
0.0
  0
LINE
  5
12CC
  8
0
 10
168.12709598900321
 20
162.8053605178936
 30
0.0
 11
156.12709598900321
 21
162.8053605178936
 31
0.0
  0
LINE
  5
12CD
  8
0
 10
156.12709598900321
 20
220.8053605178936
 30
0.0
 11
168.12709598900329
 21
220.8053605178936
 31
0.0
  0
LINE
  5
12CE
  8
3
 10
167.18009598900329
 20
220.8053605178936
 30
0.0
 11
168.12709598900329
 21
222.44561263266129
 31
0.0
  0
LINE
  5
12CF
  8
3
 10
157.07409598900321
 20
220.8053605178936
 30
0.0
 11
156.12709598900321
 21
222.44561263266129
 31
0.0
  0
LINE
  5
12D3
  8
0
 10
277.47260149911608
 20
160.80536051789349
 30
0.0
 11
269.47260149911608
 21
160.8053605178936
 31
0.0
  0
LINE
  5
12D4
  8
0
 10
279.47260149911608
 20
162.8053605178936
 30
0.0
 11
267.47260149911608
 21
162.8053605178936
 31
0.0
  0
LINE
  5
12D5
  8
0
 10
267.47260149911602
 20
220.8053605178936
 30
0.0
 11
279.47260149911608
 21
220.8053605178936
 31
0.0
  0
LINE
  5
12D6
  8
3
 10
268.41960149911603
 20
220.8053605178936
 30
0.0
 11
268.41960149911591
 21
161.8583605178938
 31
0.0
  0
LINE
  5
12D7
  8
0
 10
267.47260149911608
 20
240.8053605178936
 30
0.0
 11
267.47260149911568
 21
162.805360517894
 31
0.0
  0
LINE
  5
12D8
  8
0
 10
269.47260149911608
 20
160.8053605178936
 30
0.0
 11
267.47260149911608
 21
162.8053605178936
 31
0.0
  0
LINE
  5
12D9
  8
3
 10
268.41960149911603
 20
220.8053605178936
 30
0.0
 11
267.47260149911608
 21
222.44561263266129
 31
0.0
  0
LINE
  5
12DA
  8
0
 10
279.47260149911608
 20
240.8053605178936
 30
0.0
 11
279.47260149911568
 21
162.80536051789321
 31
0.0
  0
LINE
  5
12DB
  8
3
 10
278.52560149911608
 20
220.8053605178936
 30
0.0
 11
278.52560149911608
 21
161.85836051789349
 31
0.0
  0
LINE
  5
12DC
  8
0
 10
277.47260149911608
 20
160.80536051789349
 30
0.0
 11
279.47260149911608
 21
162.80536051789349
 31
0.0
  0
LINE
  5
12DD
  8
3
 10
278.52560149911608
 20
220.8053605178936
 30
0.0
 11
279.47260149911608
 21
222.44561263266129
 31
0.0
  0
LINE
  5
12DF
  8
3
 10
462.5910086643151
 20
220.8053605178936
 30
0.0
 11
462.59100866431498
 21
161.8583605178936
 31
0.0
  0
LINE
  5
12E0
  8
0
 10
463.53800866431487
 20
240.8053605178936
 30
0.0
 11
463.53800866431487
 21
162.80536051789349
 31
0.0
  0
LINE
  5
12E1
  8
0
 10
451.53800866431499
 20
240.8053605178936
 30
0.0
 11
451.5380086643147
 21
162.805360517894
 31
0.0
  0
LINE
  5
12E2
  8
3
 10
452.48500866431488
 20
220.8053605178936
 30
0.0
 11
452.48500866431482
 21
161.8583605178938
 31
0.0
  0
LINE
  5
12E3
  8
0
 10
453.53800866431499
 20
160.8053605178936
 30
0.0
 11
451.53800866431499
 21
162.8053605178936
 31
0.0
  0
LINE
  5
12E4
  8
0
 10
463.53800866431499
 20
162.8053605178936
 30
0.0
 11
451.53800866431499
 21
162.8053605178936
 31
0.0
  0
LINE
  5
12E5
  8
0
 10
461.53800866431487
 20
160.80536051789349
 30
0.0
 11
453.53800866431499
 21
160.8053605178936
 31
0.0
  0
LINE
  5
12E6
  8
0
 10
461.53800866431487
 20
160.80536051789349
 30
0.0
 11
463.53800866431487
 21
162.80536051789349
 31
0.0
  0
LINE
  5
12E7
  8
3
 10
452.48500866431488
 20
220.8053605178936
 30
0.0
 11
451.53800866431499
 21
222.44561263266129
 31
0.0
  0
LINE
  5
12E8
  8
0
 10
451.53800866431487
 20
220.8053605178936
 30
0.0
 11
463.53800866431499
 21
220.8053605178936
 31
0.0
  0
LINE
  5
12E9
  8
3
 10
462.59100866431498
 20
220.8053605178936
 30
0.0
 11
463.53800866431499
 21
222.44561263266129
 31
0.0
  0
LINE
  5
135F
  8
0
 10
269.66260149911608
 20
384.86066272205881
 30
0.0
 11
269.66260149911608
 21
383.51066272205873
 31
0.0
  0
LINE
  5
1360
  8
0
 10
277.2626014991161
 20
384.86066272205881
 30
0.0
 11
277.2626014991161
 21
383.51066272205873
 31
0.0
  0
LINE
  5
1361
  8
0
 10
275.2597234173208
 20
384.86066272205881
 30
0.0
 11
277.2626014991161
 21
384.86066272205881
 31
0.0
  0
LINE
  5
1362
  8
0
 10
275.25972341732057
 20
383.51066272205873
 30
0.0
 11
277.2626014991161
 21
383.51066272205873
 31
0.0
  0
LINE
  5
1363
  8
0
 10
269.66260149911608
 20
384.86066272205881
 30
0.0
 11
271.66547958091161
 21
384.86066272205881
 31
0.0
  0
LINE
  5
1364
  8
0
 10
269.66260149911608
 20
383.51066272205873
 30
0.0
 11
271.66547958091161
 21
383.51066272205873
 31
0.0
  0
CIRCLE
  5
1365
  8
0
 10
273.46260149911609
 20
384.18566272205868
 30
0.0
 40
3.999175415007485
  0
LINE
  5
1371
  8
0
 10
168.87709598900321
 20
282.41292793438572
 30
0.0
 11
155.3770959890031
 21
282.41292793438572
 31
0.0
  0
ARC
  5
1372
  8
0
 10
162.12709598900321
 20
272.4913605178935
 30
0.0
 40
12.0
 50
109.4670447595973
 51
124.2288663278118
  0
ARC
  5
1373
  8
0
 10
162.12709598900321
 20
272.4913605178935
 30
0.0
 40
12.0
 50
55.771133672188213
 51
70.532955240402714
  0
LINE
  5
1374
  8
0
 10
166.12627140401059
 20
283.80536051789352
 30
0.0
 11
158.12792057399579
 21
283.80536051789352
 31
0.0
  0
LINE
  5
1375
  8
0
 10
155.3770959890031
 20
282.41292793438572
 30
0.0
 11
155.3770959890031
 21
280.14278515743041
 31
0.0
  0
LINE
  5
1376
  8
0
 10
168.87709598900321
 20
282.41292793438572
 30
0.0
 11
168.87709598900321
 21
280.14278515743041
 31
0.0
  0
CIRCLE
  5
1377
  8
0
 10
273.46260149911609
 20
384.18566272205868
 30
0.0
 40
6.75
  0
ARC
  5
1378
  8
0
 10
275.82624092206828
 20
385.5503105791675
 30
0.0
 40
0.8925000000000011
 50
163.3417582272229
 51
230.59829508168929
  0
ARC
  5
1379
  8
0
 10
275.82624092206828
 20
382.82101486495009
 30
0.0
 40
0.8925000000000002
 50
129.40170491832319
 51
196.65824177277699
  0
ARC
  5
137A
  8
0
 10
274.48260149911607
 20
382.4189708983385
 30
0.0
 40
0.5099999999999997
 50
223.3417582272223
 51
16.658241772777039
  0
ARC
  5
137B
  8
0
 10
273.4626014991162
 20
381.45636700784149
 30
0.0
 40
0.8925000000000002
 50
43.341758227222343
 51
136.65824177277651
  0
ARC
  5
137C
  8
0
 10
272.44260149911622
 20
382.4189708983385
 30
0.0
 40
0.5100000000000002
 50
163.3417582272229
 51
316.65824177277773
  0
ARC
  5
137D
  8
0
 10
271.09896207616401
 20
382.82101486495009
 30
0.0
 40
0.8925000000000011
 50
343.3417582272229
 51
50.598295081676767
  0
ARC
  5
137E
  8
0
 10
274.48260149911607
 20
385.95235454577897
 30
0.0
 40
0.5100000000000003
 50
343.3417582272229
 51
136.65824177277759
  0
ARC
  5
137F
  8
0
 10
273.4626014991162
 20
386.91495843627609
 30
0.0
 40
0.8924999999999984
 50
223.3417582272223
 51
316.65824177277773
  0
ARC
  5
1380
  8
0
 10
272.44260149911622
 20
385.95235454577897
 30
0.0
 40
0.5099999999999997
 50
43.341758227222343
 51
196.65824177277699
  0
ARC
  5
1381
  8
0
 10
271.09896207616401
 20
385.5503105791675
 30
0.0
 40
0.8925000000000004
 50
309.40170491831071
 51
16.658241772777039
  0
LINE
  5
1387
  8
0
 10
266.71260149911598
 20
282.41292793438572
 30
0.0
 11
266.71260149911598
 21
279.1214342312818
 31
0.0
  0
LINE
  5
1388
  8
0
 10
277.4617769141235
 20
283.80536051789352
 30
0.0
 11
269.46342608410868
 21
283.80536051789352
 31
0.0
  0
ARC
  5
1389
  8
0
 10
273.46260149911609
 20
272.4913605178935
 30
0.0
 40
12.0
 50
109.4670447595973
 51
124.2288663278118
  0
LINE
  5
138A
  8
0
 10
274.56196434404308
 20
282.41292793438572
 30
0.0
 11
266.71260149911598
 21
282.41292793438572
 31
0.0
  0
ARC
  5
138B
  8
0
 10
273.46260149911609
 20
272.4913605178935
 30
0.0
 40
12.0
 50
68.926730289442943
 51
70.532955240402714
  0
TEXT
  5
1474
  8
0
 62
     3
 10
0.0
 20
0.0
 30
0.0
 40
10.0
  1
FKR12X80-BR
  7
STANDARD1
  0
ENDSEC
  0
EOF
