  0
SECTION
  2
HEADER
  9
$ACADVER
  1
AC1009
  9
$INSBASE
 10
0.0
 20
0.0
 30
0.0
  9
$EXTMIN
 10
0.0
 20
-2.960436562073669
 30
0.0
  9
$EXTMAX
 10
488.66452092361521
 20
404.39163800425388
 30
0.0
  9
$LIMMIN
 10
0.0
 20
0.0
  9
$LIMMAX
 10
187.5
 20
135.0
  9
$ORTHOMODE
 70
     0
  9
$REGENMODE
 70
     1
  9
$FILLMODE
 70
     1
  9
$QTEXTMODE
 70
     0
  9
$MIRRTEXT
 70
     0
  9
$DRAGMODE
 70
     2
  9
$LTSCALE
 40
10.0
  9
$OSMODE
 70
    55
  9
$ATTMODE
 70
     1
  9
$TEXTSIZE
 40
4.0
  9
$TRACEWID
 40
0.05
  9
$TEXTSTYLE
  7
STANDARD
  9
$CLAYER
  8
0
  9
$CELTYPE
  6
BYLAYER
  9
$CECOLOR
 62
   256
  9
$DIMSCALE
 40
0.5
  9
$DIMASZ
 40
3.0
  9
$DIMEXO
 40
2.0
  9
$DIMDLI
 40
0.38
  9
$DIMRND
 40
0.0
  9
$DIMDLE
 40
0.0
  9
$DIMEXE
 40
2.0
  9
$DIMTP
 40
0.0
  9
$DIMTM
 40
0.0
  9
$DIMTXT
 40
3.0
  9
$DIMCEN
 40
0.0
  9
$DIMTSZ
 40
0.0
  9
$DIMTOL
 70
     0
  9
$DIMLIM
 70
     0
  9
$DIMTIH
 70
     0
  9
$DIMTOH
 70
     0
  9
$DIMSE1
 70
     0
  9
$DIMSE2
 70
     0
  9
$DIMTAD
 70
     1
  9
$DIMZIN
 70
     0
  9
$DIMBLK
  1

  9
$DIMASO
 70
     0
  9
$DIMSHO
 70
     0
  9
$DIMPOST
  1

  9
$DIMAPOST
  1

  9
$DIMALT
 70
     0
  9
$DIMALTD
 70
     2
  9
$DIMALTF
 40
25.399999999999999
  9
$DIMLFAC
 40
1.0
  9
$DIMTOFL
 70
     0
  9
$DIMTVP
 40
1.6000000000000001
  9
$DIMTIX
 70
     1
  9
$DIMSOXD
 70
     0
  9
$DIMSAH
 70
     0
  9
$DIMBLK1
  1

  9
$DIMBLK2
  1

  9
$DIMSTYLE
  2
STANDARD
  9
$DIMCLRD
 70
     0
  9
$DIMCLRE
 70
     0
  9
$DIMCLRT
 70
     0
  9
$DIMTFAC
 40
1.0
  9
$DIMGAP
 40
0.09
  9
$LUNITS
 70
     2
  9
$LUPREC
 70
     4
  9
$SKETCHINC
 40
0.1
  9
$FILLETRAD
 40
1.25
  9
$AUNITS
 70
     0
  9
$AUPREC
 70
     0
  9
$MENU
  1
E:\r13\win\SUPPORT\ACAD
  9
$ELEVATION
 40
0.0
  9
$PELEVATION
 40
0.0
  9
$THICKNESS
 40
0.0
  9
$LIMCHECK
 70
     0
  9
$BLIPMODE
 70
     0
  9
$CHAMFERA
 40
0.0
  9
$CHAMFERB
 40
0.0
  9
$SKPOLY
 70
     0
  9
$TDCREATE
 40
2449840.6143865739
  9
$TDUPDATE
 40
2456598.6603851509
  9
$TDINDWG
 40
0.2751684838
  9
$TDUSRTIMER
 40
0.2751684838
  9
$USRTIMER
 70
     1
  9
$ANGBASE
 50
0.0
  9
$ANGDIR
 70
     0
  9
$PDMODE
 70
     0
  9
$PDSIZE
 40
0.0
  9
$PLINEWID
 40
0.0
  9
$COORDS
 70
     1
  9
$SPLFRAME
 70
     0
  9
$SPLINETYPE
 70
     6
  9
$SPLINESEGS
 70
     8
  9
$ATTDIA
 70
     0
  9
$ATTREQ
 70
     1
  9
$HANDLING
 70
     1
  9
$HANDSEED
  5
186A
  9
$SURFTAB1
 70
     6
  9
$SURFTAB2
 70
     6
  9
$SURFTYPE
 70
     6
  9
$SURFU
 70
     6
  9
$SURFV
 70
     6
  9
$UCSNAME
  2

  9
$UCSORG
 10
0.0
 20
0.0
 30
0.0
  9
$UCSXDIR
 10
1.0
 20
0.0
 30
0.0
  9
$UCSYDIR
 10
0.0
 20
1.0
 30
0.0
  9
$PUCSNAME
  2

  9
$PUCSORG
 10
0.0
 20
0.0
 30
0.0
  9
$PUCSXDIR
 10
1.0
 20
0.0
 30
0.0
  9
$PUCSYDIR
 10
0.0
 20
1.0
 30
0.0
  9
$USERI1
 70
     0
  9
$USERI2
 70
     1
  9
$USERI3
 70
     1
  9
$USERI4
 70
     0
  9
$USERI5
 70
     0
  9
$USERR1
 40
0.0
  9
$USERR2
 40
0.0
  9
$USERR3
 40
0.0
  9
$USERR4
 40
0.0
  9
$USERR5
 40
0.0
  9
$WORLDVIEW
 70
     1
  9
$SHADEDGE
 70
     3
  9
$SHADEDIF
 70
    70
  9
$TILEMODE
 70
     1
  9
$MAXACTVP
 70
    16
  9
$PLIMCHECK
 70
     0
  9
$PEXTMIN
 10
1.0000000000000000E+020
 20
1.0000000000000000E+020
 30
1.0000000000000000E+020
  9
$PEXTMAX
 10
-1.0000000000000000E+020
 20
-1.0000000000000000E+020
 30
-1.0000000000000000E+020
  9
$PLIMMIN
 10
0.0
 20
0.0
  9
$PLIMMAX
 10
12.0
 20
9.0
  9
$UNITMODE
 70
     0
  9
$VISRETAIN
 70
     0
  9
$PLINEGEN
 70
     0
  9
$PSLTSCALE
 70
     0
  0
ENDSEC
  0
SECTION
  2
TABLES
  0
TABLE
  2
VPORT
 70
     1
  0
VPORT
  2
*ACTIVE
 70
     0
 10
0.0
 20
0.0
 11
1.0
 21
1.0
 12
244.33226159956851
 22
262.50492090377668
 13
0.0
 23
0.0
 14
5.0
 24
5.0
 15
5.0
 25
5.0
 16
0.0
 26
0.0
 36
1.0
 17
0.0
 27
0.0
 37
0.0
 40
535.64073540787285
 41
1.7807262569832401
 42
50.0
 43
0.0
 44
0.0
 50
0.0
 51
0.0
 71
     0
 72
   100
 73
     1
 74
     0
 75
     0
 76
     0
 77
     0
 78
     0
  0
ENDTAB
  0
TABLE
  2
LTYPE
 70
     3
  0
LTYPE
  2
CONTINUOUS
 70
     0
  3
Solid Line
 72
    65
 73
     0
 40
0.0
  0
LTYPE
  2
CENTER
 70
     0
  3
____ _ ____ _ ____ _ ____ _ ____ _ ____ _ ____
 72
    65
 73
     4
 40
2.0
 49
1.25
 49
-0.25
 49
0.25
 49
-0.25
  0
LTYPE
  2
PHANTOM2
 70
     0
  3
___ _ _ ___ _ _ ___ _ _ ___ _ _
 72
    65
 73
     6
 40
1.25
 49
0.625
 49
-0.125
 49
0.125
 49
-0.125
 49
0.125
 49
-0.125
  0
ENDTAB
  0
TABLE
  2
LAYER
 70
     3
  0
LAYER
  2
0
 70
     0
 62
     7
  6
CONTINUOUS
  0
LAYER
  2
1
 70
     0
 62
     1
  6
CENTER
  0
LAYER
  2
3
 70
     0
 62
     3
  6
CONTINUOUS
  0
ENDTAB
  0
TABLE
  2
STYLE
 70
     2
  0
STYLE
  2
STANDARD
 70
     0
 40
0.0
 41
1.0
 50
0.0
 71
     0
 42
4.0
  3
TXT
  4
BIGFONT
  0
STYLE
  2
STANDARD1
 70
     0
 40
0.0
 41
1.0
 50
0.0
 71
     0
 42
3.0
  3
txt
  4

  0
ENDTAB
  0
TABLE
  2
VIEW
 70
     1
  0
VIEW
  2
ALL
 70
     0
 40
179.66152299999999
 10
141.903918
 20
89.830760999999995
 41
0.0
 11
0.0
 21
0.0
 31
1.0
 12
0.0
 22
0.0
 32
0.0
 42
0.0
 43
0.0
 44
0.0
 50
0.0
 71
     0
  0
ENDTAB
  0
TABLE
  2
UCS
 70
     0
  0
ENDTAB
  0
TABLE
  2
APPID
 70
     4
  0
APPID
  2
ACAD
 70
     0
  0
APPID
  2
DCO15
 70
     0
  0
APPID
  2
ACAD_MLEADERVER
 70
     0
  0
APPID
  2
ACAD_NAV_VCDISPLAY
 70
     0
  0
ENDTAB
  0
TABLE
  2
DIMSTYLE
 70
     1
  0
DIMSTYLE
  2
STANDARD
 70
     0
  3

  4

  5

  6

  7

 40
1.0
 41
0.18
 42
0.0625
 43
0.38
 44
0.18
 45
0.0
 46
0.0
 47
0.0
 48
0.0
140
0.18
141
0.09
142
0.0
143
25.399999999999999
144
1.0
145
0.0
146
1.0
147
0.09
 71
     0
 72
     0
 73
     1
 74
     1
 75
     0
 76
     0
 77
     0
 78
     0
170
     0
171
     2
172
     0
173
     0
174
     0
175
     0
176
     0
177
     0
178
     0
  0
ENDTAB
  0
ENDSEC
  0
SECTION
  2
BLOCKS
  0
BLOCK
  8
0
  2
$MODEL_SPACE
 70
     0
 10
0.0
 20
0.0
 30
0.0
  3
$MODEL_SPACE
  1

  0
ENDBLK
  5
1BD
  8
0
  0
BLOCK
 67
     1
  8
0
  2
$PAPER_SPACE
 70
     0
 10
0.0
 20
0.0
 30
0.0
  3
$PAPER_SPACE
  1

  0
ENDBLK
  5
1BB
 67
     1
  8
0
  0
ENDSEC
  0
SECTION
  2
ENTITIES
  0
LINE
  5
1374
  8
0
 10
245.34058004447289
 20
248.40233473623169
 30
0.0
 11
245.34058004447289
 21
223.5853922163416
 31
0.0
  0
LINE
  5
1375
  8
0
 10
276.34058004447292
 20
223.5853922163416
 30
0.0
 11
276.34058004447292
 21
243.0853922163416
 31
0.0
  0
LINE
  5
1376
  8
0
 10
359.17227413584749
 20
269.46539221634163
 30
0.0
 11
347.41424125723381
 21
269.46539221634163
 31
0.0
  0
LINE
  5
1377
  8
0
 10
276.34058004447292
 20
223.5853922163416
 30
0.0
 11
245.34058004447289
 21
223.5853922163416
 31
0.0
  0
LINE
  5
1378
  8
1
 10
260.84058004447292
 20
270.58539221634157
 30
0.0
 11
260.84058004447292
 21
161.58539221634049
 31
0.0
  0
LINE
  5
137A
  8
0
 10
272.35058004447291
 20
211.5853922163416
 30
0.0
 11
272.35058004447291
 21
223.5853922163416
 31
0.0
  0
LINE
  5
137B
  8
0
 10
249.35058004447291
 20
223.5853922163416
 30
0.0
 11
249.35058004447291
 21
211.5853922163416
 31
0.0
  0
LINE
  5
137D
  8
0
 10
249.35058004447291
 20
211.5853922163416
 30
0.0
 11
272.35058004447291
 21
211.5853922163416
 31
0.0
  0
ARC
  5
138B
  8
0
 10
406.3593738546644
 20
-113.41863024470869
 30
0.0
 40
400.23809523809518
 50
96.056605662905923
 51
113.0583295739723
  0
LINE
  5
138C
  8
0
 10
364.1298701322392
 20
284.58539221634157
 30
0.0
 11
365.85058004447291
 21
284.58539221634157
 31
0.0
  0
LINE
  5
138D
  8
0
 10
370.85058004447279
 20
279.58539221634157
 30
0.0
 11
370.85058004447279
 21
279.4695729885745
 31
0.0
  0
ARC
  5
138E
  8
0
 10
365.85058004447291
 20
279.58539221634157
 30
0.0
 40
5.0
 50
0.0
 51
90.0
  0
ARC
  5
138F
  8
0
 10
252.34058004447289
 20
248.40233473623169
 30
0.0
 40
7.0
 50
113.0583295739723
 51
180.0
  0
ARC
  5
1390
  8
0
 10
448.87748738313439
 20
-95.753839095950525
 30
0.0
 40
380.2380952380953
 50
106.8398715328909
 51
116.985190501685
  0
ARC
  5
1391
  8
0
 10
347.41424125723381
 20
239.4653922163416
 30
0.0
 40
30.0
 50
90.0
 51
106.8398715328925
  0
ARC
  5
1392
  8
0
 10
359.01754634408633
 20
281.46439464614622
 30
0.0
 40
12.0
 50
269.26120874099649
 51
350.43100633373399
  0
LINE
  5
1393
  8
0
 10
245.34058004447289
 20
374.46227418806171
 30
0.0
 11
245.34058004447289
 21
382.3210018204461
 31
0.0
  0
CIRCLE
  5
13A2
  8
0
 10
262.15716343505488
 20
378.39163800425388
 30
0.0
 40
9.0840310268199538
  0
ARC
  5
13A4
  8
0
 10
260.85058004447279
 20
378.39163800425388
 30
0.0
 40
16.0
 50
194.2164221332842
 51
301.31463182248172
  0
ARC
  5
13A5
  8
0
 10
363.35058004447291
 20
378.39163800425388
 30
0.0
 40
7.5
 50
270.0
 51
90.0
  0
ARC
  5
13A6
  8
0
 10
294.6841315311662
 20
457.24401494012329
 30
0.0
 40
70.0
 50
248.62076358023009
 51
277.71778895748702
  0
LINE
  5
13A7
  8
0
 10
305.78627590070391
 20
387.96225768603722
 30
0.0
 11
363.61955700151429
 21
385.886813212118
 31
0.0
  0
ARC
  5
13A8
  8
0
 10
305.42763995798191
 20
377.96869074221843
 30
0.0
 40
10.0
 50
87.944726668168812
 51
97.717788957488679
  0
ARC
  5
13A9
  8
0
 10
294.6841315311662
 20
299.53926106838452
 30
0.0
 40
70.0
 50
82.282211042512927
 51
111.3792364197699
  0
LINE
  5
13AA
  8
0
 10
305.78627590070391
 20
368.82101832247059
 30
0.0
 11
363.61955700151429
 21
370.89646279638981
 31
0.0
  0
ARC
  5
13AB
  8
0
 10
305.42763995798191
 20
378.81458526628938
 30
0.0
 40
10.0
 50
262.28221104251298
 51
272.05527333183119
  0
ARC
  5
13AC
  8
0
 10
260.85058004447279
 20
378.39163800425388
 30
0.0
 40
16.0
 50
58.685368177518342
 51
165.7835778667158
  0
ARC
  5
13AD
  8
0
 10
294.6841315311662
 20
159.39694196089201
 30
0.0
 40
70.0
 50
248.62076358023009
 51
277.71778895748702
  0
ARC
  5
13AE
  8
0
 10
294.6841315311662
 20
1.6921880891532051
 30
0.0
 40
70.0
 50
82.282211042512927
 51
111.3792364197699
  0
LINE
  5
13B0
  8
0
 10
245.34058004447289
 20
76.615201208830456
 30
0.0
 11
245.34058004447289
 21
84.473928841214786
 31
0.0
  0
ARC
  5
13B1
  8
0
 10
260.85058004447279
 20
80.544565025022621
 30
0.0
 40
16.0
 50
194.2164221332842
 51
301.31463182248172
  0
ARC
  5
13B2
  8
0
 10
260.85058004447279
 20
80.544565025022621
 30
0.0
 40
16.0
 50
58.685368177518342
 51
165.7835778667158
  0
ARC
  5
13B4
  8
0
 10
363.35058004447291
 20
80.544565025022621
 30
0.0
 40
7.5
 50
270.0
 51
90.0
  0
ARC
  5
13B5
  8
0
 10
305.42763995798191
 20
80.121617762987114
 30
0.0
 40
10.0
 50
87.944726668168812
 51
97.717788957488679
  0
LINE
  5
13B6
  8
0
 10
305.78627590070391
 20
90.115184706805906
 30
0.0
 11
363.61955700151429
 21
88.039740232886743
 31
0.0
  0
LINE
  5
13B7
  8
0
 10
305.78627590070391
 20
70.973945343239336
 30
0.0
 11
363.61955700151429
 21
73.049389817158485
 31
0.0
  0
ARC
  5
13B8
  8
0
 10
305.42763995798191
 20
80.967512287058113
 30
0.0
 40
10.0
 50
262.28221104251298
 51
272.05527333183119
  0
CIRCLE
  5
13B9
  8
0
 10
260.85058004447279
 20
80.544565025022621
 30
0.0
 40
11.5
  0
CIRCLE
  5
13BA
  8
0
 10
260.85058004447279
 20
80.544565025022621
 30
0.0
 40
15.48999999999999
  0
CIRCLE
  5
13BB
  8
0
 10
260.85058004447279
 20
80.544565025022621
 30
0.0
 40
7.0
  0
CIRCLE
  5
13BC
  8
3
 10
260.85058004447279
 20
80.544565025022621
 30
0.0
 40
8.0
  0
LINE
  5
13BF
  8
0
 10
148.9685604538812
 20
211.5853922163416
 30
0.0
 11
148.9685604538812
 21
223.5853922163416
 31
0.0
  0
LINE
  5
13C0
  8
0
 10
125.9685604538812
 20
223.5853922163416
 30
0.0
 11
125.9685604538812
 21
211.5853922163416
 31
0.0
  0
LINE
  5
13C2
  8
0
 10
125.9685604538812
 20
211.5853922163416
 30
0.0
 11
148.9685604538812
 21
211.5853922163416
 31
0.0
  0
LINE
  5
13C3
  8
1
 10
137.4685604538812
 20
294.58539221634157
 30
0.0
 11
137.4685604538812
 21
161.5853922163416
 31
0.0
  0
LINE
  5
13C4
  8
0
 10
144.55954053841279
 20
284.58539221634157
 30
0.0
 11
130.37758036934949
 21
284.58539221634157
 31
0.0
  0
LINE
  5
13C5
  8
0
 10
152.9685604538812
 20
223.5853922163416
 30
0.0
 11
121.9685604538812
 21
223.5853922163416
 31
0.0
  0
LINE
  5
13C6
  8
0
 10
153.4645546729441
 20
259.2473793371164
 30
0.0
 11
152.9685604538812
 21
223.5853922163416
 31
0.0
  0
LINE
  5
13C7
  8
0
 10
149.1091192493796
 20
254.8430809038507
 30
0.0
 11
125.8280016583827
 21
254.8430809038507
 31
0.0
  0
POLYLINE
  5
13C8
  8
0
 10
149.10911924937969
 20
254.84308090385076
 30
0.0
 66
     1
 70
     8
  0
VERTEX
  8
0
  5
1662
 10
149.109
 20
254.843
 30
0.000000
  70
    32
  0
VERTEX
  8
0
  5
1663
 10
149.500
 20
255.021
 30
0.000000
  70
    32
  0
VERTEX
  8
0
  5
1664
 10
149.876
 20
255.205
 30
0.000000
  70
    32
  0
VERTEX
  8
0
  5
1665
 10
150.235
 20
255.395
 30
0.000000
  70
    32
  0
VERTEX
  8
0
  5
1666
 10
150.577
 20
255.590
 30
0.000000
  70
    32
  0
VERTEX
  8
0
  5
1667
 10
150.902
 20
255.790
 30
0.000000
  70
    32
  0
VERTEX
  8
0
  5
1668
 10
151.209
 20
255.995
 30
0.000000
  70
    32
  0
VERTEX
  8
0
  5
1669
 10
151.498
 20
256.204
 30
0.000000
  70
    32
  0
VERTEX
  8
0
  5
166A
 10
151.768
 20
256.417
 30
0.000000
  70
    32
  0
VERTEX
  8
0
  5
166B
 10
152.020
 20
256.634
 30
0.000000
  70
    32
  0
VERTEX
  8
0
  5
166C
 10
152.252
 20
256.855
 30
0.000000
  70
    32
  0
VERTEX
  8
0
  5
166D
 10
152.465
 20
257.080
 30
0.000000
  70
    32
  0
VERTEX
  8
0
  5
166E
 10
152.657
 20
257.307
 30
0.000000
  70
    32
  0
VERTEX
  8
0
  5
166F
 10
152.830
 20
257.537
 30
0.000000
  70
    32
  0
VERTEX
  8
0
  5
1670
 10
152.983
 20
257.770
 30
0.000000
  70
    32
  0
VERTEX
  8
0
  5
1671
 10
153.115
 20
258.004
 30
0.000000
  70
    32
  0
VERTEX
  8
0
  5
1672
 10
153.226
 20
258.241
 30
0.000000
  70
    32
  0
VERTEX
  8
0
  5
1673
 10
153.316
 20
258.479
 30
0.000000
  70
    32
  0
VERTEX
  8
0
  5
1674
 10
153.386
 20
258.718
 30
0.000000
  70
    32
  0
VERTEX
  8
0
  5
1675
 10
153.434
 20
258.958
 30
0.000000
  70
    32
  0
VERTEX
  8
0
  5
1676
 10
153.462
 20
259.199
 30
0.000000
  70
    32
  0
VERTEX
  8
0
  5
1677
 10
153.468
 20
259.440
 30
0.000000
  70
    32
  0
VERTEX
  8
0
  5
1678
 10
153.453
 20
259.681
 30
0.000000
  70
    32
  0
VERTEX
  8
0
  5
1679
 10
153.417
 20
259.921
 30
0.000000
  70
    32
  0
VERTEX
  8
0
  5
167A
 10
153.360
 20
260.161
 30
0.000000
  70
    32
  0
VERTEX
  8
0
  5
167B
 10
153.282
 20
260.400
 30
0.000000
  70
    32
  0
VERTEX
  8
0
  5
167C
 10
153.183
 20
260.637
 30
0.000000
  70
    32
  0
VERTEX
  8
0
  5
167D
 10
153.063
 20
260.873
 30
0.000000
  70
    32
  0
VERTEX
  8
0
  5
167E
 10
152.923
 20
261.107
 30
0.000000
  70
    32
  0
VERTEX
  8
0
  5
167F
 10
152.762
 20
261.339
 30
0.000000
  70
    32
  0
VERTEX
  8
0
  5
1680
 10
152.581
 20
261.568
 30
0.000000
  70
    32
  0
VERTEX
  8
0
  5
1681
 10
152.380
 20
261.794
 30
0.000000
  70
    32
  0
VERTEX
  8
0
  5
1682
 10
152.159
 20
262.017
 30
0.000000
  70
    32
  0
VERTEX
  8
0
  5
1683
 10
151.919
 20
262.236
 30
0.000000
  70
    32
  0
VERTEX
  8
0
  5
1684
 10
151.660
 20
262.452
 30
0.000000
  70
    32
  0
VERTEX
  8
0
  5
1685
 10
151.382
 20
262.664
 30
0.000000
  70
    32
  0
VERTEX
  8
0
  5
1686
 10
151.086
 20
262.871
 30
0.000000
  70
    32
  0
VERTEX
  8
0
  5
1687
 10
150.771
 20
263.074
 30
0.000000
  70
    32
  0
VERTEX
  8
0
  5
1688
 10
150.439
 20
263.272
 30
0.000000
  70
    32
  0
VERTEX
  8
0
  5
1689
 10
150.090
 20
263.464
 30
0.000000
  70
    32
  0
VERTEX
  8
0
  5
168A
 10
149.724
 20
263.652
 30
0.000000
  70
    32
  0
VERTEX
  8
0
  5
168B
 10
149.342
 20
263.833
 30
0.000000
  70
    32
  0
VERTEX
  8
0
  5
168C
 10
148.945
 20
264.009
 30
0.000000
  70
    32
  0
VERTEX
  8
0
  5
168D
 10
148.532
 20
264.179
 30
0.000000
  70
    32
  0
VERTEX
  8
0
  5
168E
 10
148.104
 20
264.342
 30
0.000000
  70
    32
  0
VERTEX
  8
0
  5
168F
 10
147.663
 20
264.499
 30
0.000000
  70
    32
  0
VERTEX
  8
0
  5
1690
 10
147.208
 20
264.650
 30
0.000000
  70
    32
  0
VERTEX
  8
0
  5
1691
 10
146.740
 20
264.793
 30
0.000000
  70
    32
  0
VERTEX
  8
0
  5
1692
 10
146.260
 20
264.929
 30
0.000000
  70
    32
  0
VERTEX
  8
0
  5
1693
 10
145.768
 20
265.057
 30
0.000000
  70
    32
  0
VERTEX
  8
0
  5
1694
 10
145.265
 20
265.179
 30
0.000000
  70
    32
  0
VERTEX
  8
0
  5
1695
 10
144.752
 20
265.292
 30
0.000000
  70
    32
  0
VERTEX
  8
0
  5
1696
 10
144.230
 20
265.398
 30
0.000000
  70
    32
  0
VERTEX
  8
0
  5
1697
 10
143.698
 20
265.496
 30
0.000000
  70
    32
  0
VERTEX
  8
0
  5
1698
 10
143.158
 20
265.586
 30
0.000000
  70
    32
  0
VERTEX
  8
0
  5
1699
 10
142.611
 20
265.667
 30
0.000000
  70
    32
  0
VERTEX
  8
0
  5
169A
 10
142.057
 20
265.741
 30
0.000000
  70
    32
  0
VERTEX
  8
0
  5
169B
 10
141.497
 20
265.805
 30
0.000000
  70
    32
  0
VERTEX
  8
0
  5
169C
 10
140.931
 20
265.862
 30
0.000000
  70
    32
  0
VERTEX
  8
0
  5
169D
 10
140.361
 20
265.910
 30
0.000000
  70
    32
  0
VERTEX
  8
0
  5
169E
 10
139.787
 20
265.949
 30
0.000000
  70
    32
  0
VERTEX
  8
0
  5
169F
 10
139.210
 20
265.980
 30
0.000000
  70
    32
  0
VERTEX
  8
0
  5
16A0
 10
138.631
 20
266.001
 30
0.000000
  70
    32
  0
VERTEX
  8
0
  5
16A1
 10
138.050
 20
266.015
 30
0.000000
  70
    32
  0
VERTEX
  8
0
  5
16A2
 10
137.469
 20
266.019
 30
0.000000
  70
    32
  0
VERTEX
  8
0
  5
16A3
 10
136.887
 20
266.015
 30
0.000000
  70
    32
  0
VERTEX
  8
0
  5
16A4
 10
136.306
 20
266.001
 30
0.000000
  70
    32
  0
VERTEX
  8
0
  5
16A5
 10
135.727
 20
265.980
 30
0.000000
  70
    32
  0
VERTEX
  8
0
  5
16A6
 10
135.150
 20
265.949
 30
0.000000
  70
    32
  0
VERTEX
  8
0
  5
16A7
 10
134.576
 20
265.910
 30
0.000000
  70
    32
  0
VERTEX
  8
0
  5
16A8
 10
134.006
 20
265.862
 30
0.000000
  70
    32
  0
VERTEX
  8
0
  5
16A9
 10
133.440
 20
265.805
 30
0.000000
  70
    32
  0
VERTEX
  8
0
  5
16AA
 10
132.880
 20
265.741
 30
0.000000
  70
    32
  0
VERTEX
  8
0
  5
16AB
 10
132.326
 20
265.667
 30
0.000000
  70
    32
  0
VERTEX
  8
0
  5
16AC
 10
131.779
 20
265.586
 30
0.000000
  70
    32
  0
VERTEX
  8
0
  5
16AD
 10
131.239
 20
265.496
 30
0.000000
  70
    32
  0
VERTEX
  8
0
  5
16AE
 10
130.707
 20
265.398
 30
0.000000
  70
    32
  0
VERTEX
  8
0
  5
16AF
 10
130.185
 20
265.292
 30
0.000000
  70
    32
  0
VERTEX
  8
0
  5
16B0
 10
129.672
 20
265.179
 30
0.000000
  70
    32
  0
VERTEX
  8
0
  5
16B1
 10
129.169
 20
265.057
 30
0.000000
  70
    32
  0
VERTEX
  8
0
  5
16B2
 10
128.677
 20
264.929
 30
0.000000
  70
    32
  0
VERTEX
  8
0
  5
16B3
 10
128.197
 20
264.793
 30
0.000000
  70
    32
  0
VERTEX
  8
0
  5
16B4
 10
127.729
 20
264.650
 30
0.000000
  70
    32
  0
VERTEX
  8
0
  5
16B5
 10
127.274
 20
264.499
 30
0.000000
  70
    32
  0
VERTEX
  8
0
  5
16B6
 10
126.833
 20
264.342
 30
0.000000
  70
    32
  0
VERTEX
  8
0
  5
16B7
 10
126.405
 20
264.179
 30
0.000000
  70
    32
  0
VERTEX
  8
0
  5
16B8
 10
125.992
 20
264.009
 30
0.000000
  70
    32
  0
VERTEX
  8
0
  5
16B9
 10
125.595
 20
263.833
 30
0.000000
  70
    32
  0
VERTEX
  8
0
  5
16BA
 10
125.213
 20
263.652
 30
0.000000
  70
    32
  0
VERTEX
  8
0
  5
16BB
 10
124.847
 20
263.464
 30
0.000000
  70
    32
  0
VERTEX
  8
0
  5
16BC
 10
124.498
 20
263.272
 30
0.000000
  70
    32
  0
VERTEX
  8
0
  5
16BD
 10
124.166
 20
263.074
 30
0.000000
  70
    32
  0
VERTEX
  8
0
  5
16BE
 10
123.852
 20
262.871
 30
0.000000
  70
    32
  0
VERTEX
  8
0
  5
16BF
 10
123.555
 20
262.664
 30
0.000000
  70
    32
  0
VERTEX
  8
0
  5
16C0
 10
123.277
 20
262.452
 30
0.000000
  70
    32
  0
VERTEX
  8
0
  5
16C1
 10
123.018
 20
262.236
 30
0.000000
  70
    32
  0
VERTEX
  8
0
  5
16C2
 10
122.778
 20
262.017
 30
0.000000
  70
    32
  0
VERTEX
  8
0
  5
16C3
 10
122.557
 20
261.794
 30
0.000000
  70
    32
  0
VERTEX
  8
0
  5
16C4
 10
122.356
 20
261.568
 30
0.000000
  70
    32
  0
VERTEX
  8
0
  5
16C5
 10
122.175
 20
261.339
 30
0.000000
  70
    32
  0
VERTEX
  8
0
  5
16C6
 10
122.014
 20
261.107
 30
0.000000
  70
    32
  0
VERTEX
  8
0
  5
16C7
 10
121.874
 20
260.873
 30
0.000000
  70
    32
  0
VERTEX
  8
0
  5
16C8
 10
121.754
 20
260.637
 30
0.000000
  70
    32
  0
VERTEX
  8
0
  5
16C9
 10
121.655
 20
260.400
 30
0.000000
  70
    32
  0
VERTEX
  8
0
  5
16CA
 10
121.577
 20
260.161
 30
0.000000
  70
    32
  0
VERTEX
  8
0
  5
16CB
 10
121.520
 20
259.921
 30
0.000000
  70
    32
  0
VERTEX
  8
0
  5
16CC
 10
121.484
 20
259.681
 30
0.000000
  70
    32
  0
VERTEX
  8
0
  5
16CD
 10
121.469
 20
259.440
 30
0.000000
  70
    32
  0
VERTEX
  8
0
  5
16CE
 10
121.475
 20
259.199
 30
0.000000
  70
    32
  0
VERTEX
  8
0
  5
16CF
 10
121.503
 20
258.958
 30
0.000000
  70
    32
  0
VERTEX
  8
0
  5
16D0
 10
121.551
 20
258.718
 30
0.000000
  70
    32
  0
VERTEX
  8
0
  5
16D1
 10
121.621
 20
258.479
 30
0.000000
  70
    32
  0
VERTEX
  8
0
  5
16D2
 10
121.711
 20
258.241
 30
0.000000
  70
    32
  0
VERTEX
  8
0
  5
16D3
 10
121.822
 20
258.004
 30
0.000000
  70
    32
  0
VERTEX
  8
0
  5
16D4
 10
121.954
 20
257.770
 30
0.000000
  70
    32
  0
VERTEX
  8
0
  5
16D5
 10
122.107
 20
257.537
 30
0.000000
  70
    32
  0
VERTEX
  8
0
  5
16D6
 10
122.280
 20
257.307
 30
0.000000
  70
    32
  0
VERTEX
  8
0
  5
16D7
 10
122.473
 20
257.080
 30
0.000000
  70
    32
  0
VERTEX
  8
0
  5
16D8
 10
122.685
 20
256.855
 30
0.000000
  70
    32
  0
VERTEX
  8
0
  5
16D9
 10
122.918
 20
256.634
 30
0.000000
  70
    32
  0
VERTEX
  8
0
  5
16DA
 10
123.169
 20
256.417
 30
0.000000
  70
    32
  0
VERTEX
  8
0
  5
16DB
 10
123.439
 20
256.204
 30
0.000000
  70
    32
  0
VERTEX
  8
0
  5
16DC
 10
123.728
 20
255.995
 30
0.000000
  70
    32
  0
VERTEX
  8
0
  5
16DD
 10
124.035
 20
255.790
 30
0.000000
  70
    32
  0
VERTEX
  8
0
  5
16DE
 10
124.360
 20
255.590
 30
0.000000
  70
    32
  0
VERTEX
  8
0
  5
16DF
 10
124.702
 20
255.395
 30
0.000000
  70
    32
  0
VERTEX
  8
0
  5
16E0
 10
125.061
 20
255.205
 30
0.000000
  70
    32
  0
VERTEX
  8
0
  5
16E1
 10
125.437
 20
255.021
 30
0.000000
  70
    32
  0
VERTEX
  8
0
  5
16E2
 10
125.828
 20
254.843
 30
0.000000
  70
    32
  0
SEQEND
  8
0
  5
16E3
  0
POLYLINE
  5
13C9
  8
0
 10
139.09466716010431
 20
256.56221460031298
 30
0.0
 66
     1
 70
     8
  0
VERTEX
  8
0
  5
16E4
 10
139.095
 20
256.562
 30
0.000000
  70
    32
  0
VERTEX
  8
0
  5
16E5
 10
139.504
 20
256.594
 30
0.000000
  70
    32
  0
VERTEX
  8
0
  5
16E6
 10
139.909
 20
256.634
 30
0.000000
  70
    32
  0
VERTEX
  8
0
  5
16E7
 10
140.309
 20
256.680
 30
0.000000
  70
    32
  0
VERTEX
  8
0
  5
16E8
 10
140.703
 20
256.733
 30
0.000000
  70
    32
  0
VERTEX
  8
0
  5
16E9
 10
141.090
 20
256.793
 30
0.000000
  70
    32
  0
VERTEX
  8
0
  5
16EA
 10
141.469
 20
256.860
 30
0.000000
  70
    32
  0
VERTEX
  8
0
  5
16EB
 10
141.840
 20
256.934
 30
0.000000
  70
    32
  0
VERTEX
  8
0
  5
16EC
 10
142.201
 20
257.013
 30
0.000000
  70
    32
  0
VERTEX
  8
0
  5
16ED
 10
142.552
 20
257.099
 30
0.000000
  70
    32
  0
VERTEX
  8
0
  5
16EE
 10
142.892
 20
257.192
 30
0.000000
  70
    32
  0
VERTEX
  8
0
  5
16EF
 10
143.221
 20
257.290
 30
0.000000
  70
    32
  0
VERTEX
  8
0
  5
16F0
 10
143.537
 20
257.393
 30
0.000000
  70
    32
  0
VERTEX
  8
0
  5
16F1
 10
143.840
 20
257.502
 30
0.000000
  70
    32
  0
VERTEX
  8
0
  5
16F2
 10
144.130
 20
257.617
 30
0.000000
  70
    32
  0
VERTEX
  8
0
  5
16F3
 10
144.406
 20
257.736
 30
0.000000
  70
    32
  0
VERTEX
  8
0
  5
16F4
 10
144.666
 20
257.860
 30
0.000000
  70
    32
  0
VERTEX
  8
0
  5
16F5
 10
144.911
 20
257.988
 30
0.000000
  70
    32
  0
VERTEX
  8
0
  5
16F6
 10
145.141
 20
258.121
 30
0.000000
  70
    32
  0
VERTEX
  8
0
  5
16F7
 10
145.353
 20
258.257
 30
0.000000
  70
    32
  0
VERTEX
  8
0
  5
16F8
 10
145.549
 20
258.397
 30
0.000000
  70
    32
  0
VERTEX
  8
0
  5
16F9
 10
145.728
 20
258.540
 30
0.000000
  70
    32
  0
VERTEX
  8
0
  5
16FA
 10
145.889
 20
258.687
 30
0.000000
  70
    32
  0
VERTEX
  8
0
  5
16FB
 10
146.032
 20
258.836
 30
0.000000
  70
    32
  0
VERTEX
  8
0
  5
16FC
 10
146.157
 20
258.987
 30
0.000000
  70
    32
  0
VERTEX
  8
0
  5
16FD
 10
146.263
 20
259.140
 30
0.000000
  70
    32
  0
VERTEX
  8
0
  5
16FE
 10
146.350
 20
259.295
 30
0.000000
  70
    32
  0
VERTEX
  8
0
  5
16FF
 10
146.418
 20
259.452
 30
0.000000
  70
    32
  0
VERTEX
  8
0
  5
1700
 10
146.468
 20
259.609
 30
0.000000
  70
    32
  0
VERTEX
  8
0
  5
1701
 10
146.497
 20
259.767
 30
0.000000
  70
    32
  0
VERTEX
  8
0
  5
1702
 10
146.508
 20
259.925
 30
0.000000
  70
    32
  0
VERTEX
  8
0
  5
1703
 10
146.499
 20
260.084
 30
0.000000
  70
    32
  0
VERTEX
  8
0
  5
1704
 10
146.471
 20
260.242
 30
0.000000
  70
    32
  0
VERTEX
  8
0
  5
1705
 10
146.424
 20
260.400
 30
0.000000
  70
    32
  0
VERTEX
  8
0
  5
1706
 10
146.357
 20
260.556
 30
0.000000
  70
    32
  0
VERTEX
  8
0
  5
1707
 10
146.272
 20
260.711
 30
0.000000
  70
    32
  0
VERTEX
  8
0
  5
1708
 10
146.167
 20
260.865
 30
0.000000
  70
    32
  0
VERTEX
  8
0
  5
1709
 10
146.044
 20
261.016
 30
0.000000
  70
    32
  0
VERTEX
  8
0
  5
170A
 10
145.903
 20
261.165
 30
0.000000
  70
    32
  0
VERTEX
  8
0
  5
170B
 10
145.743
 20
261.312
 30
0.000000
  70
    32
  0
VERTEX
  8
0
  5
170C
 10
145.566
 20
261.455
 30
0.000000
  70
    32
  0
VERTEX
  8
0
  5
170D
 10
145.372
 20
261.596
 30
0.000000
  70
    32
  0
VERTEX
  8
0
  5
170E
 10
145.160
 20
261.732
 30
0.000000
  70
    32
  0
VERTEX
  8
0
  5
170F
 10
144.933
 20
261.865
 30
0.000000
  70
    32
  0
VERTEX
  8
0
  5
1710
 10
144.689
 20
261.994
 30
0.000000
  70
    32
  0
VERTEX
  8
0
  5
1711
 10
144.430
 20
262.118
 30
0.000000
  70
    32
  0
VERTEX
  8
0
  5
1712
 10
144.156
 20
262.238
 30
0.000000
  70
    32
  0
VERTEX
  8
0
  5
1713
 10
143.867
 20
262.353
 30
0.000000
  70
    32
  0
VERTEX
  8
0
  5
1714
 10
143.565
 20
262.462
 30
0.000000
  70
    32
  0
VERTEX
  8
0
  5
1715
 10
143.250
 20
262.567
 30
0.000000
  70
    32
  0
VERTEX
  8
0
  5
1716
 10
142.922
 20
262.665
 30
0.000000
  70
    32
  0
VERTEX
  8
0
  5
1717
 10
142.583
 20
262.758
 30
0.000000
  70
    32
  0
VERTEX
  8
0
  5
1718
 10
142.233
 20
262.844
 30
0.000000
  70
    32
  0
VERTEX
  8
0
  5
1719
 10
141.873
 20
262.925
 30
0.000000
  70
    32
  0
VERTEX
  8
0
  5
171A
 10
141.503
 20
262.999
 30
0.000000
  70
    32
  0
VERTEX
  8
0
  5
171B
 10
141.124
 20
263.066
 30
0.000000
  70
    32
  0
VERTEX
  8
0
  5
171C
 10
140.738
 20
263.127
 30
0.000000
  70
    32
  0
VERTEX
  8
0
  5
171D
 10
140.345
 20
263.181
 30
0.000000
  70
    32
  0
VERTEX
  8
0
  5
171E
 10
139.946
 20
263.228
 30
0.000000
  70
    32
  0
VERTEX
  8
0
  5
171F
 10
139.541
 20
263.268
 30
0.000000
  70
    32
  0
VERTEX
  8
0
  5
1720
 10
139.132
 20
263.300
 30
0.000000
  70
    32
  0
VERTEX
  8
0
  5
1721
 10
138.719
 20
263.326
 30
0.000000
  70
    32
  0
VERTEX
  8
0
  5
1722
 10
138.304
 20
263.344
 30
0.000000
  70
    32
  0
VERTEX
  8
0
  5
1723
 10
137.887
 20
263.355
 30
0.000000
  70
    32
  0
VERTEX
  8
0
  5
1724
 10
137.469
 20
263.359
 30
0.000000
  70
    32
  0
VERTEX
  8
0
  5
1725
 10
137.051
 20
263.355
 30
0.000000
  70
    32
  0
VERTEX
  8
0
  5
1726
 10
136.633
 20
263.344
 30
0.000000
  70
    32
  0
VERTEX
  8
0
  5
1727
 10
136.218
 20
263.326
 30
0.000000
  70
    32
  0
VERTEX
  8
0
  5
1728
 10
135.805
 20
263.300
 30
0.000000
  70
    32
  0
VERTEX
  8
0
  5
1729
 10
135.396
 20
263.268
 30
0.000000
  70
    32
  0
VERTEX
  8
0
  5
172A
 10
134.992
 20
263.228
 30
0.000000
  70
    32
  0
VERTEX
  8
0
  5
172B
 10
134.592
 20
263.181
 30
0.000000
  70
    32
  0
VERTEX
  8
0
  5
172C
 10
134.199
 20
263.127
 30
0.000000
  70
    32
  0
VERTEX
  8
0
  5
172D
 10
133.813
 20
263.066
 30
0.000000
  70
    32
  0
VERTEX
  8
0
  5
172E
 10
133.434
 20
262.999
 30
0.000000
  70
    32
  0
VERTEX
  8
0
  5
172F
 10
133.065
 20
262.925
 30
0.000000
  70
    32
  0
VERTEX
  8
0
  5
1730
 10
132.704
 20
262.844
 30
0.000000
  70
    32
  0
VERTEX
  8
0
  5
1731
 10
132.354
 20
262.758
 30
0.000000
  70
    32
  0
VERTEX
  8
0
  5
1732
 10
132.015
 20
262.665
 30
0.000000
  70
    32
  0
VERTEX
  8
0
  5
1733
 10
131.687
 20
262.567
 30
0.000000
  70
    32
  0
VERTEX
  8
0
  5
1734
 10
131.372
 20
262.462
 30
0.000000
  70
    32
  0
VERTEX
  8
0
  5
1735
 10
131.070
 20
262.353
 30
0.000000
  70
    32
  0
VERTEX
  8
0
  5
1736
 10
130.782
 20
262.238
 30
0.000000
  70
    32
  0
VERTEX
  8
0
  5
1737
 10
130.507
 20
262.118
 30
0.000000
  70
    32
  0
VERTEX
  8
0
  5
1738
 10
130.248
 20
261.994
 30
0.000000
  70
    32
  0
VERTEX
  8
0
  5
1739
 10
130.004
 20
261.865
 30
0.000000
  70
    32
  0
VERTEX
  8
0
  5
173A
 10
129.777
 20
261.732
 30
0.000000
  70
    32
  0
VERTEX
  8
0
  5
173B
 10
129.565
 20
261.596
 30
0.000000
  70
    32
  0
VERTEX
  8
0
  5
173C
 10
129.371
 20
261.455
 30
0.000000
  70
    32
  0
VERTEX
  8
0
  5
173D
 10
129.194
 20
261.312
 30
0.000000
  70
    32
  0
VERTEX
  8
0
  5
173E
 10
129.034
 20
261.165
 30
0.000000
  70
    32
  0
VERTEX
  8
0
  5
173F
 10
128.893
 20
261.016
 30
0.000000
  70
    32
  0
VERTEX
  8
0
  5
1740
 10
128.770
 20
260.865
 30
0.000000
  70
    32
  0
VERTEX
  8
0
  5
1741
 10
128.666
 20
260.711
 30
0.000000
  70
    32
  0
VERTEX
  8
0
  5
1742
 10
128.580
 20
260.556
 30
0.000000
  70
    32
  0
VERTEX
  8
0
  5
1743
 10
128.513
 20
260.400
 30
0.000000
  70
    32
  0
VERTEX
  8
0
  5
1744
 10
128.466
 20
260.242
 30
0.000000
  70
    32
  0
VERTEX
  8
0
  5
1745
 10
128.438
 20
260.084
 30
0.000000
  70
    32
  0
VERTEX
  8
0
  5
1746
 10
128.429
 20
259.925
 30
0.000000
  70
    32
  0
VERTEX
  8
0
  5
1747
 10
128.440
 20
259.767
 30
0.000000
  70
    32
  0
VERTEX
  8
0
  5
1748
 10
128.470
 20
259.609
 30
0.000000
  70
    32
  0
VERTEX
  8
0
  5
1749
 10
128.519
 20
259.452
 30
0.000000
  70
    32
  0
VERTEX
  8
0
  5
174A
 10
128.587
 20
259.295
 30
0.000000
  70
    32
  0
VERTEX
  8
0
  5
174B
 10
128.674
 20
259.140
 30
0.000000
  70
    32
  0
VERTEX
  8
0
  5
174C
 10
128.780
 20
258.987
 30
0.000000
  70
    32
  0
VERTEX
  8
0
  5
174D
 10
128.905
 20
258.836
 30
0.000000
  70
    32
  0
VERTEX
  8
0
  5
174E
 10
129.048
 20
258.687
 30
0.000000
  70
    32
  0
VERTEX
  8
0
  5
174F
 10
129.209
 20
258.540
 30
0.000000
  70
    32
  0
VERTEX
  8
0
  5
1750
 10
129.388
 20
258.397
 30
0.000000
  70
    32
  0
VERTEX
  8
0
  5
1751
 10
129.584
 20
258.257
 30
0.000000
  70
    32
  0
VERTEX
  8
0
  5
1752
 10
129.797
 20
258.121
 30
0.000000
  70
    32
  0
VERTEX
  8
0
  5
1753
 10
130.026
 20
257.988
 30
0.000000
  70
    32
  0
VERTEX
  8
0
  5
1754
 10
130.271
 20
257.860
 30
0.000000
  70
    32
  0
VERTEX
  8
0
  5
1755
 10
130.532
 20
257.736
 30
0.000000
  70
    32
  0
VERTEX
  8
0
  5
1756
 10
130.807
 20
257.617
 30
0.000000
  70
    32
  0
VERTEX
  8
0
  5
1757
 10
131.097
 20
257.502
 30
0.000000
  70
    32
  0
VERTEX
  8
0
  5
1758
 10
131.400
 20
257.393
 30
0.000000
  70
    32
  0
VERTEX
  8
0
  5
1759
 10
131.716
 20
257.290
 30
0.000000
  70
    32
  0
VERTEX
  8
0
  5
175A
 10
132.045
 20
257.192
 30
0.000000
  70
    32
  0
VERTEX
  8
0
  5
175B
 10
132.385
 20
257.099
 30
0.000000
  70
    32
  0
VERTEX
  8
0
  5
175C
 10
132.736
 20
257.013
 30
0.000000
  70
    32
  0
VERTEX
  8
0
  5
175D
 10
133.098
 20
256.934
 30
0.000000
  70
    32
  0
VERTEX
  8
0
  5
175E
 10
133.468
 20
256.860
 30
0.000000
  70
    32
  0
VERTEX
  8
0
  5
175F
 10
133.847
 20
256.793
 30
0.000000
  70
    32
  0
VERTEX
  8
0
  5
1760
 10
134.234
 20
256.733
 30
0.000000
  70
    32
  0
VERTEX
  8
0
  5
1761
 10
134.628
 20
256.680
 30
0.000000
  70
    32
  0
VERTEX
  8
0
  5
1762
 10
135.028
 20
256.634
 30
0.000000
  70
    32
  0
VERTEX
  8
0
  5
1763
 10
135.433
 20
256.594
 30
0.000000
  70
    32
  0
VERTEX
  8
0
  5
1764
 10
135.842
 20
256.562
 30
0.000000
  70
    32
  0
SEQEND
  8
0
  5
1765
  0
LINE
  5
13CA
  8
0
 10
139.09466716010431
 20
256.56221460031293
 30
0.0
 11
135.84245374765811
 21
256.56221460031293
 31
0.0
  0
LINE
  5
13CB
  8
0
 10
147.02107176434021
 20
274.4343582854429
 30
0.0
 11
145.04962269811659
 21
284.1844854892725
 31
0.0
  0
ARC
  5
13CC
  8
0
 10
144.55954053841279
 20
284.08539221634157
 30
0.0
 40
0.5
 50
11.43093316767178
 51
90.0
  0
ARC
  5
13CD
  8
0
 10
153.30120368269331
 20
271.10816084045899
 30
0.0
 40
7.0
 50
154.5146337365355
 51
197.21129352201169
  0
ARC
  5
13CE
  8
0
 10
146.53098960463649
 20
274.33526501251202
 30
0.0
 40
0.5
 50
334.51463373653547
 51
11.43093316767178
  0
LINE
  5
13CF
  8
0
 10
147.03098960463649
 20
274.33526501251202
 30
0.0
 11
147.03098960463649
 21
268.04318888945937
 31
0.0
  0
ARC
  5
13D0
  8
0
 10
160.6487313733939
 20
274.33263315103301
 30
0.0
 40
15.0
 50
200.67396706917449
 51
228.2567813213013
  0
LINE
  5
13D1
  8
0
 10
127.9061313031258
 20
274.33526501251202
 30
0.0
 11
127.9061313031258
 21
268.04318888945937
 31
0.0
  0
ARC
  5
13D2
  8
0
 10
121.63591722506899
 20
271.10816084045899
 30
0.0
 40
7.0
 50
342.78870647798823
 51
25.485366263464481
  0
ARC
  5
13D3
  8
0
 10
114.28838953436841
 20
274.33263315103301
 30
0.0
 40
15.0
 50
311.74321867869872
 51
339.32603293082548
  0
LINE
  5
13D4
  8
0
 10
127.9160491434221
 20
274.4343582854429
 30
0.0
 11
129.8874982096458
 21
284.1844854892725
 31
0.0
  0
ARC
  5
13D5
  8
0
 10
128.40613130312579
 20
274.33526501251202
 30
0.0
 40
0.5
 50
168.56906683232819
 51
205.48536626346441
  0
ARC
  5
13D6
  8
0
 10
130.37758036934949
 20
284.08539221634157
 30
0.0
 40
0.5
 50
90.0
 51
168.56906683232819
  0
LINE
  5
13D7
  8
0
 10
471.27122840424158
 20
279.95686770165838
 30
0.0
 11
474.00487512886713
 21
279.95686770165838
 31
0.0
  0
LINE
  5
13D8
  8
0
 10
470.97723762316463
 20
279.45941435790741
 30
0.0
 11
474.338113528029
 21
279.45941435790741
 31
0.0
  0
LINE
  5
13D9
  8
0
 10
464.47465256704828
 20
269.12691636477518
 30
0.0
 11
480.86240084205622
 21
269.12691636477518
 31
0.0
  0
LINE
  5
13DA
  8
0
 10
465.17953165586289
 20
271.02243561757189
 30
0.0
 11
480.1575217532415
 21
271.02243561757189
 31
0.0
  0
LINE
  5
13DB
  8
0
 10
465.14163645378841
 20
270.26895275054579
 30
0.0
 11
480.19541695531609
 21
270.26895275054579
 31
0.0
  0
LINE
  5
13DC
  8
0
 10
480.76199414996609
 20
269.46539221634163
 30
0.0
 11
464.57505925913858
 21
269.46539221634163
 31
0.0
  0
POLYLINE
  5
13DD
  8
0
 66
     1
 10
0.0
 20
0.0
 30
0.0
  0
VERTEX
  5
1624
  8
0
 10
465.7695936812504
 20
284.57147952754173
 30
0.0
  0
VERTEX
  5
1625
  8
0
 10
465.79435259028128
 20
284.5758050345321
 30
0.0
  0
VERTEX
  5
1626
  8
0
 10
465.84507086603799
 20
284.58199639676991
 30
0.0
  0
VERTEX
  5
1627
  8
0
 10
465.89726863651589
 20
284.5850213649764
 30
0.0
  0
VERTEX
  5
1628
  8
0
 10
465.92387360250422
 20
284.58539221634157
 30
0.0
  0
SEQEND
  5
1629
  8
0
  0
LINE
  5
13DE
  8
0
 10
465.16852670455228
 20
284.31711349020009
 30
0.0
 11
465.16852670455228
 21
270.88630514295249
 31
0.0
  0
LINE
  5
13DF
  8
0
 10
480.16852670455222
 20
284.31711349020009
 30
0.0
 11
480.16852670455222
 21
270.80362052196199
 31
0.0
  0
LINE
  5
13E0
  8
0
 10
488.16852670455222
 20
223.5853922163416
 30
0.0
 11
457.16852670455228
 21
223.5853922163416
 31
0.0
  0
LINE
  5
13E1
  8
1
 10
472.66852670455228
 20
272.58539221634157
 30
0.0
 11
472.66852670455228
 21
222.5853922163416
 31
0.0
  0
LINE
  5
13E2
  8
0
 10
484.16852670455222
 20
211.5853922163416
 30
0.0
 11
484.16852670455222
 21
223.5853922163416
 31
0.0
  0
LINE
  5
13E3
  8
0
 10
461.16852670455228
 20
223.5853922163416
 30
0.0
 11
461.16852670455228
 21
211.5853922163416
 31
0.0
  0
LINE
  5
13E4
  8
0
 10
461.16852670455228
 20
211.5853922163416
 30
0.0
 11
484.16852670455222
 21
211.5853922163416
 31
0.0
  0
LINE
  5
13E5
  8
1
 10
472.66852670455211
 20
294.58539221634152
 30
0.0
 11
472.66852670455211
 21
161.58539221633879
 31
0.0
  0
LINE
  5
13E6
  8
0
 10
482.23095585530768
 20
274.33526501251202
 30
0.0
 11
482.23095585530768
 21
256.64267712441529
 31
0.0
  0
ARC
  5
13E7
  8
0
 10
495.84869762406498
 20
274.33263315103301
 30
0.0
 40
15.0
 50
204.7901669365643
 51
228.2567813213013
  0
LINE
  5
13E8
  8
0
 10
479.75950678908401
 20
284.58539221634157
 30
0.0
 11
465.57754662002048
 21
284.58539221634157
 31
0.0
  0
LINE
  5
13E9
  8
0
 10
482.22103801501129
 20
274.4343582854429
 30
0.0
 11
480.24958894878768
 21
284.1844854892725
 31
0.0
  0
ARC
  5
13EA
  8
0
 10
481.73095585530763
 20
274.33526501251202
 30
0.0
 40
0.5
 50
0.0
 51
11.43093316767178
  0
ARC
  5
13EB
  8
0
 10
479.75950678908401
 20
284.08539221634157
 30
0.0
 40
0.5
 50
11.43093316767178
 51
90.0
  0
ARC
  5
13EC
  8
0
 10
449.48835578503957
 20
274.33263315103301
 30
0.0
 40
15.0
 50
311.74321867869872
 51
335.20983306343572
  0
ARC
  5
13ED
  8
0
 10
465.57754662002048
 20
284.08539221634157
 30
0.0
 40
0.5
 50
90.0
 51
168.56906683232819
  0
ARC
  5
13EE
  8
0
 10
463.60609755379699
 20
274.33526501251202
 30
0.0
 40
0.5
 50
168.56906683232819
 51
180.0
  0
LINE
  5
13EF
  8
0
 10
463.11601539409321
 20
274.4343582854429
 30
0.0
 11
465.08746446031688
 21
284.1844854892725
 31
0.0
  0
POLYLINE
  5
13F0
  8
0
 10
488.66442598958554
 20
259.24055357985605
 30
0.0
 66
     1
 70
     8
  0
VERTEX
  8
0
  5
1766
 10
488.664
 20
259.241
 30
0.000000
  70
    32
  0
VERTEX
  8
0
  5
1767
 10
488.666
 20
259.273
 30
0.000000
  70
    32
  0
VERTEX
  8
0
  5
1768
 10
488.667
 20
259.305
 30
0.000000
  70
    32
  0
VERTEX
  8
0
  5
1769
 10
488.668
 20
259.337
 30
0.000000
  70
    32
  0
VERTEX
  8
0
  5
176A
 10
488.668
 20
259.370
 30
0.000000
  70
    32
  0
VERTEX
  8
0
  5
176B
 10
488.669
 20
259.402
 30
0.000000
  70
    32
  0
VERTEX
  8
0
  5
176C
 10
488.668
 20
259.434
 30
0.000000
  70
    32
  0
VERTEX
  8
0
  5
176D
 10
488.667
 20
259.467
 30
0.000000
  70
    32
  0
VERTEX
  8
0
  5
176E
 10
488.666
 20
259.499
 30
0.000000
  70
    32
  0
VERTEX
  8
0
  5
176F
 10
488.665
 20
259.531
 30
0.000000
  70
    32
  0
VERTEX
  8
0
  5
1770
 10
488.663
 20
259.564
 30
0.000000
  70
    32
  0
VERTEX
  8
0
  5
1771
 10
488.661
 20
259.596
 30
0.000000
  70
    32
  0
VERTEX
  8
0
  5
1772
 10
488.658
 20
259.628
 30
0.000000
  70
    32
  0
VERTEX
  8
0
  5
1773
 10
488.655
 20
259.661
 30
0.000000
  70
    32
  0
VERTEX
  8
0
  5
1774
 10
488.652
 20
259.693
 30
0.000000
  70
    32
  0
VERTEX
  8
0
  5
1775
 10
488.648
 20
259.725
 30
0.000000
  70
    32
  0
VERTEX
  8
0
  5
1776
 10
488.644
 20
259.757
 30
0.000000
  70
    32
  0
VERTEX
  8
0
  5
1777
 10
488.640
 20
259.790
 30
0.000000
  70
    32
  0
VERTEX
  8
0
  5
1778
 10
488.635
 20
259.822
 30
0.000000
  70
    32
  0
VERTEX
  8
0
  5
1779
 10
488.629
 20
259.854
 30
0.000000
  70
    32
  0
VERTEX
  8
0
  5
177A
 10
488.624
 20
259.886
 30
0.000000
  70
    32
  0
VERTEX
  8
0
  5
177B
 10
488.618
 20
259.919
 30
0.000000
  70
    32
  0
VERTEX
  8
0
  5
177C
 10
488.611
 20
259.951
 30
0.000000
  70
    32
  0
VERTEX
  8
0
  5
177D
 10
488.605
 20
259.983
 30
0.000000
  70
    32
  0
VERTEX
  8
0
  5
177E
 10
488.597
 20
260.015
 30
0.000000
  70
    32
  0
VERTEX
  8
0
  5
177F
 10
488.590
 20
260.047
 30
0.000000
  70
    32
  0
VERTEX
  8
0
  5
1780
 10
488.582
 20
260.079
 30
0.000000
  70
    32
  0
VERTEX
  8
0
  5
1781
 10
488.574
 20
260.112
 30
0.000000
  70
    32
  0
VERTEX
  8
0
  5
1782
 10
488.565
 20
260.144
 30
0.000000
  70
    32
  0
VERTEX
  8
0
  5
1783
 10
488.556
 20
260.176
 30
0.000000
  70
    32
  0
VERTEX
  8
0
  5
1784
 10
488.546
 20
260.208
 30
0.000000
  70
    32
  0
VERTEX
  8
0
  5
1785
 10
488.537
 20
260.240
 30
0.000000
  70
    32
  0
VERTEX
  8
0
  5
1786
 10
488.526
 20
260.272
 30
0.000000
  70
    32
  0
VERTEX
  8
0
  5
1787
 10
488.516
 20
260.304
 30
0.000000
  70
    32
  0
VERTEX
  8
0
  5
1788
 10
488.505
 20
260.336
 30
0.000000
  70
    32
  0
VERTEX
  8
0
  5
1789
 10
488.494
 20
260.368
 30
0.000000
  70
    32
  0
VERTEX
  8
0
  5
178A
 10
488.482
 20
260.400
 30
0.000000
  70
    32
  0
VERTEX
  8
0
  5
178B
 10
488.470
 20
260.432
 30
0.000000
  70
    32
  0
VERTEX
  8
0
  5
178C
 10
488.457
 20
260.464
 30
0.000000
  70
    32
  0
VERTEX
  8
0
  5
178D
 10
488.445
 20
260.496
 30
0.000000
  70
    32
  0
VERTEX
  8
0
  5
178E
 10
488.431
 20
260.527
 30
0.000000
  70
    32
  0
VERTEX
  8
0
  5
178F
 10
488.418
 20
260.559
 30
0.000000
  70
    32
  0
VERTEX
  8
0
  5
1790
 10
488.404
 20
260.591
 30
0.000000
  70
    32
  0
VERTEX
  8
0
  5
1791
 10
488.390
 20
260.623
 30
0.000000
  70
    32
  0
VERTEX
  8
0
  5
1792
 10
488.375
 20
260.654
 30
0.000000
  70
    32
  0
VERTEX
  8
0
  5
1793
 10
488.360
 20
260.686
 30
0.000000
  70
    32
  0
VERTEX
  8
0
  5
1794
 10
488.344
 20
260.718
 30
0.000000
  70
    32
  0
VERTEX
  8
0
  5
1795
 10
488.329
 20
260.750
 30
0.000000
  70
    32
  0
VERTEX
  8
0
  5
1796
 10
488.313
 20
260.781
 30
0.000000
  70
    32
  0
VERTEX
  8
0
  5
1797
 10
488.296
 20
260.813
 30
0.000000
  70
    32
  0
VERTEX
  8
0
  5
1798
 10
488.279
 20
260.844
 30
0.000000
  70
    32
  0
VERTEX
  8
0
  5
1799
 10
488.262
 20
260.876
 30
0.000000
  70
    32
  0
VERTEX
  8
0
  5
179A
 10
488.244
 20
260.907
 30
0.000000
  70
    32
  0
VERTEX
  8
0
  5
179B
 10
488.226
 20
260.939
 30
0.000000
  70
    32
  0
VERTEX
  8
0
  5
179C
 10
488.208
 20
260.970
 30
0.000000
  70
    32
  0
VERTEX
  8
0
  5
179D
 10
488.189
 20
261.001
 30
0.000000
  70
    32
  0
VERTEX
  8
0
  5
179E
 10
488.170
 20
261.033
 30
0.000000
  70
    32
  0
VERTEX
  8
0
  5
179F
 10
488.150
 20
261.064
 30
0.000000
  70
    32
  0
VERTEX
  8
0
  5
17A0
 10
488.130
 20
261.095
 30
0.000000
  70
    32
  0
VERTEX
  8
0
  5
17A1
 10
488.110
 20
261.126
 30
0.000000
  70
    32
  0
VERTEX
  8
0
  5
17A2
 10
488.090
 20
261.158
 30
0.000000
  70
    32
  0
VERTEX
  8
0
  5
17A3
 10
488.069
 20
261.189
 30
0.000000
  70
    32
  0
VERTEX
  8
0
  5
17A4
 10
488.047
 20
261.220
 30
0.000000
  70
    32
  0
VERTEX
  8
0
  5
17A5
 10
488.025
 20
261.251
 30
0.000000
  70
    32
  0
VERTEX
  8
0
  5
17A6
 10
488.003
 20
261.282
 30
0.000000
  70
    32
  0
VERTEX
  8
0
  5
17A7
 10
487.981
 20
261.313
 30
0.000000
  70
    32
  0
VERTEX
  8
0
  5
17A8
 10
487.958
 20
261.344
 30
0.000000
  70
    32
  0
VERTEX
  8
0
  5
17A9
 10
487.935
 20
261.375
 30
0.000000
  70
    32
  0
VERTEX
  8
0
  5
17AA
 10
487.911
 20
261.405
 30
0.000000
  70
    32
  0
VERTEX
  8
0
  5
17AB
 10
487.888
 20
261.436
 30
0.000000
  70
    32
  0
VERTEX
  8
0
  5
17AC
 10
487.863
 20
261.467
 30
0.000000
  70
    32
  0
VERTEX
  8
0
  5
17AD
 10
487.839
 20
261.498
 30
0.000000
  70
    32
  0
VERTEX
  8
0
  5
17AE
 10
487.814
 20
261.528
 30
0.000000
  70
    32
  0
VERTEX
  8
0
  5
17AF
 10
487.788
 20
261.559
 30
0.000000
  70
    32
  0
VERTEX
  8
0
  5
17B0
 10
487.763
 20
261.589
 30
0.000000
  70
    32
  0
VERTEX
  8
0
  5
17B1
 10
487.737
 20
261.620
 30
0.000000
  70
    32
  0
VERTEX
  8
0
  5
17B2
 10
487.710
 20
261.650
 30
0.000000
  70
    32
  0
VERTEX
  8
0
  5
17B3
 10
487.684
 20
261.680
 30
0.000000
  70
    32
  0
VERTEX
  8
0
  5
17B4
 10
487.656
 20
261.711
 30
0.000000
  70
    32
  0
VERTEX
  8
0
  5
17B5
 10
487.629
 20
261.741
 30
0.000000
  70
    32
  0
VERTEX
  8
0
  5
17B6
 10
487.601
 20
261.771
 30
0.000000
  70
    32
  0
VERTEX
  8
0
  5
17B7
 10
487.573
 20
261.801
 30
0.000000
  70
    32
  0
VERTEX
  8
0
  5
17B8
 10
487.544
 20
261.831
 30
0.000000
  70
    32
  0
VERTEX
  8
0
  5
17B9
 10
487.515
 20
261.861
 30
0.000000
  70
    32
  0
VERTEX
  8
0
  5
17BA
 10
487.486
 20
261.891
 30
0.000000
  70
    32
  0
VERTEX
  8
0
  5
17BB
 10
487.457
 20
261.921
 30
0.000000
  70
    32
  0
VERTEX
  8
0
  5
17BC
 10
487.427
 20
261.951
 30
0.000000
  70
    32
  0
VERTEX
  8
0
  5
17BD
 10
487.396
 20
261.981
 30
0.000000
  70
    32
  0
VERTEX
  8
0
  5
17BE
 10
487.366
 20
262.011
 30
0.000000
  70
    32
  0
VERTEX
  8
0
  5
17BF
 10
487.335
 20
262.040
 30
0.000000
  70
    32
  0
VERTEX
  8
0
  5
17C0
 10
487.303
 20
262.070
 30
0.000000
  70
    32
  0
VERTEX
  8
0
  5
17C1
 10
487.272
 20
262.099
 30
0.000000
  70
    32
  0
VERTEX
  8
0
  5
17C2
 10
487.240
 20
262.129
 30
0.000000
  70
    32
  0
VERTEX
  8
0
  5
17C3
 10
487.207
 20
262.158
 30
0.000000
  70
    32
  0
VERTEX
  8
0
  5
17C4
 10
487.174
 20
262.187
 30
0.000000
  70
    32
  0
VERTEX
  8
0
  5
17C5
 10
487.141
 20
262.217
 30
0.000000
  70
    32
  0
VERTEX
  8
0
  5
17C6
 10
487.108
 20
262.246
 30
0.000000
  70
    32
  0
VERTEX
  8
0
  5
17C7
 10
487.074
 20
262.275
 30
0.000000
  70
    32
  0
VERTEX
  8
0
  5
17C8
 10
487.040
 20
262.304
 30
0.000000
  70
    32
  0
VERTEX
  8
0
  5
17C9
 10
487.006
 20
262.333
 30
0.000000
  70
    32
  0
VERTEX
  8
0
  5
17CA
 10
486.971
 20
262.362
 30
0.000000
  70
    32
  0
VERTEX
  8
0
  5
17CB
 10
486.936
 20
262.391
 30
0.000000
  70
    32
  0
VERTEX
  8
0
  5
17CC
 10
486.900
 20
262.420
 30
0.000000
  70
    32
  0
VERTEX
  8
0
  5
17CD
 10
486.864
 20
262.448
 30
0.000000
  70
    32
  0
VERTEX
  8
0
  5
17CE
 10
486.828
 20
262.477
 30
0.000000
  70
    32
  0
VERTEX
  8
0
  5
17CF
 10
486.792
 20
262.506
 30
0.000000
  70
    32
  0
VERTEX
  8
0
  5
17D0
 10
486.755
 20
262.534
 30
0.000000
  70
    32
  0
VERTEX
  8
0
  5
17D1
 10
486.718
 20
262.562
 30
0.000000
  70
    32
  0
VERTEX
  8
0
  5
17D2
 10
486.680
 20
262.591
 30
0.000000
  70
    32
  0
VERTEX
  8
0
  5
17D3
 10
486.642
 20
262.619
 30
0.000000
  70
    32
  0
VERTEX
  8
0
  5
17D4
 10
486.604
 20
262.647
 30
0.000000
  70
    32
  0
VERTEX
  8
0
  5
17D5
 10
486.566
 20
262.675
 30
0.000000
  70
    32
  0
VERTEX
  8
0
  5
17D6
 10
486.527
 20
262.703
 30
0.000000
  70
    32
  0
VERTEX
  8
0
  5
17D7
 10
486.488
 20
262.731
 30
0.000000
  70
    32
  0
VERTEX
  8
0
  5
17D8
 10
486.448
 20
262.759
 30
0.000000
  70
    32
  0
VERTEX
  8
0
  5
17D9
 10
486.409
 20
262.787
 30
0.000000
  70
    32
  0
VERTEX
  8
0
  5
17DA
 10
486.368
 20
262.815
 30
0.000000
  70
    32
  0
VERTEX
  8
0
  5
17DB
 10
486.328
 20
262.842
 30
0.000000
  70
    32
  0
VERTEX
  8
0
  5
17DC
 10
486.287
 20
262.870
 30
0.000000
  70
    32
  0
VERTEX
  8
0
  5
17DD
 10
486.246
 20
262.897
 30
0.000000
  70
    32
  0
VERTEX
  8
0
  5
17DE
 10
486.205
 20
262.925
 30
0.000000
  70
    32
  0
VERTEX
  8
0
  5
17DF
 10
486.163
 20
262.952
 30
0.000000
  70
    32
  0
VERTEX
  8
0
  5
17E0
 10
486.121
 20
262.979
 30
0.000000
  70
    32
  0
VERTEX
  8
0
  5
17E1
 10
486.078
 20
263.006
 30
0.000000
  70
    32
  0
VERTEX
  8
0
  5
17E2
 10
486.036
 20
263.033
 30
0.000000
  70
    32
  0
VERTEX
  8
0
  5
17E3
 10
485.993
 20
263.060
 30
0.000000
  70
    32
  0
VERTEX
  8
0
  5
17E4
 10
485.949
 20
263.087
 30
0.000000
  70
    32
  0
VERTEX
  8
0
  5
17E5
 10
485.906
 20
263.114
 30
0.000000
  70
    32
  0
VERTEX
  8
0
  5
17E6
 10
485.862
 20
263.141
 30
0.000000
  70
    32
  0
SEQEND
  8
0
  5
17E7
  0
LINE
  5
13F1
  8
0
 10
488.66452092361521
 20
259.2473793371164
 30
0.0
 11
488.16852670455222
 21
223.5853922163416
 31
0.0
  0
LINE
  5
13F2
  8
0
 10
121.4725662348183
 20
259.2473793371164
 30
0.0
 11
121.9685604538812
 21
223.5853922163416
 31
0.0
  0
LINE
  5
13F3
  8
0
 10
456.67253248548928
 20
259.2473793371164
 30
0.0
 11
457.16852670455228
 21
223.5853922163416
 31
0.0
  0
POLYLINE
  5
13F4
  8
0
 10
459.47525619529523
 20
263.14059043329655
 30
0.0
 66
     1
 70
     8
  0
VERTEX
  8
0
  5
17E8
 10
459.475
 20
263.141
 30
0.000000
  70
    32
  0
VERTEX
  8
0
  5
17E9
 10
459.431
 20
263.114
 30
0.000000
  70
    32
  0
VERTEX
  8
0
  5
17EA
 10
459.388
 20
263.087
 30
0.000000
  70
    32
  0
VERTEX
  8
0
  5
17EB
 10
459.344
 20
263.060
 30
0.000000
  70
    32
  0
VERTEX
  8
0
  5
17EC
 10
459.301
 20
263.033
 30
0.000000
  70
    32
  0
VERTEX
  8
0
  5
17ED
 10
459.259
 20
263.006
 30
0.000000
  70
    32
  0
VERTEX
  8
0
  5
17EE
 10
459.216
 20
262.979
 30
0.000000
  70
    32
  0
VERTEX
  8
0
  5
17EF
 10
459.174
 20
262.952
 30
0.000000
  70
    32
  0
VERTEX
  8
0
  5
17F0
 10
459.132
 20
262.925
 30
0.000000
  70
    32
  0
VERTEX
  8
0
  5
17F1
 10
459.091
 20
262.897
 30
0.000000
  70
    32
  0
VERTEX
  8
0
  5
17F2
 10
459.050
 20
262.870
 30
0.000000
  70
    32
  0
VERTEX
  8
0
  5
17F3
 10
459.009
 20
262.842
 30
0.000000
  70
    32
  0
VERTEX
  8
0
  5
17F4
 10
458.969
 20
262.815
 30
0.000000
  70
    32
  0
VERTEX
  8
0
  5
17F5
 10
458.928
 20
262.787
 30
0.000000
  70
    32
  0
VERTEX
  8
0
  5
17F6
 10
458.889
 20
262.759
 30
0.000000
  70
    32
  0
VERTEX
  8
0
  5
17F7
 10
458.849
 20
262.731
 30
0.000000
  70
    32
  0
VERTEX
  8
0
  5
17F8
 10
458.810
 20
262.703
 30
0.000000
  70
    32
  0
VERTEX
  8
0
  5
17F9
 10
458.771
 20
262.675
 30
0.000000
  70
    32
  0
VERTEX
  8
0
  5
17FA
 10
458.733
 20
262.647
 30
0.000000
  70
    32
  0
VERTEX
  8
0
  5
17FB
 10
458.695
 20
262.619
 30
0.000000
  70
    32
  0
VERTEX
  8
0
  5
17FC
 10
458.657
 20
262.591
 30
0.000000
  70
    32
  0
VERTEX
  8
0
  5
17FD
 10
458.619
 20
262.562
 30
0.000000
  70
    32
  0
VERTEX
  8
0
  5
17FE
 10
458.582
 20
262.534
 30
0.000000
  70
    32
  0
VERTEX
  8
0
  5
17FF
 10
458.545
 20
262.506
 30
0.000000
  70
    32
  0
VERTEX
  8
0
  5
1800
 10
458.509
 20
262.477
 30
0.000000
  70
    32
  0
VERTEX
  8
0
  5
1801
 10
458.473
 20
262.448
 30
0.000000
  70
    32
  0
VERTEX
  8
0
  5
1802
 10
458.437
 20
262.420
 30
0.000000
  70
    32
  0
VERTEX
  8
0
  5
1803
 10
458.401
 20
262.391
 30
0.000000
  70
    32
  0
VERTEX
  8
0
  5
1804
 10
458.366
 20
262.362
 30
0.000000
  70
    32
  0
VERTEX
  8
0
  5
1805
 10
458.331
 20
262.333
 30
0.000000
  70
    32
  0
VERTEX
  8
0
  5
1806
 10
458.297
 20
262.304
 30
0.000000
  70
    32
  0
VERTEX
  8
0
  5
1807
 10
458.263
 20
262.275
 30
0.000000
  70
    32
  0
VERTEX
  8
0
  5
1808
 10
458.229
 20
262.246
 30
0.000000
  70
    32
  0
VERTEX
  8
0
  5
1809
 10
458.196
 20
262.217
 30
0.000000
  70
    32
  0
VERTEX
  8
0
  5
180A
 10
458.163
 20
262.187
 30
0.000000
  70
    32
  0
VERTEX
  8
0
  5
180B
 10
458.130
 20
262.158
 30
0.000000
  70
    32
  0
VERTEX
  8
0
  5
180C
 10
458.097
 20
262.129
 30
0.000000
  70
    32
  0
VERTEX
  8
0
  5
180D
 10
458.065
 20
262.099
 30
0.000000
  70
    32
  0
VERTEX
  8
0
  5
180E
 10
458.034
 20
262.070
 30
0.000000
  70
    32
  0
VERTEX
  8
0
  5
180F
 10
458.002
 20
262.040
 30
0.000000
  70
    32
  0
VERTEX
  8
0
  5
1810
 10
457.971
 20
262.011
 30
0.000000
  70
    32
  0
VERTEX
  8
0
  5
1811
 10
457.941
 20
261.981
 30
0.000000
  70
    32
  0
VERTEX
  8
0
  5
1812
 10
457.910
 20
261.951
 30
0.000000
  70
    32
  0
VERTEX
  8
0
  5
1813
 10
457.880
 20
261.921
 30
0.000000
  70
    32
  0
VERTEX
  8
0
  5
1814
 10
457.851
 20
261.891
 30
0.000000
  70
    32
  0
VERTEX
  8
0
  5
1815
 10
457.822
 20
261.861
 30
0.000000
  70
    32
  0
VERTEX
  8
0
  5
1816
 10
457.793
 20
261.831
 30
0.000000
  70
    32
  0
VERTEX
  8
0
  5
1817
 10
457.764
 20
261.801
 30
0.000000
  70
    32
  0
VERTEX
  8
0
  5
1818
 10
457.736
 20
261.771
 30
0.000000
  70
    32
  0
VERTEX
  8
0
  5
1819
 10
457.708
 20
261.741
 30
0.000000
  70
    32
  0
VERTEX
  8
0
  5
181A
 10
457.681
 20
261.711
 30
0.000000
  70
    32
  0
VERTEX
  8
0
  5
181B
 10
457.654
 20
261.680
 30
0.000000
  70
    32
  0
VERTEX
  8
0
  5
181C
 10
457.627
 20
261.650
 30
0.000000
  70
    32
  0
VERTEX
  8
0
  5
181D
 10
457.600
 20
261.620
 30
0.000000
  70
    32
  0
VERTEX
  8
0
  5
181E
 10
457.574
 20
261.589
 30
0.000000
  70
    32
  0
VERTEX
  8
0
  5
181F
 10
457.549
 20
261.559
 30
0.000000
  70
    32
  0
VERTEX
  8
0
  5
1820
 10
457.523
 20
261.528
 30
0.000000
  70
    32
  0
VERTEX
  8
0
  5
1821
 10
457.498
 20
261.498
 30
0.000000
  70
    32
  0
VERTEX
  8
0
  5
1822
 10
457.474
 20
261.467
 30
0.000000
  70
    32
  0
VERTEX
  8
0
  5
1823
 10
457.449
 20
261.436
 30
0.000000
  70
    32
  0
VERTEX
  8
0
  5
1824
 10
457.426
 20
261.405
 30
0.000000
  70
    32
  0
VERTEX
  8
0
  5
1825
 10
457.402
 20
261.375
 30
0.000000
  70
    32
  0
VERTEX
  8
0
  5
1826
 10
457.379
 20
261.344
 30
0.000000
  70
    32
  0
VERTEX
  8
0
  5
1827
 10
457.356
 20
261.313
 30
0.000000
  70
    32
  0
VERTEX
  8
0
  5
1828
 10
457.334
 20
261.282
 30
0.000000
  70
    32
  0
VERTEX
  8
0
  5
1829
 10
457.312
 20
261.251
 30
0.000000
  70
    32
  0
VERTEX
  8
0
  5
182A
 10
457.290
 20
261.220
 30
0.000000
  70
    32
  0
VERTEX
  8
0
  5
182B
 10
457.269
 20
261.189
 30
0.000000
  70
    32
  0
VERTEX
  8
0
  5
182C
 10
457.248
 20
261.158
 30
0.000000
  70
    32
  0
VERTEX
  8
0
  5
182D
 10
457.227
 20
261.126
 30
0.000000
  70
    32
  0
VERTEX
  8
0
  5
182E
 10
457.207
 20
261.095
 30
0.000000
  70
    32
  0
VERTEX
  8
0
  5
182F
 10
457.187
 20
261.064
 30
0.000000
  70
    32
  0
VERTEX
  8
0
  5
1830
 10
457.167
 20
261.033
 30
0.000000
  70
    32
  0
VERTEX
  8
0
  5
1831
 10
457.148
 20
261.001
 30
0.000000
  70
    32
  0
VERTEX
  8
0
  5
1832
 10
457.129
 20
260.970
 30
0.000000
  70
    32
  0
VERTEX
  8
0
  5
1833
 10
457.111
 20
260.939
 30
0.000000
  70
    32
  0
VERTEX
  8
0
  5
1834
 10
457.093
 20
260.907
 30
0.000000
  70
    32
  0
VERTEX
  8
0
  5
1835
 10
457.075
 20
260.876
 30
0.000000
  70
    32
  0
VERTEX
  8
0
  5
1836
 10
457.058
 20
260.844
 30
0.000000
  70
    32
  0
VERTEX
  8
0
  5
1837
 10
457.041
 20
260.813
 30
0.000000
  70
    32
  0
VERTEX
  8
0
  5
1838
 10
457.025
 20
260.781
 30
0.000000
  70
    32
  0
VERTEX
  8
0
  5
1839
 10
457.008
 20
260.750
 30
0.000000
  70
    32
  0
VERTEX
  8
0
  5
183A
 10
456.993
 20
260.718
 30
0.000000
  70
    32
  0
VERTEX
  8
0
  5
183B
 10
456.977
 20
260.686
 30
0.000000
  70
    32
  0
VERTEX
  8
0
  5
183C
 10
456.962
 20
260.654
 30
0.000000
  70
    32
  0
VERTEX
  8
0
  5
183D
 10
456.947
 20
260.623
 30
0.000000
  70
    32
  0
VERTEX
  8
0
  5
183E
 10
456.933
 20
260.591
 30
0.000000
  70
    32
  0
VERTEX
  8
0
  5
183F
 10
456.919
 20
260.559
 30
0.000000
  70
    32
  0
VERTEX
  8
0
  5
1840
 10
456.906
 20
260.527
 30
0.000000
  70
    32
  0
VERTEX
  8
0
  5
1841
 10
456.892
 20
260.496
 30
0.000000
  70
    32
  0
VERTEX
  8
0
  5
1842
 10
456.880
 20
260.464
 30
0.000000
  70
    32
  0
VERTEX
  8
0
  5
1843
 10
456.867
 20
260.432
 30
0.000000
  70
    32
  0
VERTEX
  8
0
  5
1844
 10
456.855
 20
260.400
 30
0.000000
  70
    32
  0
VERTEX
  8
0
  5
1845
 10
456.843
 20
260.368
 30
0.000000
  70
    32
  0
VERTEX
  8
0
  5
1846
 10
456.832
 20
260.336
 30
0.000000
  70
    32
  0
VERTEX
  8
0
  5
1847
 10
456.821
 20
260.304
 30
0.000000
  70
    32
  0
VERTEX
  8
0
  5
1848
 10
456.811
 20
260.272
 30
0.000000
  70
    32
  0
VERTEX
  8
0
  5
1849
 10
456.800
 20
260.240
 30
0.000000
  70
    32
  0
VERTEX
  8
0
  5
184A
 10
456.791
 20
260.208
 30
0.000000
  70
    32
  0
VERTEX
  8
0
  5
184B
 10
456.781
 20
260.176
 30
0.000000
  70
    32
  0
VERTEX
  8
0
  5
184C
 10
456.772
 20
260.144
 30
0.000000
  70
    32
  0
VERTEX
  8
0
  5
184D
 10
456.763
 20
260.112
 30
0.000000
  70
    32
  0
VERTEX
  8
0
  5
184E
 10
456.755
 20
260.079
 30
0.000000
  70
    32
  0
VERTEX
  8
0
  5
184F
 10
456.747
 20
260.047
 30
0.000000
  70
    32
  0
VERTEX
  8
0
  5
1850
 10
456.740
 20
260.015
 30
0.000000
  70
    32
  0
VERTEX
  8
0
  5
1851
 10
456.733
 20
259.983
 30
0.000000
  70
    32
  0
VERTEX
  8
0
  5
1852
 10
456.726
 20
259.951
 30
0.000000
  70
    32
  0
VERTEX
  8
0
  5
1853
 10
456.719
 20
259.919
 30
0.000000
  70
    32
  0
VERTEX
  8
0
  5
1854
 10
456.713
 20
259.886
 30
0.000000
  70
    32
  0
VERTEX
  8
0
  5
1855
 10
456.708
 20
259.854
 30
0.000000
  70
    32
  0
VERTEX
  8
0
  5
1856
 10
456.702
 20
259.822
 30
0.000000
  70
    32
  0
VERTEX
  8
0
  5
1857
 10
456.698
 20
259.790
 30
0.000000
  70
    32
  0
VERTEX
  8
0
  5
1858
 10
456.693
 20
259.757
 30
0.000000
  70
    32
  0
VERTEX
  8
0
  5
1859
 10
456.689
 20
259.725
 30
0.000000
  70
    32
  0
VERTEX
  8
0
  5
185A
 10
456.685
 20
259.693
 30
0.000000
  70
    32
  0
VERTEX
  8
0
  5
185B
 10
456.682
 20
259.661
 30
0.000000
  70
    32
  0
VERTEX
  8
0
  5
185C
 10
456.679
 20
259.628
 30
0.000000
  70
    32
  0
VERTEX
  8
0
  5
185D
 10
456.676
 20
259.596
 30
0.000000
  70
    32
  0
VERTEX
  8
0
  5
185E
 10
456.674
 20
259.564
 30
0.000000
  70
    32
  0
VERTEX
  8
0
  5
185F
 10
456.672
 20
259.531
 30
0.000000
  70
    32
  0
VERTEX
  8
0
  5
1860
 10
456.671
 20
259.499
 30
0.000000
  70
    32
  0
VERTEX
  8
0
  5
1861
 10
456.670
 20
259.467
 30
0.000000
  70
    32
  0
VERTEX
  8
0
  5
1862
 10
456.669
 20
259.434
 30
0.000000
  70
    32
  0
VERTEX
  8
0
  5
1863
 10
456.669
 20
259.402
 30
0.000000
  70
    32
  0
VERTEX
  8
0
  5
1864
 10
456.669
 20
259.370
 30
0.000000
  70
    32
  0
VERTEX
  8
0
  5
1865
 10
456.669
 20
259.337
 30
0.000000
  70
    32
  0
VERTEX
  8
0
  5
1866
 10
456.670
 20
259.305
 30
0.000000
  70
    32
  0
VERTEX
  8
0
  5
1867
 10
456.671
 20
259.273
 30
0.000000
  70
    32
  0
VERTEX
  8
0
  5
1868
 10
456.673
 20
259.241
 30
0.000000
  70
    32
  0
SEQEND
  8
0
  5
1869
  0
ARC
  5
13F5
  8
0
 10
497.53561617539083
 20
251.68800950624549
 30
0.0
 40
16.0
 50
164.0225319366626
 51
212.5247298491451
  0
ARC
  5
13F6
  8
0
 10
480.23095585530763
 20
256.64267712441529
 30
0.0
 40
2.0
 50
344.02253193666257
 51
0.0
  0
LINE
  5
13F7
  8
0
 10
482.23266261932849
 20
256.90008542245391
 30
0.0
 11
480.86240084205627
 21
269.12691636477427
 31
0.0
  0
LINE
  5
13F8
  8
0
 10
480.76199414996609
 20
269.46539221634163
 30
0.0
 11
480.86240084205622
 21
269.12691636477518
 31
0.0
  0
LINE
  5
13F9
  8
0
 10
480.1575217532415
 20
271.02243561757189
 30
0.0
 11
480.23105401754742
 21
269.56036922671092
 31
0.0
  0
ARC
  5
13FA
  8
0
 10
480.33092778575087
 20
269.56539221634159
 30
0.0
 40
0.1
 50
182.8791726428968
 51
270.0
  0
LINE
  5
13FB
  8
0
 10
463.10609755379687
 20
274.33526501251202
 30
0.0
 11
463.10609755379687
 21
256.64267712441529
 31
0.0
  0
LINE
  5
13FC
  8
0
 10
463.10439078977601
 20
256.90008542245391
 30
0.0
 11
464.47465256704822
 21
269.12691636477427
 31
0.0
  0
ARC
  5
13FD
  8
0
 10
447.80143723371373
 20
251.68800950624549
 30
0.0
 40
16.0
 50
327.4752701508549
 51
15.977468063337369
  0
ARC
  5
13FE
  8
0
 10
465.10609755379681
 20
256.64267712441529
 30
0.0
 40
2.0
 50
180.0
 51
195.97746806333731
  0
LINE
  5
13FF
  8
0
 10
465.17953165586289
 20
271.02243561757189
 30
0.0
 11
465.10599939155708
 21
269.56036922671092
 31
0.0
  0
ARC
  5
1400
  8
0
 10
465.00612562335363
 20
269.56539221634159
 30
0.0
 40
0.1
 50
270.0
 51
357.12082735710311
  0
LINE
  5
1401
  8
0
 10
464.57505925913841
 20
269.46539221634163
 30
0.0
 11
464.47465256704828
 21
269.12691636477518
 31
0.0
  0
ARC
  5
1402
  8
0
 10
486.8603252533419
 20
268.38021230401358
 30
0.0
 40
18.0
 50
116.9726637604859
 51
134.80837889191491
  0
ARC
  5
1403
  8
0
 10
479.37649710552432
 20
283.08539221634157
 30
0.0
 40
1.5
 50
90.0
 51
116.9726637604859
  0
ARC
  5
1404
  8
0
 10
540.34575616287611
 20
324.65887357801648
 30
0.0
 40
80.0
 50
214.0362878740896
 51
219.4398401049931
  0
ARC
  5
1405
  8
0
 10
474.87977977146687
 20
280.44116292810321
 30
0.0
 40
1.0
 50
134.80837889191491
 51
214.0362878740896
  0
ARC
  5
1406
  8
0
 10
465.51082511740378
 20
264.5823767377791
 30
0.0
 40
16.0
 50
23.734790178187481
 51
35.341083939324157
  0
ARC
  5
1407
  8
0
 10
404.99129724622838
 20
324.65887357801648
 30
0.0
 40
80.0
 50
320.5601598950069
 51
325.96371212591038
  0
ARC
  5
1408
  8
0
 10
458.4767281557626
 20
268.38021230401358
 30
0.0
 40
18.0
 50
45.191621108085108
 51
63.027336239514078
  0
ARC
  5
1409
  8
0
 10
470.45727363763763
 20
280.44116292810321
 30
0.0
 40
1.0
 50
325.96371212591038
 51
45.191621108085108
  0
ARC
  5
140A
  8
0
 10
465.96055630358018
 20
283.08539221634157
 30
0.0
 40
1.5
 50
63.027336239514078
 51
90.0
  0
ARC
  5
140B
  8
0
 10
479.82622829170072
 20
264.5823767377791
 30
0.0
 40
16.0
 50
144.65891606067581
 51
156.2652098218125
  0
LINE
  5
1433
  8
0
 10
266.85058004447279
 20
171.5853922163414
 30
0.0
 11
254.85058004447291
 21
171.58539221634149
 31
0.0
  0
LINE
  5
1434
  8
0
 10
252.85058004447291
 20
211.5853922163416
 30
0.0
 11
252.85058004447291
 21
173.58539221634169
 31
0.0
  0
LINE
  5
1435
  8
3
 10
253.9330800444728
 20
205.5853922163416
 30
0.0
 11
253.9330800444728
 21
172.50289221634171
 31
0.0
  0
LINE
  5
1436
  8
3
 10
267.76808004447292
 20
205.5853922163416
 30
0.0
 11
267.76808004447281
 21
172.50289221634139
 31
0.0
  0
LINE
  5
1437
  8
0
 10
268.85058004447279
 20
211.5853922163416
 30
0.0
 11
268.85058004447279
 21
173.5853922163414
 31
0.0
  0
LINE
  5
1438
  8
0
 10
268.85058004447279
 20
173.5853922163414
 30
0.0
 11
266.85058004447279
 21
171.5853922163414
 31
0.0
  0
LINE
  5
1439
  8
0
 10
254.85058004447291
 20
171.58539221634149
 30
0.0
 11
252.85058004447291
 21
173.5853922163416
 31
0.0
  0
LINE
  5
143A
  8
0
 10
252.85058004447291
 20
173.5853922163416
 30
0.0
 11
268.85058004447279
 21
173.5853922163414
 31
0.0
  0
LINE
  5
143B
  8
0
 10
268.85058004447279
 20
205.5853922163416
 30
0.0
 11
252.85058004447291
 21
205.5853922163416
 31
0.0
  0
LINE
  5
143C
  8
3
 10
267.76808004447292
 20
205.5853922163416
 30
0.0
 11
268.85058004447279
 21
207.46033721553479
 31
0.0
  0
LINE
  5
143D
  8
3
 10
253.9330800444728
 20
205.5853922163416
 30
0.0
 11
252.85058004447291
 21
207.46033721553479
 31
0.0
  0
LINE
  5
1442
  8
3
 10
130.56106045388111
 20
205.5853922163416
 30
0.0
 11
130.56106045388111
 21
172.50289221634171
 31
0.0
  0
LINE
  5
1443
  8
3
 10
144.3960604538812
 20
205.5853922163416
 30
0.0
 11
144.3960604538812
 21
172.50289221634159
 31
0.0
  0
LINE
  5
1444
  8
0
 10
143.4785604538811
 20
171.5853922163414
 30
0.0
 11
131.47856045388119
 21
171.58539221634149
 31
0.0
  0
LINE
  5
1445
  8
0
 10
129.47856045388119
 20
173.5853922163416
 30
0.0
 11
145.47856045388119
 21
173.5853922163414
 31
0.0
  0
LINE
  5
1446
  8
0
 10
131.47856045388119
 20
171.58539221634149
 30
0.0
 11
129.47856045388119
 21
173.5853922163416
 31
0.0
  0
LINE
  5
1447
  8
0
 10
145.47856045388119
 20
173.5853922163414
 30
0.0
 11
143.4785604538811
 21
171.5853922163414
 31
0.0
  0
LINE
  5
1448
  8
0
 10
145.47856045388119
 20
205.5853922163416
 30
0.0
 11
129.47856045388119
 21
205.5853922163416
 31
0.0
  0
LINE
  5
1449
  8
3
 10
130.56106045388111
 20
205.5853922163416
 30
0.0
 11
129.47856045388119
 21
207.46033721553479
 31
0.0
  0
LINE
  5
144A
  8
3
 10
144.3960604538812
 20
205.5853922163416
 30
0.0
 11
145.47856045388119
 21
207.46033721553479
 31
0.0
  0
LINE
  5
144B
  8
0
 10
145.47856045388119
 20
211.5853922163416
 30
0.0
 11
145.47856045388119
 21
173.5853922163414
 31
0.0
  0
LINE
  5
144C
  8
0
 10
129.47856045388119
 20
211.5853922163416
 30
0.0
 11
129.47856045388119
 21
173.58539221634169
 31
0.0
  0
LINE
  5
144D
  8
3
 10
479.59602670455217
 20
205.5853922163416
 30
0.0
 11
479.59602670455217
 21
172.50289221634139
 31
0.0
  0
LINE
  5
144E
  8
0
 10
480.67852670455233
 20
211.5853922163416
 30
0.0
 11
480.67852670455233
 21
173.5853922163414
 31
0.0
  0
LINE
  5
144F
  8
0
 10
478.67852670455221
 20
171.5853922163414
 30
0.0
 11
466.67852670455221
 21
171.58539221634149
 31
0.0
  0
LINE
  5
1450
  8
0
 10
464.67852670455221
 20
173.5853922163416
 30
0.0
 11
480.67852670455233
 21
173.5853922163414
 31
0.0
  0
LINE
  5
1451
  8
0
 10
480.67852670455233
 20
173.5853922163414
 30
0.0
 11
478.67852670455221
 21
171.5853922163414
 31
0.0
  0
LINE
  5
1452
  8
0
 10
480.67852670455233
 20
205.5853922163416
 30
0.0
 11
464.67852670455221
 21
205.5853922163416
 31
0.0
  0
LINE
  5
1453
  8
3
 10
479.59602670455217
 20
205.5853922163416
 30
0.0
 11
480.67852670455233
 21
207.46033721553479
 31
0.0
  0
LINE
  5
1454
  8
3
 10
465.76102670455219
 20
205.5853922163416
 30
0.0
 11
465.76102670455219
 21
172.50289221634171
 31
0.0
  0
LINE
  5
1455
  8
0
 10
464.67852670455221
 20
211.5853922163416
 30
0.0
 11
464.67852670455221
 21
173.5853922163416
 31
0.0
  0
LINE
  5
1456
  8
3
 10
465.76102670455219
 20
205.5853922163416
 30
0.0
 11
464.67852670455221
 21
207.46033721553479
 31
0.0
  0
LINE
  5
1457
  8
0
 10
466.67852670455221
 20
171.58539221634149
 30
0.0
 11
464.67852670455221
 21
173.5853922163416
 31
0.0
  0
LINE
  5
1465
  8
1
 10
260.85058004447279
 20
404.39163800425388
 30
0.0
 11
260.85058004447279
 21
352.39163800425388
 31
0.0
  0
LINE
  5
1466
  8
1
 10
380.85058004447291
 20
378.39163800425388
 30
0.0
 11
234.85058004447291
 21
378.39163800425388
 31
0.0
  0
LINE
  5
1468
  8
1
 10
260.85058004447279
 20
106.54456502502261
 30
0.0
 11
260.85058004447279
 21
54.544565025022621
 31
0.0
  0
LINE
  5
1469
  8
1
 10
380.85058004447291
 20
80.544565025022621
 30
0.0
 11
234.85058004447291
 21
80.544565025022621
 31
0.0
  0
LINE
  5
14B4
  8
0
 10
257.05058004447289
 20
379.06663800425389
 30
0.0
 11
257.05058004447289
 21
377.71663800425392
 31
0.0
  0
LINE
  5
14B5
  8
0
 10
264.65058004447292
 20
379.06663800425389
 30
0.0
 11
264.65058004447292
 21
377.71663800425392
 31
0.0
  0
LINE
  5
14B6
  8
0
 10
262.6477019626775
 20
379.06663800425389
 30
0.0
 11
264.65058004447292
 21
379.06663800425389
 31
0.0
  0
LINE
  5
14B7
  8
0
 10
262.64770196267739
 20
377.71663800425392
 30
0.0
 11
264.65058004447292
 21
377.71663800425392
 31
0.0
  0
LINE
  5
14B8
  8
0
 10
257.05058004447289
 20
379.06663800425389
 30
0.0
 11
259.05345812626831
 21
379.06663800425389
 31
0.0
  0
LINE
  5
14B9
  8
0
 10
257.05058004447289
 20
377.71663800425392
 30
0.0
 11
259.05345812626842
 21
377.71663800425392
 31
0.0
  0
CIRCLE
  5
14BA
  8
0
 10
260.85058004447279
 20
378.39163800425388
 30
0.0
 40
3.999175415007485
  0
LINE
  5
14C6
  8
0
 10
144.2185604538812
 20
259.19295963283378
 30
0.0
 11
130.7185604538812
 21
259.19295963283372
 31
0.0
  0
ARC
  5
14C7
  8
0
 10
137.4685604538812
 20
249.27139221634161
 30
0.0
 40
12.0
 50
109.4670447595973
 51
124.2288663278118
  0
ARC
  5
14C8
  8
0
 10
137.4685604538812
 20
249.27139221634161
 30
0.0
 40
12.0
 50
55.771133672188213
 51
70.532955240402714
  0
LINE
  5
14C9
  8
0
 10
141.46773586888861
 20
260.58539221634157
 30
0.0
 11
133.46938503887381
 21
260.58539221634157
 31
0.0
  0
LINE
  5
14CA
  8
0
 10
130.7185604538812
 20
259.19295963283372
 30
0.0
 11
130.7185604538812
 21
257.65368625584449
 31
0.0
  0
LINE
  5
14CB
  8
0
 10
144.2185604538812
 20
259.19295963283378
 30
0.0
 11
144.2185604538812
 21
257.65368625584449
 31
0.0
  0
CIRCLE
  5
14CC
  8
0
 10
260.85058004447279
 20
378.39163800425388
 30
0.0
 40
6.75
  0
ARC
  5
14CD
  8
0
 10
263.21421946742498
 20
379.75628586136258
 30
0.0
 40
0.8925000000000011
 50
163.3417582272229
 51
230.59829508168929
  0
ARC
  5
14CE
  8
0
 10
263.21421946742498
 20
377.02699014714528
 30
0.0
 40
0.8925000000000002
 50
129.40170491832319
 51
196.65824177277699
  0
ARC
  5
14CF
  8
0
 10
261.87058004447289
 20
376.62494618053358
 30
0.0
 40
0.5099999999999997
 50
223.3417582272223
 51
16.658241772777039
  0
ARC
  5
14D0
  8
0
 10
260.85058004447291
 20
375.66234229003658
 30
0.0
 40
0.8925000000000002
 50
43.341758227222343
 51
136.65824177277651
  0
ARC
  5
14D1
  8
0
 10
259.83058004447292
 20
376.62494618053358
 30
0.0
 40
0.5100000000000002
 50
163.3417582272229
 51
316.65824177277773
  0
ARC
  5
14D2
  8
0
 10
258.48694062152077
 20
377.02699014714528
 30
0.0
 40
0.8925000000000011
 50
343.3417582272229
 51
50.598295081676767
  0
ARC
  5
14D3
  8
0
 10
261.87058004447289
 20
380.15832982797423
 30
0.0
 40
0.5100000000000003
 50
343.3417582272229
 51
136.65824177277759
  0
ARC
  5
14D4
  8
0
 10
260.85058004447291
 20
381.12093371847118
 30
0.0
 40
0.8924999999999984
 50
223.3417582272223
 51
316.65824177277773
  0
ARC
  5
14D5
  8
0
 10
259.83058004447292
 20
380.15832982797423
 30
0.0
 40
0.5099999999999997
 50
43.341758227222343
 51
196.65824177277699
  0
ARC
  5
14D6
  8
0
 10
258.48694062152077
 20
379.75628586136258
 30
0.0
 40
0.8925000000000004
 50
309.40170491831071
 51
16.658241772777039
  0
LINE
  5
14DC
  8
0
 10
254.0905800444728
 20
259.19295963283372
 30
0.0
 11
254.0905800444728
 21
256.72289311008581
 31
0.0
  0
LINE
  5
14DD
  8
0
 10
263.84086957268443
 20
260.58539221634157
 30
0.0
 11
256.84140462946539
 21
260.58539221634157
 31
0.0
  0
ARC
  5
14DE
  8
0
 10
260.84058004447292
 20
249.27139221634161
 30
0.0
 40
12.0
 50
109.4670447595973
 51
124.2288663278118
  0
LINE
  5
14DF
  8
0
 10
260.23909473931161
 20
259.19295963283378
 30
0.0
 11
254.0905800444728
 21
259.19295963283372
 31
0.0
  0
TEXT
  5
15CB
  8
0
 62
     3
 10
0.0
 20
0.0
 30
0.0
 40
10.0
  1
FKR16X40-BR
  7
STANDARD1
  0
ENDSEC
  0
EOF
