  0
SECTION
  2
HEADER
  9
$ACADVER
  1
AC1009
  9
$INSBASE
 10
0.0
 20
0.0
 30
0.0
  9
$EXTMIN
 10
0.0
 20
-2.960436562073669
 30
0.0
  9
$EXTMAX
 10
375.99599421906282
 20
365.00000000000011
 30
0.0
  9
$LIMMIN
 10
0.0
 20
0.0
  9
$LIMMAX
 10
187.5
 20
135.0
  9
$ORTHOMODE
 70
     1
  9
$REGENMODE
 70
     1
  9
$FILLMODE
 70
     1
  9
$QTEXTMODE
 70
     0
  9
$MIRRTEXT
 70
     0
  9
$DRAGMODE
 70
     2
  9
$LTSCALE
 40
10.0
  9
$OSMODE
 70
    37
  9
$ATTMODE
 70
     1
  9
$TEXTSIZE
 40
4.0
  9
$TRACEWID
 40
0.05
  9
$TEXTSTYLE
  7
STANDARD
  9
$CLAYER
  8
0
  9
$CELTYPE
  6
BYLAYER
  9
$CECOLOR
 62
   256
  9
$DIMSCALE
 40
0.5
  9
$DIMASZ
 40
3.0
  9
$DIMEXO
 40
2.0
  9
$DIMDLI
 40
0.38
  9
$DIMRND
 40
0.0
  9
$DIMDLE
 40
0.0
  9
$DIMEXE
 40
2.0
  9
$DIMTP
 40
0.0
  9
$DIMTM
 40
0.0
  9
$DIMTXT
 40
3.0
  9
$DIMCEN
 40
0.0
  9
$DIMTSZ
 40
0.0
  9
$DIMTOL
 70
     0
  9
$DIMLIM
 70
     0
  9
$DIMTIH
 70
     0
  9
$DIMTOH
 70
     0
  9
$DIMSE1
 70
     0
  9
$DIMSE2
 70
     0
  9
$DIMTAD
 70
     1
  9
$DIMZIN
 70
     0
  9
$DIMBLK
  1

  9
$DIMASO
 70
     0
  9
$DIMSHO
 70
     0
  9
$DIMPOST
  1

  9
$DIMAPOST
  1

  9
$DIMALT
 70
     0
  9
$DIMALTD
 70
     2
  9
$DIMALTF
 40
25.399999999999999
  9
$DIMLFAC
 40
1.0
  9
$DIMTOFL
 70
     0
  9
$DIMTVP
 40
1.6000000000000001
  9
$DIMTIX
 70
     1
  9
$DIMSOXD
 70
     0
  9
$DIMSAH
 70
     0
  9
$DIMBLK1
  1

  9
$DIMBLK2
  1

  9
$DIMSTYLE
  2
STANDARD
  9
$DIMCLRD
 70
     0
  9
$DIMCLRE
 70
     0
  9
$DIMCLRT
 70
     0
  9
$DIMTFAC
 40
1.0
  9
$DIMGAP
 40
0.09
  9
$LUNITS
 70
     2
  9
$LUPREC
 70
     4
  9
$SKETCHINC
 40
0.1
  9
$FILLETRAD
 40
1.25
  9
$AUNITS
 70
     0
  9
$AUPREC
 70
     0
  9
$MENU
  1
E:\r13\win\SUPPORT\ACAD
  9
$ELEVATION
 40
0.0
  9
$PELEVATION
 40
0.0
  9
$THICKNESS
 40
0.0
  9
$LIMCHECK
 70
     0
  9
$BLIPMODE
 70
     0
  9
$CHAMFERA
 40
0.0
  9
$CHAMFERB
 40
0.0
  9
$SKPOLY
 70
     0
  9
$TDCREATE
 40
2449840.6143865739
  9
$TDUPDATE
 40
2456806.6165099889
  9
$TDINDWG
 40
0.2723859606
  9
$TDUSRTIMER
 40
0.2723859606
  9
$USRTIMER
 70
     1
  9
$ANGBASE
 50
0.0
  9
$ANGDIR
 70
     0
  9
$PDMODE
 70
     0
  9
$PDSIZE
 40
0.0
  9
$PLINEWID
 40
0.0
  9
$COORDS
 70
     1
  9
$SPLFRAME
 70
     0
  9
$SPLINETYPE
 70
     6
  9
$SPLINESEGS
 70
     8
  9
$ATTDIA
 70
     0
  9
$ATTREQ
 70
     1
  9
$HANDLING
 70
     1
  9
$HANDSEED
  5
1C0F
  9
$SURFTAB1
 70
     6
  9
$SURFTAB2
 70
     6
  9
$SURFTYPE
 70
     6
  9
$SURFU
 70
     6
  9
$SURFV
 70
     6
  9
$UCSNAME
  2

  9
$UCSORG
 10
0.0
 20
0.0
 30
0.0
  9
$UCSXDIR
 10
1.0
 20
0.0
 30
0.0
  9
$UCSYDIR
 10
0.0
 20
1.0
 30
0.0
  9
$PUCSNAME
  2

  9
$PUCSORG
 10
0.0
 20
0.0
 30
0.0
  9
$PUCSXDIR
 10
1.0
 20
0.0
 30
0.0
  9
$PUCSYDIR
 10
0.0
 20
1.0
 30
0.0
  9
$USERI1
 70
     0
  9
$USERI2
 70
     1
  9
$USERI3
 70
     1
  9
$USERI4
 70
     0
  9
$USERI5
 70
     0
  9
$USERR1
 40
0.0
  9
$USERR2
 40
0.0
  9
$USERR3
 40
0.0
  9
$USERR4
 40
0.0
  9
$USERR5
 40
0.0
  9
$WORLDVIEW
 70
     1
  9
$SHADEDGE
 70
     3
  9
$SHADEDIF
 70
    70
  9
$TILEMODE
 70
     1
  9
$MAXACTVP
 70
    16
  9
$PLIMCHECK
 70
     0
  9
$PEXTMIN
 10
1.0000000000000000E+020
 20
1.0000000000000000E+020
 30
1.0000000000000000E+020
  9
$PEXTMAX
 10
-1.0000000000000000E+020
 20
-1.0000000000000000E+020
 30
-1.0000000000000000E+020
  9
$PLIMMIN
 10
0.0
 20
0.0
  9
$PLIMMAX
 10
12.0
 20
9.0
  9
$UNITMODE
 70
     0
  9
$VISRETAIN
 70
     0
  9
$PLINEGEN
 70
     0
  9
$PSLTSCALE
 70
     0
  0
ENDSEC
  0
SECTION
  2
TABLES
  0
TABLE
  2
VPORT
 70
     1
  0
VPORT
  2
*ACTIVE
 70
     0
 10
0.0
 20
0.0
 11
1.0
 21
1.0
 12
471.27955493741302
 22
270.0
 13
0.0
 23
0.0
 14
5.0
 24
5.0
 15
5.0
 25
5.0
 16
0.0
 26
0.0
 36
1.0
 17
0.0
 27
0.0
 37
0.0
 40
540.0
 41
1.7454798331015291
 42
50.0
 43
0.0
 44
0.0
 50
0.0
 51
0.0
 71
     0
 72
   100
 73
     1
 74
     0
 75
     0
 76
     0
 77
     0
 78
     0
  0
ENDTAB
  0
TABLE
  2
LTYPE
 70
     3
  0
LTYPE
  2
CONTINUOUS
 70
     0
  3
Solid Line
 72
    65
 73
     0
 40
0.0
  0
LTYPE
  2
CENTER
 70
     0
  3
____ _ ____ _ ____ _ ____ _ ____ _ ____ _ ____
 72
    65
 73
     4
 40
2.0
 49
1.25
 49
-0.25
 49
0.25
 49
-0.25
  0
LTYPE
  2
PHANTOM2
 70
     0
  3
___ _ _ ___ _ _ ___ _ _ ___ _ _
 72
    65
 73
     6
 40
1.25
 49
0.625
 49
-0.125
 49
0.125
 49
-0.125
 49
0.125
 49
-0.125
  0
ENDTAB
  0
TABLE
  2
LAYER
 70
     3
  0
LAYER
  2
0
 70
     0
 62
     7
  6
CONTINUOUS
  0
LAYER
  2
1
 70
     0
 62
     1
  6
CENTER
  0
LAYER
  2
3
 70
     0
 62
     3
  6
CONTINUOUS
  0
ENDTAB
  0
TABLE
  2
STYLE
 70
     2
  0
STYLE
  2
STANDARD
 70
     0
 40
0.0
 41
1.0
 50
0.0
 71
     0
 42
4.0
  3
TXT
  4
BIGFONT
  0
STYLE
  2
STANDARD1
 70
     0
 40
0.0
 41
1.0
 50
0.0
 71
     0
 42
3.0
  3
txt
  4

  0
ENDTAB
  0
TABLE
  2
VIEW
 70
     1
  0
VIEW
  2
ALL
 70
     0
 40
179.66152299999999
 10
141.903918
 20
89.830760999999995
 41
0.0
 11
0.0
 21
0.0
 31
1.0
 12
0.0
 22
0.0
 32
0.0
 42
0.0
 43
0.0
 44
0.0
 50
0.0
 71
     0
  0
ENDTAB
  0
TABLE
  2
UCS
 70
     0
  0
ENDTAB
  0
TABLE
  2
APPID
 70
     5
  0
APPID
  2
ACAD
 70
     0
  0
APPID
  2
DCO15
 70
     0
  0
APPID
  2
ACAD_MLEADERVER
 70
     0
  0
APPID
  2
ACAD_EXEMPT_FROM_CAD_STANDARDS
 70
     0
  0
APPID
  2
ACAD_NAV_VCDISPLAY
 70
     0
  0
ENDTAB
  0
TABLE
  2
DIMSTYLE
 70
     1
  0
DIMSTYLE
  2
STANDARD
 70
     0
  3

  4

  5

  6

  7

 40
1.0
 41
0.18
 42
0.0625
 43
0.38
 44
0.18
 45
0.0
 46
0.0
 47
0.0
 48
0.0
140
0.18
141
0.09
142
0.0
143
25.399999999999999
144
1.0
145
0.0
146
1.0
147
0.09
 71
     0
 72
     0
 73
     1
 74
     1
 75
     0
 76
     0
 77
     0
 78
     0
170
     0
171
     2
172
     0
173
     0
174
     0
175
     0
176
     0
177
     0
178
     0
  0
ENDTAB
  0
ENDSEC
  0
SECTION
  2
BLOCKS
  0
BLOCK
  8
0
  2
$MODEL_SPACE
 70
     0
 10
0.0
 20
0.0
 30
0.0
  3
$MODEL_SPACE
  1

  0
ENDBLK
  5
1BD
  8
0
  0
BLOCK
 67
     1
  8
0
  2
$PAPER_SPACE
 70
     0
 10
0.0
 20
0.0
 30
0.0
  3
$PAPER_SPACE
  1

  0
ENDBLK
  5
1BB
 67
     1
  8
0
  0
ENDSEC
  0
SECTION
  2
ENTITIES
  0
CIRCLE
  5
13BB
  8
3
 10
170.0
 20
50.0
 30
0.0
 40
6.9175000000000182
  0
CIRCLE
  5
13BC
  8
0
 10
170.0
 20
50.0
 30
0.0
 40
8.0
  0
TEXT
  5
15D5
  8
0
 62
     3
 10
0.0
 20
0.0
 30
0.0
 40
10.0
  1
FKR16X40-RE
  7
STANDARD1
  0
LINE
  5
16E8
  8
0
 10
154.49000000000001
 20
226.8169425198902
 30
0.0
 11
154.49000000000001
 21
202.0
 31
0.0
  0
LINE
  5
16E9
  8
0
 10
185.49000000000001
 20
202.0
 30
0.0
 11
185.49000000000001
 21
221.50000000000011
 31
0.0
  0
LINE
  5
16EA
  8
0
 10
268.01223850785192
 20
247.88000000000011
 30
0.0
 11
256.56366121276091
 21
247.88000000000011
 31
0.0
  0
LINE
  5
16EB
  8
0
 10
185.49000000000001
 20
202.0
 30
0.0
 11
154.49000000000001
 21
202.0
 31
0.0
  0
LINE
  5
16EC
  8
1
 10
169.99999999999989
 20
249.00000000000011
 30
0.0
 11
170.0
 21
140.00000000000159
 31
0.0
  0
LINE
  5
16ED
  8
0
 10
181.5
 20
190.0
 30
0.0
 11
181.5
 21
202.0
 31
0.0
  0
LINE
  5
16EE
  8
0
 10
158.5
 20
202.0
 30
0.0
 11
158.5
 21
190.0
 31
0.0
  0
LINE
  5
16EF
  8
0
 10
158.5
 20
190.0
 30
0.0
 11
181.5
 21
190.0
 31
0.0
  0
ARC
  5
16FD
  8
0
 10
315.50879381019161
 20
-135.0040224610502
 30
0.0
 40
400.23809523809518
 50
96.056605662905895
 51
113.0583295739705
  0
LINE
  5
16FE
  8
0
 10
273.27929008776641
 20
263.00000000000011
 30
0.0
 11
275.0
 21
263.00000000000011
 31
0.0
  0
LINE
  5
16FF
  8
0
 10
280.0
 20
258.0
 30
0.0
 11
280.0
 21
257.88418077223292
 31
0.0
  0
ARC
  5
1700
  8
0
 10
275.0
 20
258.0
 30
0.0
 40
5.0
 50
0.0
 51
90.0
  0
ARC
  5
1701
  8
0
 10
161.49000000000001
 20
226.8169425198902
 30
0.0
 40
7.0
 50
113.0583295739705
 51
180.0
  0
ARC
  5
1702
  8
0
 10
358.02690733866149
 20
-117.339231312292
 30
0.0
 40
380.2380952380953
 50
106.8398715328925
 51
116.9851905016815
  0
ARC
  5
1703
  8
0
 10
256.56366121276091
 20
217.88000000000011
 30
0.0
 40
30.0
 50
90.0
 51
106.8398715328925
  0
ARC
  5
1704
  8
0
 10
268.16696629961348
 20
259.87900242980459
 30
0.0
 40
12.0
 50
269.2612087409949
 51
350.43100633373308
  0
LINE
  5
1705
  8
0
 10
154.49000000000001
 20
335.07063618380789
 30
0.0
 11
154.49000000000001
 21
342.92936381619222
 31
0.0
  0
CIRCLE
  5
1706
  8
0
 10
171.30658339058209
 20
339.00000000000011
 30
0.0
 40
9.0840310268199538
  0
ARC
  5
1707
  8
0
 10
170.0
 20
339.00000000000011
 30
0.0
 40
16.0
 50
194.216422133284
 51
301.31463182247973
  0
ARC
  5
1708
  8
0
 10
272.5
 20
339.00000000000011
 30
0.0
 40
7.5
 50
270.0
 51
90.0
  0
ARC
  5
1709
  8
0
 10
203.8335514866933
 20
417.85237693586947
 30
0.0
 40
70.0
 50
248.62076358022841
 51
277.71778895748542
  0
LINE
  5
170A
  8
0
 10
214.93569585623109
 20
348.5706196817834
 30
0.0
 11
272.5
 21
346.50000000000011
 31
0.0
  0
ARC
  5
170B
  8
0
 10
214.57705991350909
 20
338.57705273796461
 30
0.0
 40
10.0
 50
87.944726668168784
 51
97.717788957485425
  0
ARC
  5
170C
  8
0
 10
203.8335514866933
 20
260.14762306413058
 30
0.0
 40
70.0
 50
82.282211042514575
 51
111.3792364197715
  0
LINE
  5
170D
  8
0
 10
214.93569585623109
 20
329.42938031821677
 30
0.0
 11
272.5
 21
331.50000000000011
 31
0.0
  0
ARC
  5
170E
  8
0
 10
214.57705991350909
 20
339.42294726203562
 30
0.0
 40
10.0
 50
262.28221104251458
 51
272.05527333183119
  0
ARC
  5
170F
  8
0
 10
170.0
 20
339.00000000000011
 30
0.0
 40
16.0
 50
58.685368177520239
 51
165.783577866716
  0
ARC
  5
1710
  8
0
 10
203.8335514866933
 20
128.85237693586939
 30
0.0
 40
70.0
 50
248.62076358022841
 51
277.71778895748542
  0
ARC
  5
1711
  8
0
 10
203.8335514866933
 20
-28.852376935869419
 30
0.0
 40
70.0
 50
82.282211042514575
 51
111.3792364197715
  0
LINE
  5
1712
  8
0
 10
154.49000000000001
 20
46.070636183807842
 30
0.0
 11
154.49000000000001
 21
53.929363816192158
 31
0.0
  0
ARC
  5
1713
  8
0
 10
170.0
 20
50.0
 30
0.0
 40
16.0
 50
194.21642213328411
 51
301.31463182247973
  0
ARC
  5
1714
  8
0
 10
170.0
 20
50.0
 30
0.0
 40
16.0
 50
58.685368177520239
 51
165.7835778667158
  0
ARC
  5
1715
  8
0
 10
272.5
 20
50.0
 30
0.0
 40
7.5
 50
270.0
 51
90.0
  0
ARC
  5
1716
  8
0
 10
214.57705991350909
 20
49.577052737964493
 30
0.0
 40
10.0
 50
87.944726668168784
 51
97.717788957485425
  0
LINE
  5
1717
  8
0
 10
214.93569585623109
 20
59.570619681783292
 30
0.0
 11
272.5
 21
57.5
 31
0.0
  0
LINE
  5
1718
  8
0
 10
214.93569585623109
 20
40.429380318216708
 30
0.0
 11
272.5
 21
42.5
 31
0.0
  0
ARC
  5
1719
  8
0
 10
214.57705991350909
 20
50.4229472620355
 30
0.0
 40
10.0
 50
262.28221104251458
 51
272.05527333183119
  0
CIRCLE
  5
171A
  8
0
 10
170.0
 20
50.0
 30
0.0
 40
11.5
  0
CIRCLE
  5
171B
  8
0
 10
170.0
 20
50.0
 30
0.0
 40
15.48999999999999
  0
LINE
  5
171E
  8
0
 10
61.5
 20
190.0
 30
0.0
 11
61.5
 21
202.0
 31
0.0
  0
LINE
  5
171F
  8
0
 10
38.5
 20
202.0
 30
0.0
 11
38.5
 21
190.0
 31
0.0
  0
LINE
  5
1720
  8
0
 10
38.5
 20
190.0
 30
0.0
 11
61.5
 21
190.0
 31
0.0
  0
LINE
  5
1721
  8
1
 10
50.0
 20
273.0
 30
0.0
 11
50.0
 21
140.0000000000025
 31
0.0
  0
LINE
  5
1722
  8
0
 10
57.090980084531672
 20
263.00000000000011
 30
0.0
 11
42.909019915468321
 21
263.00000000000011
 31
0.0
  0
LINE
  5
1723
  8
0
 10
65.5
 20
202.0
 30
0.0
 11
34.5
 21
202.0
 31
0.0
  0
LINE
  5
1724
  8
0
 10
65.995994219062936
 20
237.66198712077491
 30
0.0
 11
65.5
 21
202.0
 31
0.0
  0
LINE
  5
1725
  8
0
 10
61.640558795498457
 20
233.25768868750919
 30
0.0
 11
38.359441204501543
 21
233.25768868750919
 31
0.0
  0
POLYLINE
  5
1726
  8
0
 10
61.640558795498507
 20
233.25768868750927
 30
0.0
 66
     1
 70
     8
  0
VERTEX
  8
0
  5
1A07
 10
61.6406
 20
233.258
 30
0.000000
  70
    32
  0
VERTEX
  8
0
  5
1A08
 10
62.0319
 20
233.436
 30
0.000000
  70
    32
  0
VERTEX
  8
0
  5
1A09
 10
62.4073
 20
233.620
 30
0.000000
  70
    32
  0
VERTEX
  8
0
  5
1A0A
 10
62.7663
 20
233.810
 30
0.000000
  70
    32
  0
VERTEX
  8
0
  5
1A0B
 10
63.1085
 20
234.005
 30
0.000000
  70
    32
  0
VERTEX
  8
0
  5
1A0C
 10
63.4333
 20
234.204
 30
0.000000
  70
    32
  0
VERTEX
  8
0
  5
1A0D
 10
63.7403
 20
234.409
 30
0.000000
  70
    32
  0
VERTEX
  8
0
  5
1A0E
 10
64.0292
 20
234.618
 30
0.000000
  70
    32
  0
VERTEX
  8
0
  5
1A0F
 10
64.2996
 20
234.832
 30
0.000000
  70
    32
  0
VERTEX
  8
0
  5
1A10
 10
64.5511
 20
235.049
 30
0.000000
  70
    32
  0
VERTEX
  8
0
  5
1A11
 10
64.7833
 20
235.270
 30
0.000000
  70
    32
  0
VERTEX
  8
0
  5
1A12
 10
64.9960
 20
235.494
 30
0.000000
  70
    32
  0
VERTEX
  8
0
  5
1A13
 10
65.1888
 20
235.722
 30
0.000000
  70
    32
  0
VERTEX
  8
0
  5
1A14
 10
65.3616
 20
235.952
 30
0.000000
  70
    32
  0
VERTEX
  8
0
  5
1A15
 10
65.5141
 20
236.184
 30
0.000000
  70
    32
  0
VERTEX
  8
0
  5
1A16
 10
65.6461
 20
236.419
 30
0.000000
  70
    32
  0
VERTEX
  8
0
  5
1A17
 10
65.7574
 20
236.655
 30
0.000000
  70
    32
  0
VERTEX
  8
0
  5
1A18
 10
65.8479
 20
236.893
 30
0.000000
  70
    32
  0
VERTEX
  8
0
  5
1A19
 10
65.9174
 20
237.133
 30
0.000000
  70
    32
  0
VERTEX
  8
0
  5
1A1A
 10
65.9659
 20
237.373
 30
0.000000
  70
    32
  0
VERTEX
  8
0
  5
1A1B
 10
65.9933
 20
237.614
 30
0.000000
  70
    32
  0
VERTEX
  8
0
  5
1A1C
 10
65.9996
 20
237.854
 30
0.000000
  70
    32
  0
VERTEX
  8
0
  5
1A1D
 10
65.9847
 20
238.095
 30
0.000000
  70
    32
  0
VERTEX
  8
0
  5
1A1E
 10
65.9486
 20
238.336
 30
0.000000
  70
    32
  0
VERTEX
  8
0
  5
1A1F
 10
65.8915
 20
238.576
 30
0.000000
  70
    32
  0
VERTEX
  8
0
  5
1A20
 10
65.8134
 20
238.814
 30
0.000000
  70
    32
  0
VERTEX
  8
0
  5
1A21
 10
65.7144
 20
239.052
 30
0.000000
  70
    32
  0
VERTEX
  8
0
  5
1A22
 10
65.5947
 20
239.288
 30
0.000000
  70
    32
  0
VERTEX
  8
0
  5
1A23
 10
65.4543
 20
239.522
 30
0.000000
  70
    32
  0
VERTEX
  8
0
  5
1A24
 10
65.2935
 20
239.753
 30
0.000000
  70
    32
  0
VERTEX
  8
0
  5
1A25
 10
65.1124
 20
239.982
 30
0.000000
  70
    32
  0
VERTEX
  8
0
  5
1A26
 10
64.9114
 20
240.208
 30
0.000000
  70
    32
  0
VERTEX
  8
0
  5
1A27
 10
64.6907
 20
240.431
 30
0.000000
  70
    32
  0
VERTEX
  8
0
  5
1A28
 10
64.4506
 20
240.651
 30
0.000000
  70
    32
  0
VERTEX
  8
0
  5
1A29
 10
64.1914
 20
240.867
 30
0.000000
  70
    32
  0
VERTEX
  8
0
  5
1A2A
 10
63.9134
 20
241.078
 30
0.000000
  70
    32
  0
VERTEX
  8
0
  5
1A2B
 10
63.6170
 20
241.286
 30
0.000000
  70
    32
  0
VERTEX
  8
0
  5
1A2C
 10
63.3026
 20
241.488
 30
0.000000
  70
    32
  0
VERTEX
  8
0
  5
1A2D
 10
62.9707
 20
241.686
 30
0.000000
  70
    32
  0
VERTEX
  8
0
  5
1A2E
 10
62.6216
 20
241.879
 30
0.000000
  70
    32
  0
VERTEX
  8
0
  5
1A2F
 10
62.2558
 20
242.066
 30
0.000000
  70
    32
  0
VERTEX
  8
0
  5
1A30
 10
61.8738
 20
242.248
 30
0.000000
  70
    32
  0
VERTEX
  8
0
  5
1A31
 10
61.4762
 20
242.424
 30
0.000000
  70
    32
  0
VERTEX
  8
0
  5
1A32
 10
61.0633
 20
242.594
 30
0.000000
  70
    32
  0
VERTEX
  8
0
  5
1A33
 10
60.6359
 20
242.757
 30
0.000000
  70
    32
  0
VERTEX
  8
0
  5
1A34
 10
60.1943
 20
242.914
 30
0.000000
  70
    32
  0
VERTEX
  8
0
  5
1A35
 10
59.7393
 20
243.064
 30
0.000000
  70
    32
  0
VERTEX
  8
0
  5
1A36
 10
59.2715
 20
243.207
 30
0.000000
  70
    32
  0
VERTEX
  8
0
  5
1A37
 10
58.7914
 20
243.343
 30
0.000000
  70
    32
  0
VERTEX
  8
0
  5
1A38
 10
58.2996
 20
243.472
 30
0.000000
  70
    32
  0
VERTEX
  8
0
  5
1A39
 10
57.7969
 20
243.593
 30
0.000000
  70
    32
  0
VERTEX
  8
0
  5
1A3A
 10
57.2839
 20
243.707
 30
0.000000
  70
    32
  0
VERTEX
  8
0
  5
1A3B
 10
56.7613
 20
243.813
 30
0.000000
  70
    32
  0
VERTEX
  8
0
  5
1A3C
 10
56.2297
 20
243.911
 30
0.000000
  70
    32
  0
VERTEX
  8
0
  5
1A3D
 10
55.6899
 20
244.000
 30
0.000000
  70
    32
  0
VERTEX
  8
0
  5
1A3E
 10
55.1425
 20
244.082
 30
0.000000
  70
    32
  0
VERTEX
  8
0
  5
1A3F
 10
54.5884
 20
244.155
 30
0.000000
  70
    32
  0
VERTEX
  8
0
  5
1A40
 10
54.0282
 20
244.220
 30
0.000000
  70
    32
  0
VERTEX
  8
0
  5
1A41
 10
53.4627
 20
244.277
 30
0.000000
  70
    32
  0
VERTEX
  8
0
  5
1A42
 10
52.8926
 20
244.324
 30
0.000000
  70
    32
  0
VERTEX
  8
0
  5
1A43
 10
52.3187
 20
244.364
 30
0.000000
  70
    32
  0
VERTEX
  8
0
  5
1A44
 10
51.7417
 20
244.394
 30
0.000000
  70
    32
  0
VERTEX
  8
0
  5
1A45
 10
51.1624
 20
244.416
 30
0.000000
  70
    32
  0
VERTEX
  8
0
  5
1A46
 10
50.5816
 20
244.429
 30
0.000000
  70
    32
  0
VERTEX
  8
0
  5
1A47
 10
50.0000
 20
244.434
 30
0.000000
  70
    32
  0
VERTEX
  8
0
  5
1A48
 10
49.4184
 20
244.429
 30
0.000000
  70
    32
  0
VERTEX
  8
0
  5
1A49
 10
48.8376
 20
244.416
 30
0.000000
  70
    32
  0
VERTEX
  8
0
  5
1A4A
 10
48.2583
 20
244.394
 30
0.000000
  70
    32
  0
VERTEX
  8
0
  5
1A4B
 10
47.6813
 20
244.364
 30
0.000000
  70
    32
  0
VERTEX
  8
0
  5
1A4C
 10
47.1074
 20
244.324
 30
0.000000
  70
    32
  0
VERTEX
  8
0
  5
1A4D
 10
46.5373
 20
244.277
 30
0.000000
  70
    32
  0
VERTEX
  8
0
  5
1A4E
 10
45.9718
 20
244.220
 30
0.000000
  70
    32
  0
VERTEX
  8
0
  5
1A4F
 10
45.4116
 20
244.155
 30
0.000000
  70
    32
  0
VERTEX
  8
0
  5
1A50
 10
44.8575
 20
244.082
 30
0.000000
  70
    32
  0
VERTEX
  8
0
  5
1A51
 10
44.3101
 20
244.000
 30
0.000000
  70
    32
  0
VERTEX
  8
0
  5
1A52
 10
43.7703
 20
243.911
 30
0.000000
  70
    32
  0
VERTEX
  8
0
  5
1A53
 10
43.2387
 20
243.813
 30
0.000000
  70
    32
  0
VERTEX
  8
0
  5
1A54
 10
42.7161
 20
243.707
 30
0.000000
  70
    32
  0
VERTEX
  8
0
  5
1A55
 10
42.2031
 20
243.593
 30
0.000000
  70
    32
  0
VERTEX
  8
0
  5
1A56
 10
41.7004
 20
243.472
 30
0.000000
  70
    32
  0
VERTEX
  8
0
  5
1A57
 10
41.2086
 20
243.343
 30
0.000000
  70
    32
  0
VERTEX
  8
0
  5
1A58
 10
40.7285
 20
243.207
 30
0.000000
  70
    32
  0
VERTEX
  8
0
  5
1A59
 10
40.2607
 20
243.064
 30
0.000000
  70
    32
  0
VERTEX
  8
0
  5
1A5A
 10
39.8057
 20
242.914
 30
0.000000
  70
    32
  0
VERTEX
  8
0
  5
1A5B
 10
39.3641
 20
242.757
 30
0.000000
  70
    32
  0
VERTEX
  8
0
  5
1A5C
 10
38.9367
 20
242.594
 30
0.000000
  70
    32
  0
VERTEX
  8
0
  5
1A5D
 10
38.5238
 20
242.424
 30
0.000000
  70
    32
  0
VERTEX
  8
0
  5
1A5E
 10
38.1262
 20
242.248
 30
0.000000
  70
    32
  0
VERTEX
  8
0
  5
1A5F
 10
37.7442
 20
242.066
 30
0.000000
  70
    32
  0
VERTEX
  8
0
  5
1A60
 10
37.3784
 20
241.879
 30
0.000000
  70
    32
  0
VERTEX
  8
0
  5
1A61
 10
37.0293
 20
241.686
 30
0.000000
  70
    32
  0
VERTEX
  8
0
  5
1A62
 10
36.6974
 20
241.488
 30
0.000000
  70
    32
  0
VERTEX
  8
0
  5
1A63
 10
36.3830
 20
241.286
 30
0.000000
  70
    32
  0
VERTEX
  8
0
  5
1A64
 10
36.0866
 20
241.078
 30
0.000000
  70
    32
  0
VERTEX
  8
0
  5
1A65
 10
35.8086
 20
240.867
 30
0.000000
  70
    32
  0
VERTEX
  8
0
  5
1A66
 10
35.5494
 20
240.651
 30
0.000000
  70
    32
  0
VERTEX
  8
0
  5
1A67
 10
35.3093
 20
240.431
 30
0.000000
  70
    32
  0
VERTEX
  8
0
  5
1A68
 10
35.0886
 20
240.208
 30
0.000000
  70
    32
  0
VERTEX
  8
0
  5
1A69
 10
34.8876
 20
239.982
 30
0.000000
  70
    32
  0
VERTEX
  8
0
  5
1A6A
 10
34.7065
 20
239.753
 30
0.000000
  70
    32
  0
VERTEX
  8
0
  5
1A6B
 10
34.5457
 20
239.522
 30
0.000000
  70
    32
  0
VERTEX
  8
0
  5
1A6C
 10
34.4053
 20
239.288
 30
0.000000
  70
    32
  0
VERTEX
  8
0
  5
1A6D
 10
34.2856
 20
239.052
 30
0.000000
  70
    32
  0
VERTEX
  8
0
  5
1A6E
 10
34.1866
 20
238.814
 30
0.000000
  70
    32
  0
VERTEX
  8
0
  5
1A6F
 10
34.1085
 20
238.576
 30
0.000000
  70
    32
  0
VERTEX
  8
0
  5
1A70
 10
34.0514
 20
238.336
 30
0.000000
  70
    32
  0
VERTEX
  8
0
  5
1A71
 10
34.0153
 20
238.095
 30
0.000000
  70
    32
  0
VERTEX
  8
0
  5
1A72
 10
34.0004
 20
237.854
 30
0.000000
  70
    32
  0
VERTEX
  8
0
  5
1A73
 10
34.0067
 20
237.614
 30
0.000000
  70
    32
  0
VERTEX
  8
0
  5
1A74
 10
34.0341
 20
237.373
 30
0.000000
  70
    32
  0
VERTEX
  8
0
  5
1A75
 10
34.0826
 20
237.133
 30
0.000000
  70
    32
  0
VERTEX
  8
0
  5
1A76
 10
34.1521
 20
236.893
 30
0.000000
  70
    32
  0
VERTEX
  8
0
  5
1A77
 10
34.2426
 20
236.655
 30
0.000000
  70
    32
  0
VERTEX
  8
0
  5
1A78
 10
34.3539
 20
236.419
 30
0.000000
  70
    32
  0
VERTEX
  8
0
  5
1A79
 10
34.4859
 20
236.184
 30
0.000000
  70
    32
  0
VERTEX
  8
0
  5
1A7A
 10
34.6384
 20
235.952
 30
0.000000
  70
    32
  0
VERTEX
  8
0
  5
1A7B
 10
34.8112
 20
235.722
 30
0.000000
  70
    32
  0
VERTEX
  8
0
  5
1A7C
 10
35.0040
 20
235.494
 30
0.000000
  70
    32
  0
VERTEX
  8
0
  5
1A7D
 10
35.2167
 20
235.270
 30
0.000000
  70
    32
  0
VERTEX
  8
0
  5
1A7E
 10
35.4489
 20
235.049
 30
0.000000
  70
    32
  0
VERTEX
  8
0
  5
1A7F
 10
35.7004
 20
234.832
 30
0.000000
  70
    32
  0
VERTEX
  8
0
  5
1A80
 10
35.9708
 20
234.618
 30
0.000000
  70
    32
  0
VERTEX
  8
0
  5
1A81
 10
36.2597
 20
234.409
 30
0.000000
  70
    32
  0
VERTEX
  8
0
  5
1A82
 10
36.5667
 20
234.204
 30
0.000000
  70
    32
  0
VERTEX
  8
0
  5
1A83
 10
36.8915
 20
234.005
 30
0.000000
  70
    32
  0
VERTEX
  8
0
  5
1A84
 10
37.2337
 20
233.810
 30
0.000000
  70
    32
  0
VERTEX
  8
0
  5
1A85
 10
37.5927
 20
233.620
 30
0.000000
  70
    32
  0
VERTEX
  8
0
  5
1A86
 10
37.9681
 20
233.436
 30
0.000000
  70
    32
  0
VERTEX
  8
0
  5
1A87
 10
38.3594
 20
233.258
 30
0.000000
  70
    32
  0
SEQEND
  8
0
  5
1A88
  0
POLYLINE
  5
1727
  8
0
 10
51.626106706223105
 20
234.97682238397144
 30
0.0
 66
     1
 70
     8
  0
VERTEX
  8
0
  5
1A89
 10
51.6261
 20
234.977
 30
0.000000
  70
    32
  0
VERTEX
  8
0
  5
1A8A
 10
52.0356
 20
235.009
 30
0.000000
  70
    32
  0
VERTEX
  8
0
  5
1A8B
 10
52.4407
 20
235.048
 30
0.000000
  70
    32
  0
VERTEX
  8
0
  5
1A8C
 10
52.8406
 20
235.094
 30
0.000000
  70
    32
  0
VERTEX
  8
0
  5
1A8D
 10
53.2344
 20
235.148
 30
0.000000
  70
    32
  0
VERTEX
  8
0
  5
1A8E
 10
53.6213
 20
235.208
 30
0.000000
  70
    32
  0
VERTEX
  8
0
  5
1A8F
 10
54.0004
 20
235.275
 30
0.000000
  70
    32
  0
VERTEX
  8
0
  5
1A90
 10
54.3710
 20
235.348
 30
0.000000
  70
    32
  0
VERTEX
  8
0
  5
1A91
 10
54.7322
 20
235.428
 30
0.000000
  70
    32
  0
VERTEX
  8
0
  5
1A92
 10
55.0833
 20
235.514
 30
0.000000
  70
    32
  0
VERTEX
  8
0
  5
1A93
 10
55.4236
 20
235.606
 30
0.000000
  70
    32
  0
VERTEX
  8
0
  5
1A94
 10
55.7522
 20
235.704
 30
0.000000
  70
    32
  0
VERTEX
  8
0
  5
1A95
 10
56.0685
 20
235.808
 30
0.000000
  70
    32
  0
VERTEX
  8
0
  5
1A96
 10
56.3718
 20
235.917
 30
0.000000
  70
    32
  0
VERTEX
  8
0
  5
1A97
 10
56.6615
 20
236.031
 30
0.000000
  70
    32
  0
VERTEX
  8
0
  5
1A98
 10
56.9370
 20
236.150
 30
0.000000
  70
    32
  0
VERTEX
  8
0
  5
1A99
 10
57.1976
 20
236.274
 30
0.000000
  70
    32
  0
VERTEX
  8
0
  5
1A9A
 10
57.4428
 20
236.403
 30
0.000000
  70
    32
  0
VERTEX
  8
0
  5
1A9B
 10
57.6720
 20
236.535
 30
0.000000
  70
    32
  0
VERTEX
  8
0
  5
1A9C
 10
57.8849
 20
236.672
 30
0.000000
  70
    32
  0
VERTEX
  8
0
  5
1A9D
 10
58.0809
 20
236.812
 30
0.000000
  70
    32
  0
VERTEX
  8
0
  5
1A9E
 10
58.2596
 20
236.955
 30
0.000000
  70
    32
  0
VERTEX
  8
0
  5
1A9F
 10
58.4206
 20
237.101
 30
0.000000
  70
    32
  0
VERTEX
  8
0
  5
1AA0
 10
58.5636
 20
237.250
 30
0.000000
  70
    32
  0
VERTEX
  8
0
  5
1AA1
 10
58.6883
 20
237.401
 30
0.000000
  70
    32
  0
VERTEX
  8
0
  5
1AA2
 10
58.7944
 20
237.555
 30
0.000000
  70
    32
  0
VERTEX
  8
0
  5
1AA3
 10
58.8816
 20
237.710
 30
0.000000
  70
    32
  0
VERTEX
  8
0
  5
1AA4
 10
58.9499
 20
237.866
 30
0.000000
  70
    32
  0
VERTEX
  8
0
  5
1AA5
 10
58.9990
 20
238.024
 30
0.000000
  70
    32
  0
VERTEX
  8
0
  5
1AA6
 10
59.0289
 20
238.182
 30
0.000000
  70
    32
  0
VERTEX
  8
0
  5
1AA7
 10
59.0394
 20
238.340
 30
0.000000
  70
    32
  0
VERTEX
  8
0
  5
1AA8
 10
59.0306
 20
238.499
 30
0.000000
  70
    32
  0
VERTEX
  8
0
  5
1AA9
 10
59.0025
 20
238.657
 30
0.000000
  70
    32
  0
VERTEX
  8
0
  5
1AAA
 10
58.9551
 20
238.814
 30
0.000000
  70
    32
  0
VERTEX
  8
0
  5
1AAB
 10
58.8886
 20
238.971
 30
0.000000
  70
    32
  0
VERTEX
  8
0
  5
1AAC
 10
58.8030
 20
239.126
 30
0.000000
  70
    32
  0
VERTEX
  8
0
  5
1AAD
 10
58.6986
 20
239.279
 30
0.000000
  70
    32
  0
VERTEX
  8
0
  5
1AAE
 10
58.5756
 20
239.431
 30
0.000000
  70
    32
  0
VERTEX
  8
0
  5
1AAF
 10
58.4342
 20
239.580
 30
0.000000
  70
    32
  0
VERTEX
  8
0
  5
1AB0
 10
58.2748
 20
239.726
 30
0.000000
  70
    32
  0
VERTEX
  8
0
  5
1AB1
 10
58.0977
 20
239.870
 30
0.000000
  70
    32
  0
VERTEX
  8
0
  5
1AB2
 10
57.9033
 20
240.010
 30
0.000000
  70
    32
  0
VERTEX
  8
0
  5
1AB3
 10
57.6919
 20
240.147
 30
0.000000
  70
    32
  0
VERTEX
  8
0
  5
1AB4
 10
57.4641
 20
240.280
 30
0.000000
  70
    32
  0
VERTEX
  8
0
  5
1AB5
 10
57.2203
 20
240.409
 30
0.000000
  70
    32
  0
VERTEX
  8
0
  5
1AB6
 10
56.9611
 20
240.533
 30
0.000000
  70
    32
  0
VERTEX
  8
0
  5
1AB7
 10
56.6869
 20
240.653
 30
0.000000
  70
    32
  0
VERTEX
  8
0
  5
1AB8
 10
56.3985
 20
240.767
 30
0.000000
  70
    32
  0
VERTEX
  8
0
  5
1AB9
 10
56.0964
 20
240.877
 30
0.000000
  70
    32
  0
VERTEX
  8
0
  5
1ABA
 10
55.7812
 20
240.981
 30
0.000000
  70
    32
  0
VERTEX
  8
0
  5
1ABB
 10
55.4537
 20
241.080
 30
0.000000
  70
    32
  0
VERTEX
  8
0
  5
1ABC
 10
55.1145
 20
241.172
 30
0.000000
  70
    32
  0
VERTEX
  8
0
  5
1ABD
 10
54.7643
 20
241.259
 30
0.000000
  70
    32
  0
VERTEX
  8
0
  5
1ABE
 10
54.4040
 20
241.339
 30
0.000000
  70
    32
  0
VERTEX
  8
0
  5
1ABF
 10
54.0342
 20
241.413
 30
0.000000
  70
    32
  0
VERTEX
  8
0
  5
1AC0
 10
53.6558
 20
241.481
 30
0.000000
  70
    32
  0
VERTEX
  8
0
  5
1AC1
 10
53.2696
 20
241.542
 30
0.000000
  70
    32
  0
VERTEX
  8
0
  5
1AC2
 10
52.8763
 20
241.595
 30
0.000000
  70
    32
  0
VERTEX
  8
0
  5
1AC3
 10
52.4770
 20
241.642
 30
0.000000
  70
    32
  0
VERTEX
  8
0
  5
1AC4
 10
52.0723
 20
241.682
 30
0.000000
  70
    32
  0
VERTEX
  8
0
  5
1AC5
 10
51.6632
 20
241.715
 30
0.000000
  70
    32
  0
VERTEX
  8
0
  5
1AC6
 10
51.2505
 20
241.741
 30
0.000000
  70
    32
  0
VERTEX
  8
0
  5
1AC7
 10
50.8352
 20
241.759
 30
0.000000
  70
    32
  0
VERTEX
  8
0
  5
1AC8
 10
50.4180
 20
241.770
 30
0.000000
  70
    32
  0
VERTEX
  8
0
  5
1AC9
 10
50.0000
 20
241.774
 30
0.000000
  70
    32
  0
VERTEX
  8
0
  5
1ACA
 10
49.5820
 20
241.770
 30
0.000000
  70
    32
  0
VERTEX
  8
0
  5
1ACB
 10
49.1648
 20
241.759
 30
0.000000
  70
    32
  0
VERTEX
  8
0
  5
1ACC
 10
48.7495
 20
241.741
 30
0.000000
  70
    32
  0
VERTEX
  8
0
  5
1ACD
 10
48.3368
 20
241.715
 30
0.000000
  70
    32
  0
VERTEX
  8
0
  5
1ACE
 10
47.9277
 20
241.682
 30
0.000000
  70
    32
  0
VERTEX
  8
0
  5
1ACF
 10
47.5230
 20
241.642
 30
0.000000
  70
    32
  0
VERTEX
  8
0
  5
1AD0
 10
47.1237
 20
241.595
 30
0.000000
  70
    32
  0
VERTEX
  8
0
  5
1AD1
 10
46.7304
 20
241.542
 30
0.000000
  70
    32
  0
VERTEX
  8
0
  5
1AD2
 10
46.3442
 20
241.481
 30
0.000000
  70
    32
  0
VERTEX
  8
0
  5
1AD3
 10
45.9658
 20
241.413
 30
0.000000
  70
    32
  0
VERTEX
  8
0
  5
1AD4
 10
45.5960
 20
241.339
 30
0.000000
  70
    32
  0
VERTEX
  8
0
  5
1AD5
 10
45.2357
 20
241.259
 30
0.000000
  70
    32
  0
VERTEX
  8
0
  5
1AD6
 10
44.8855
 20
241.172
 30
0.000000
  70
    32
  0
VERTEX
  8
0
  5
1AD7
 10
44.5463
 20
241.080
 30
0.000000
  70
    32
  0
VERTEX
  8
0
  5
1AD8
 10
44.2188
 20
240.981
 30
0.000000
  70
    32
  0
VERTEX
  8
0
  5
1AD9
 10
43.9036
 20
240.877
 30
0.000000
  70
    32
  0
VERTEX
  8
0
  5
1ADA
 10
43.6015
 20
240.767
 30
0.000000
  70
    32
  0
VERTEX
  8
0
  5
1ADB
 10
43.3131
 20
240.653
 30
0.000000
  70
    32
  0
VERTEX
  8
0
  5
1ADC
 10
43.0389
 20
240.533
 30
0.000000
  70
    32
  0
VERTEX
  8
0
  5
1ADD
 10
42.7797
 20
240.409
 30
0.000000
  70
    32
  0
VERTEX
  8
0
  5
1ADE
 10
42.5359
 20
240.280
 30
0.000000
  70
    32
  0
VERTEX
  8
0
  5
1ADF
 10
42.3081
 20
240.147
 30
0.000000
  70
    32
  0
VERTEX
  8
0
  5
1AE0
 10
42.0967
 20
240.010
 30
0.000000
  70
    32
  0
VERTEX
  8
0
  5
1AE1
 10
41.9023
 20
239.870
 30
0.000000
  70
    32
  0
VERTEX
  8
0
  5
1AE2
 10
41.7252
 20
239.726
 30
0.000000
  70
    32
  0
VERTEX
  8
0
  5
1AE3
 10
41.5658
 20
239.580
 30
0.000000
  70
    32
  0
VERTEX
  8
0
  5
1AE4
 10
41.4244
 20
239.431
 30
0.000000
  70
    32
  0
VERTEX
  8
0
  5
1AE5
 10
41.3014
 20
239.279
 30
0.000000
  70
    32
  0
VERTEX
  8
0
  5
1AE6
 10
41.1970
 20
239.126
 30
0.000000
  70
    32
  0
VERTEX
  8
0
  5
1AE7
 10
41.1114
 20
238.971
 30
0.000000
  70
    32
  0
VERTEX
  8
0
  5
1AE8
 10
41.0449
 20
238.814
 30
0.000000
  70
    32
  0
VERTEX
  8
0
  5
1AE9
 10
40.9975
 20
238.657
 30
0.000000
  70
    32
  0
VERTEX
  8
0
  5
1AEA
 10
40.9694
 20
238.499
 30
0.000000
  70
    32
  0
VERTEX
  8
0
  5
1AEB
 10
40.9606
 20
238.340
 30
0.000000
  70
    32
  0
VERTEX
  8
0
  5
1AEC
 10
40.9711
 20
238.182
 30
0.000000
  70
    32
  0
VERTEX
  8
0
  5
1AED
 10
41.0010
 20
238.024
 30
0.000000
  70
    32
  0
VERTEX
  8
0
  5
1AEE
 10
41.0501
 20
237.866
 30
0.000000
  70
    32
  0
VERTEX
  8
0
  5
1AEF
 10
41.1184
 20
237.710
 30
0.000000
  70
    32
  0
VERTEX
  8
0
  5
1AF0
 10
41.2056
 20
237.555
 30
0.000000
  70
    32
  0
VERTEX
  8
0
  5
1AF1
 10
41.3117
 20
237.401
 30
0.000000
  70
    32
  0
VERTEX
  8
0
  5
1AF2
 10
41.4364
 20
237.250
 30
0.000000
  70
    32
  0
VERTEX
  8
0
  5
1AF3
 10
41.5794
 20
237.101
 30
0.000000
  70
    32
  0
VERTEX
  8
0
  5
1AF4
 10
41.7404
 20
236.955
 30
0.000000
  70
    32
  0
VERTEX
  8
0
  5
1AF5
 10
41.9191
 20
236.812
 30
0.000000
  70
    32
  0
VERTEX
  8
0
  5
1AF6
 10
42.1151
 20
236.672
 30
0.000000
  70
    32
  0
VERTEX
  8
0
  5
1AF7
 10
42.3280
 20
236.535
 30
0.000000
  70
    32
  0
VERTEX
  8
0
  5
1AF8
 10
42.5572
 20
236.403
 30
0.000000
  70
    32
  0
VERTEX
  8
0
  5
1AF9
 10
42.8024
 20
236.274
 30
0.000000
  70
    32
  0
VERTEX
  8
0
  5
1AFA
 10
43.0630
 20
236.150
 30
0.000000
  70
    32
  0
VERTEX
  8
0
  5
1AFB
 10
43.3385
 20
236.031
 30
0.000000
  70
    32
  0
VERTEX
  8
0
  5
1AFC
 10
43.6282
 20
235.917
 30
0.000000
  70
    32
  0
VERTEX
  8
0
  5
1AFD
 10
43.9315
 20
235.808
 30
0.000000
  70
    32
  0
VERTEX
  8
0
  5
1AFE
 10
44.2478
 20
235.704
 30
0.000000
  70
    32
  0
VERTEX
  8
0
  5
1AFF
 10
44.5764
 20
235.606
 30
0.000000
  70
    32
  0
VERTEX
  8
0
  5
1B00
 10
44.9167
 20
235.514
 30
0.000000
  70
    32
  0
VERTEX
  8
0
  5
1B01
 10
45.2678
 20
235.428
 30
0.000000
  70
    32
  0
VERTEX
  8
0
  5
1B02
 10
45.6290
 20
235.348
 30
0.000000
  70
    32
  0
VERTEX
  8
0
  5
1B03
 10
45.9996
 20
235.275
 30
0.000000
  70
    32
  0
VERTEX
  8
0
  5
1B04
 10
46.3787
 20
235.208
 30
0.000000
  70
    32
  0
VERTEX
  8
0
  5
1B05
 10
46.7656
 20
235.148
 30
0.000000
  70
    32
  0
VERTEX
  8
0
  5
1B06
 10
47.1594
 20
235.094
 30
0.000000
  70
    32
  0
VERTEX
  8
0
  5
1B07
 10
47.5593
 20
235.048
 30
0.000000
  70
    32
  0
VERTEX
  8
0
  5
1B08
 10
47.9644
 20
235.009
 30
0.000000
  70
    32
  0
VERTEX
  8
0
  5
1B09
 10
48.3739
 20
234.977
 30
0.000000
  70
    32
  0
SEQEND
  8
0
  5
1B0A
  0
LINE
  5
1728
  8
0
 10
51.62610670622314
 20
234.97682238397141
 30
0.0
 11
48.373893293776852
 21
234.97682238397141
 31
0.0
  0
LINE
  5
1729
  8
0
 10
59.552511310459067
 20
252.84896606910141
 30
0.0
 11
57.581062244235341
 21
262.59909327293099
 31
0.0
  0
ARC
  5
172A
  8
0
 10
57.090980084531672
 20
262.5
 30
0.0
 40
0.5
 50
11.430933167673009
 51
90.0
  0
ARC
  5
172B
  8
0
 10
65.832643228812117
 20
249.5227686241175
 30
0.0
 40
7.0
 50
154.51463373653701
 51
197.21129352201271
  0
ARC
  5
172C
  8
0
 10
59.062429150755293
 20
252.74987279617039
 30
0.0
 40
0.5
 50
334.51463373653701
 51
11.430933167673009
  0
LINE
  5
172D
  8
0
 10
59.562429150755293
 20
252.74987279617039
 30
0.0
 11
59.562429150755293
 21
246.4577966731178
 31
0.0
  0
ARC
  5
172E
  8
0
 10
73.180170919512761
 20
252.7472409346914
 30
0.0
 40
15.0
 50
200.6739670691756
 51
228.25678132130369
  0
LINE
  5
172F
  8
0
 10
40.437570849244707
 20
252.74987279617039
 30
0.0
 11
40.437570849244707
 21
246.4577966731178
 31
0.0
  0
ARC
  5
1730
  8
0
 10
34.16735677118789
 20
249.5227686241175
 30
0.0
 40
7.0
 50
342.7887064779872
 51
25.485366263463028
  0
ARC
  5
1731
  8
0
 10
26.819829080487239
 20
252.7472409346914
 30
0.0
 40
15.0
 50
311.74321867869628
 51
339.32603293082423
  0
LINE
  5
1732
  8
0
 10
40.447488689540933
 20
252.84896606910141
 30
0.0
 11
42.418937755764659
 21
262.59909327293099
 31
0.0
  0
ARC
  5
1733
  8
0
 10
40.937570849244707
 20
252.74987279617039
 30
0.0
 40
0.5
 50
168.56906683232691
 51
205.48536626346299
  0
ARC
  5
1734
  8
0
 10
42.909019915468321
 20
262.5
 30
0.0
 40
0.5
 50
90.0
 51
168.56906683232691
  0
LINE
  5
1735
  8
0
 10
358.60270169968919
 20
258.37147548531681
 30
0.0
 11
361.33634842431468
 21
258.37147548531681
 31
0.0
  0
LINE
  5
1736
  8
0
 10
358.30871091861229
 20
257.87402214156589
 30
0.0
 11
361.66958682347661
 21
257.87402214156589
 31
0.0
  0
LINE
  5
1737
  8
0
 10
351.80612586249589
 20
247.54152414843361
 30
0.0
 11
368.19387413750383
 21
247.54152414843361
 31
0.0
  0
LINE
  5
1738
  8
0
 10
352.51100495131061
 20
249.4370434012304
 30
0.0
 11
367.48899504868922
 21
249.4370434012304
 31
0.0
  0
LINE
  5
1739
  8
0
 10
352.47310974923607
 20
248.6835605342043
 30
0.0
 11
367.5268902507637
 21
248.6835605342043
 31
0.0
  0
LINE
  5
173A
  8
0
 10
368.09346744541369
 20
247.88000000000011
 30
0.0
 11
351.90653255458619
 21
247.88000000000011
 31
0.0
  0
LINE
  5
173C
  8
0
 10
352.49999999999989
 20
262.73172127385862
 30
0.0
 11
352.49999999999989
 21
249.30091292661101
 31
0.0
  0
LINE
  5
173D
  8
0
 10
367.49999999999989
 20
262.73172127385862
 30
0.0
 11
367.49999999999989
 21
249.2182283056205
 31
0.0
  0
LINE
  5
173E
  8
0
 10
375.49999999999989
 20
202.0
 30
0.0
 11
344.49999999999989
 21
202.0
 31
0.0
  0
LINE
  5
173F
  8
1
 10
359.99999999999989
 20
251.00000000000011
 30
0.0
 11
359.99999999999989
 21
201.00000000000011
 31
0.0
  0
LINE
  5
1740
  8
0
 10
371.49999999999989
 20
190.0
 30
0.0
 11
371.49999999999989
 21
202.0
 31
0.0
  0
LINE
  5
1741
  8
0
 10
348.49999999999989
 20
202.0
 30
0.0
 11
348.49999999999989
 21
190.0
 31
0.0
  0
LINE
  5
1742
  8
0
 10
348.49999999999989
 20
190.0
 30
0.0
 11
371.49999999999989
 21
190.0
 31
0.0
  0
LINE
  5
1743
  8
1
 10
359.99999999999989
 20
273.0
 30
0.0
 11
359.99999999999989
 21
140.0
 31
0.0
  0
LINE
  5
1744
  8
0
 10
369.56242915075529
 20
252.74987279617039
 30
0.0
 11
369.56242915075529
 21
235.0572849080738
 31
0.0
  0
ARC
  5
1745
  8
0
 10
383.1801709195127
 20
252.7472409346914
 30
0.0
 40
15.0
 50
204.7901669365632
 51
228.25678132130369
  0
LINE
  5
1746
  8
0
 10
367.09098008453168
 20
263.00000000000011
 30
0.0
 11
352.90901991546821
 21
263.00000000000011
 31
0.0
  0
LINE
  5
1747
  8
0
 10
369.55251131045901
 20
252.84896606910141
 30
0.0
 11
367.58106224423528
 21
262.59909327293099
 31
0.0
  0
ARC
  5
1748
  8
0
 10
369.06242915075529
 20
252.74987279617039
 30
0.0
 40
0.5
 50
0.0
 51
11.430933167673009
  0
ARC
  5
1749
  8
0
 10
367.09098008453168
 20
262.5
 30
0.0
 40
0.5
 50
11.430933167673009
 51
90.0
  0
ARC
  5
174A
  8
0
 10
336.8198290804873
 20
252.7472409346914
 30
0.0
 40
15.0
 50
311.74321867869628
 51
335.20983306343692
  0
ARC
  5
174B
  8
0
 10
352.90901991546821
 20
262.5
 30
0.0
 40
0.5
 50
90.0
 51
168.56906683232691
  0
ARC
  5
174C
  8
0
 10
350.93757084924459
 20
252.74987279617039
 30
0.0
 40
0.5
 50
168.56906683232691
 51
180.0
  0
LINE
  5
174D
  8
0
 10
350.44748868954082
 20
252.84896606910141
 30
0.0
 11
352.41893775576449
 21
262.59909327293099
 31
0.0
  0
POLYLINE
  5
174E
  8
0
 10
375.99589928503315
 20
237.65516136351457
 30
0.0
 66
     1
 70
     8
  0
VERTEX
  8
0
  5
1B0B
 10
375.996
 20
237.655
 30
0.000000
  70
    32
  0
VERTEX
  8
0
  5
1B0C
 10
375.997
 20
237.687
 30
0.000000
  70
    32
  0
VERTEX
  8
0
  5
1B0D
 10
375.999
 20
237.720
 30
0.000000
  70
    32
  0
VERTEX
  8
0
  5
1B0E
 10
375.999
 20
237.752
 30
0.000000
  70
    32
  0
VERTEX
  8
0
  5
1B0F
 10
376.000
 20
237.784
 30
0.000000
  70
    32
  0
VERTEX
  8
0
  5
1B10
 10
376.000
 20
237.817
 30
0.000000
  70
    32
  0
VERTEX
  8
0
  5
1B11
 10
376.000
 20
237.849
 30
0.000000
  70
    32
  0
VERTEX
  8
0
  5
1B12
 10
375.999
 20
237.881
 30
0.000000
  70
    32
  0
VERTEX
  8
0
  5
1B13
 10
375.998
 20
237.914
 30
0.000000
  70
    32
  0
VERTEX
  8
0
  5
1B14
 10
375.996
 20
237.946
 30
0.000000
  70
    32
  0
VERTEX
  8
0
  5
1B15
 10
375.995
 20
237.978
 30
0.000000
  70
    32
  0
VERTEX
  8
0
  5
1B16
 10
375.992
 20
238.011
 30
0.000000
  70
    32
  0
VERTEX
  8
0
  5
1B17
 10
375.990
 20
238.043
 30
0.000000
  70
    32
  0
VERTEX
  8
0
  5
1B18
 10
375.987
 20
238.075
 30
0.000000
  70
    32
  0
VERTEX
  8
0
  5
1B19
 10
375.983
 20
238.107
 30
0.000000
  70
    32
  0
VERTEX
  8
0
  5
1B1A
 10
375.980
 20
238.140
 30
0.000000
  70
    32
  0
VERTEX
  8
0
  5
1B1B
 10
375.975
 20
238.172
 30
0.000000
  70
    32
  0
VERTEX
  8
0
  5
1B1C
 10
375.971
 20
238.204
 30
0.000000
  70
    32
  0
VERTEX
  8
0
  5
1B1D
 10
375.966
 20
238.236
 30
0.000000
  70
    32
  0
VERTEX
  8
0
  5
1B1E
 10
375.961
 20
238.269
 30
0.000000
  70
    32
  0
VERTEX
  8
0
  5
1B1F
 10
375.955
 20
238.301
 30
0.000000
  70
    32
  0
VERTEX
  8
0
  5
1B20
 10
375.949
 20
238.333
 30
0.000000
  70
    32
  0
VERTEX
  8
0
  5
1B21
 10
375.943
 20
238.365
 30
0.000000
  70
    32
  0
VERTEX
  8
0
  5
1B22
 10
375.936
 20
238.398
 30
0.000000
  70
    32
  0
VERTEX
  8
0
  5
1B23
 10
375.929
 20
238.430
 30
0.000000
  70
    32
  0
VERTEX
  8
0
  5
1B24
 10
375.921
 20
238.462
 30
0.000000
  70
    32
  0
VERTEX
  8
0
  5
1B25
 10
375.913
 20
238.494
 30
0.000000
  70
    32
  0
VERTEX
  8
0
  5
1B26
 10
375.905
 20
238.526
 30
0.000000
  70
    32
  0
VERTEX
  8
0
  5
1B27
 10
375.896
 20
238.558
 30
0.000000
  70
    32
  0
VERTEX
  8
0
  5
1B28
 10
375.887
 20
238.590
 30
0.000000
  70
    32
  0
VERTEX
  8
0
  5
1B29
 10
375.878
 20
238.622
 30
0.000000
  70
    32
  0
VERTEX
  8
0
  5
1B2A
 10
375.868
 20
238.654
 30
0.000000
  70
    32
  0
VERTEX
  8
0
  5
1B2B
 10
375.858
 20
238.687
 30
0.000000
  70
    32
  0
VERTEX
  8
0
  5
1B2C
 10
375.847
 20
238.719
 30
0.000000
  70
    32
  0
VERTEX
  8
0
  5
1B2D
 10
375.836
 20
238.751
 30
0.000000
  70
    32
  0
VERTEX
  8
0
  5
1B2E
 10
375.825
 20
238.783
 30
0.000000
  70
    32
  0
VERTEX
  8
0
  5
1B2F
 10
375.813
 20
238.814
 30
0.000000
  70
    32
  0
VERTEX
  8
0
  5
1B30
 10
375.801
 20
238.846
 30
0.000000
  70
    32
  0
VERTEX
  8
0
  5
1B31
 10
375.789
 20
238.878
 30
0.000000
  70
    32
  0
VERTEX
  8
0
  5
1B32
 10
375.776
 20
238.910
 30
0.000000
  70
    32
  0
VERTEX
  8
0
  5
1B33
 10
375.763
 20
238.942
 30
0.000000
  70
    32
  0
VERTEX
  8
0
  5
1B34
 10
375.749
 20
238.974
 30
0.000000
  70
    32
  0
VERTEX
  8
0
  5
1B35
 10
375.735
 20
239.006
 30
0.000000
  70
    32
  0
VERTEX
  8
0
  5
1B36
 10
375.721
 20
239.037
 30
0.000000
  70
    32
  0
VERTEX
  8
0
  5
1B37
 10
375.706
 20
239.069
 30
0.000000
  70
    32
  0
VERTEX
  8
0
  5
1B38
 10
375.691
 20
239.101
 30
0.000000
  70
    32
  0
VERTEX
  8
0
  5
1B39
 10
375.676
 20
239.132
 30
0.000000
  70
    32
  0
VERTEX
  8
0
  5
1B3A
 10
375.660
 20
239.164
 30
0.000000
  70
    32
  0
VERTEX
  8
0
  5
1B3B
 10
375.644
 20
239.196
 30
0.000000
  70
    32
  0
VERTEX
  8
0
  5
1B3C
 10
375.627
 20
239.227
 30
0.000000
  70
    32
  0
VERTEX
  8
0
  5
1B3D
 10
375.611
 20
239.259
 30
0.000000
  70
    32
  0
VERTEX
  8
0
  5
1B3E
 10
375.593
 20
239.290
 30
0.000000
  70
    32
  0
VERTEX
  8
0
  5
1B3F
 10
375.576
 20
239.322
 30
0.000000
  70
    32
  0
VERTEX
  8
0
  5
1B40
 10
375.558
 20
239.353
 30
0.000000
  70
    32
  0
VERTEX
  8
0
  5
1B41
 10
375.539
 20
239.385
 30
0.000000
  70
    32
  0
VERTEX
  8
0
  5
1B42
 10
375.520
 20
239.416
 30
0.000000
  70
    32
  0
VERTEX
  8
0
  5
1B43
 10
375.501
 20
239.447
 30
0.000000
  70
    32
  0
VERTEX
  8
0
  5
1B44
 10
375.482
 20
239.479
 30
0.000000
  70
    32
  0
VERTEX
  8
0
  5
1B45
 10
375.462
 20
239.510
 30
0.000000
  70
    32
  0
VERTEX
  8
0
  5
1B46
 10
375.442
 20
239.541
 30
0.000000
  70
    32
  0
VERTEX
  8
0
  5
1B47
 10
375.421
 20
239.572
 30
0.000000
  70
    32
  0
VERTEX
  8
0
  5
1B48
 10
375.400
 20
239.603
 30
0.000000
  70
    32
  0
VERTEX
  8
0
  5
1B49
 10
375.379
 20
239.634
 30
0.000000
  70
    32
  0
VERTEX
  8
0
  5
1B4A
 10
375.357
 20
239.665
 30
0.000000
  70
    32
  0
VERTEX
  8
0
  5
1B4B
 10
375.335
 20
239.696
 30
0.000000
  70
    32
  0
VERTEX
  8
0
  5
1B4C
 10
375.312
 20
239.727
 30
0.000000
  70
    32
  0
VERTEX
  8
0
  5
1B4D
 10
375.290
 20
239.758
 30
0.000000
  70
    32
  0
VERTEX
  8
0
  5
1B4E
 10
375.266
 20
239.789
 30
0.000000
  70
    32
  0
VERTEX
  8
0
  5
1B4F
 10
375.243
 20
239.820
 30
0.000000
  70
    32
  0
VERTEX
  8
0
  5
1B50
 10
375.219
 20
239.851
 30
0.000000
  70
    32
  0
VERTEX
  8
0
  5
1B51
 10
375.195
 20
239.881
 30
0.000000
  70
    32
  0
VERTEX
  8
0
  5
1B52
 10
375.170
 20
239.912
 30
0.000000
  70
    32
  0
VERTEX
  8
0
  5
1B53
 10
375.145
 20
239.943
 30
0.000000
  70
    32
  0
VERTEX
  8
0
  5
1B54
 10
375.120
 20
239.973
 30
0.000000
  70
    32
  0
VERTEX
  8
0
  5
1B55
 10
375.094
 20
240.004
 30
0.000000
  70
    32
  0
VERTEX
  8
0
  5
1B56
 10
375.068
 20
240.034
 30
0.000000
  70
    32
  0
VERTEX
  8
0
  5
1B57
 10
375.042
 20
240.065
 30
0.000000
  70
    32
  0
VERTEX
  8
0
  5
1B58
 10
375.015
 20
240.095
 30
0.000000
  70
    32
  0
VERTEX
  8
0
  5
1B59
 10
374.988
 20
240.125
 30
0.000000
  70
    32
  0
VERTEX
  8
0
  5
1B5A
 10
374.960
 20
240.156
 30
0.000000
  70
    32
  0
VERTEX
  8
0
  5
1B5B
 10
374.933
 20
240.186
 30
0.000000
  70
    32
  0
VERTEX
  8
0
  5
1B5C
 10
374.904
 20
240.216
 30
0.000000
  70
    32
  0
VERTEX
  8
0
  5
1B5D
 10
374.876
 20
240.246
 30
0.000000
  70
    32
  0
VERTEX
  8
0
  5
1B5E
 10
374.847
 20
240.276
 30
0.000000
  70
    32
  0
VERTEX
  8
0
  5
1B5F
 10
374.818
 20
240.306
 30
0.000000
  70
    32
  0
VERTEX
  8
0
  5
1B60
 10
374.788
 20
240.336
 30
0.000000
  70
    32
  0
VERTEX
  8
0
  5
1B61
 10
374.758
 20
240.366
 30
0.000000
  70
    32
  0
VERTEX
  8
0
  5
1B62
 10
374.728
 20
240.395
 30
0.000000
  70
    32
  0
VERTEX
  8
0
  5
1B63
 10
374.697
 20
240.425
 30
0.000000
  70
    32
  0
VERTEX
  8
0
  5
1B64
 10
374.666
 20
240.455
 30
0.000000
  70
    32
  0
VERTEX
  8
0
  5
1B65
 10
374.635
 20
240.484
 30
0.000000
  70
    32
  0
VERTEX
  8
0
  5
1B66
 10
374.603
 20
240.514
 30
0.000000
  70
    32
  0
VERTEX
  8
0
  5
1B67
 10
374.571
 20
240.543
 30
0.000000
  70
    32
  0
VERTEX
  8
0
  5
1B68
 10
374.539
 20
240.573
 30
0.000000
  70
    32
  0
VERTEX
  8
0
  5
1B69
 10
374.506
 20
240.602
 30
0.000000
  70
    32
  0
VERTEX
  8
0
  5
1B6A
 10
374.473
 20
240.631
 30
0.000000
  70
    32
  0
VERTEX
  8
0
  5
1B6B
 10
374.439
 20
240.661
 30
0.000000
  70
    32
  0
VERTEX
  8
0
  5
1B6C
 10
374.406
 20
240.690
 30
0.000000
  70
    32
  0
VERTEX
  8
0
  5
1B6D
 10
374.372
 20
240.719
 30
0.000000
  70
    32
  0
VERTEX
  8
0
  5
1B6E
 10
374.337
 20
240.748
 30
0.000000
  70
    32
  0
VERTEX
  8
0
  5
1B6F
 10
374.302
 20
240.777
 30
0.000000
  70
    32
  0
VERTEX
  8
0
  5
1B70
 10
374.267
 20
240.805
 30
0.000000
  70
    32
  0
VERTEX
  8
0
  5
1B71
 10
374.232
 20
240.834
 30
0.000000
  70
    32
  0
VERTEX
  8
0
  5
1B72
 10
374.196
 20
240.863
 30
0.000000
  70
    32
  0
VERTEX
  8
0
  5
1B73
 10
374.160
 20
240.892
 30
0.000000
  70
    32
  0
VERTEX
  8
0
  5
1B74
 10
374.123
 20
240.920
 30
0.000000
  70
    32
  0
VERTEX
  8
0
  5
1B75
 10
374.086
 20
240.949
 30
0.000000
  70
    32
  0
VERTEX
  8
0
  5
1B76
 10
374.049
 20
240.977
 30
0.000000
  70
    32
  0
VERTEX
  8
0
  5
1B77
 10
374.012
 20
241.005
 30
0.000000
  70
    32
  0
VERTEX
  8
0
  5
1B78
 10
373.974
 20
241.034
 30
0.000000
  70
    32
  0
VERTEX
  8
0
  5
1B79
 10
373.936
 20
241.062
 30
0.000000
  70
    32
  0
VERTEX
  8
0
  5
1B7A
 10
373.897
 20
241.090
 30
0.000000
  70
    32
  0
VERTEX
  8
0
  5
1B7B
 10
373.858
 20
241.118
 30
0.000000
  70
    32
  0
VERTEX
  8
0
  5
1B7C
 10
373.819
 20
241.146
 30
0.000000
  70
    32
  0
VERTEX
  8
0
  5
1B7D
 10
373.780
 20
241.174
 30
0.000000
  70
    32
  0
VERTEX
  8
0
  5
1B7E
 10
373.740
 20
241.202
 30
0.000000
  70
    32
  0
VERTEX
  8
0
  5
1B7F
 10
373.700
 20
241.229
 30
0.000000
  70
    32
  0
VERTEX
  8
0
  5
1B80
 10
373.659
 20
241.257
 30
0.000000
  70
    32
  0
VERTEX
  8
0
  5
1B81
 10
373.619
 20
241.284
 30
0.000000
  70
    32
  0
VERTEX
  8
0
  5
1B82
 10
373.578
 20
241.312
 30
0.000000
  70
    32
  0
VERTEX
  8
0
  5
1B83
 10
373.536
 20
241.339
 30
0.000000
  70
    32
  0
VERTEX
  8
0
  5
1B84
 10
373.494
 20
241.367
 30
0.000000
  70
    32
  0
VERTEX
  8
0
  5
1B85
 10
373.452
 20
241.394
 30
0.000000
  70
    32
  0
VERTEX
  8
0
  5
1B86
 10
373.410
 20
241.421
 30
0.000000
  70
    32
  0
VERTEX
  8
0
  5
1B87
 10
373.367
 20
241.448
 30
0.000000
  70
    32
  0
VERTEX
  8
0
  5
1B88
 10
373.324
 20
241.475
 30
0.000000
  70
    32
  0
VERTEX
  8
0
  5
1B89
 10
373.281
 20
241.502
 30
0.000000
  70
    32
  0
VERTEX
  8
0
  5
1B8A
 10
373.237
 20
241.529
 30
0.000000
  70
    32
  0
VERTEX
  8
0
  5
1B8B
 10
373.193
 20
241.555
 30
0.000000
  70
    32
  0
SEQEND
  8
0
  5
1B8C
  0
LINE
  5
174F
  8
0
 10
375.99599421906282
 20
237.66198712077491
 30
0.0
 11
375.49999999999989
 21
202.0
 31
0.0
  0
LINE
  5
1750
  8
0
 10
34.004005780937057
 20
237.66198712077491
 30
0.0
 11
34.5
 21
202.0
 31
0.0
  0
LINE
  5
1751
  8
0
 10
344.00400578093689
 20
237.66198712077491
 30
0.0
 11
344.49999999999989
 21
202.0
 31
0.0
  0
POLYLINE
  5
1752
  8
0
 10
346.80672949074284
 20
241.55519821695506
 30
0.0
 66
     1
 70
     8
  0
VERTEX
  8
0
  5
1B8D
 10
346.807
 20
241.555
 30
0.000000
  70
    32
  0
VERTEX
  8
0
  5
1B8E
 10
346.763
 20
241.529
 30
0.000000
  70
    32
  0
VERTEX
  8
0
  5
1B8F
 10
346.719
 20
241.502
 30
0.000000
  70
    32
  0
VERTEX
  8
0
  5
1B90
 10
346.676
 20
241.475
 30
0.000000
  70
    32
  0
VERTEX
  8
0
  5
1B91
 10
346.633
 20
241.448
 30
0.000000
  70
    32
  0
VERTEX
  8
0
  5
1B92
 10
346.590
 20
241.421
 30
0.000000
  70
    32
  0
VERTEX
  8
0
  5
1B93
 10
346.548
 20
241.394
 30
0.000000
  70
    32
  0
VERTEX
  8
0
  5
1B94
 10
346.506
 20
241.367
 30
0.000000
  70
    32
  0
VERTEX
  8
0
  5
1B95
 10
346.464
 20
241.339
 30
0.000000
  70
    32
  0
VERTEX
  8
0
  5
1B96
 10
346.422
 20
241.312
 30
0.000000
  70
    32
  0
VERTEX
  8
0
  5
1B97
 10
346.381
 20
241.284
 30
0.000000
  70
    32
  0
VERTEX
  8
0
  5
1B98
 10
346.341
 20
241.257
 30
0.000000
  70
    32
  0
VERTEX
  8
0
  5
1B99
 10
346.300
 20
241.229
 30
0.000000
  70
    32
  0
VERTEX
  8
0
  5
1B9A
 10
346.260
 20
241.202
 30
0.000000
  70
    32
  0
VERTEX
  8
0
  5
1B9B
 10
346.220
 20
241.174
 30
0.000000
  70
    32
  0
VERTEX
  8
0
  5
1B9C
 10
346.181
 20
241.146
 30
0.000000
  70
    32
  0
VERTEX
  8
0
  5
1B9D
 10
346.142
 20
241.118
 30
0.000000
  70
    32
  0
VERTEX
  8
0
  5
1B9E
 10
346.103
 20
241.090
 30
0.000000
  70
    32
  0
VERTEX
  8
0
  5
1B9F
 10
346.064
 20
241.062
 30
0.000000
  70
    32
  0
VERTEX
  8
0
  5
1BA0
 10
346.026
 20
241.034
 30
0.000000
  70
    32
  0
VERTEX
  8
0
  5
1BA1
 10
345.988
 20
241.005
 30
0.000000
  70
    32
  0
VERTEX
  8
0
  5
1BA2
 10
345.951
 20
240.977
 30
0.000000
  70
    32
  0
VERTEX
  8
0
  5
1BA3
 10
345.914
 20
240.949
 30
0.000000
  70
    32
  0
VERTEX
  8
0
  5
1BA4
 10
345.877
 20
240.920
 30
0.000000
  70
    32
  0
VERTEX
  8
0
  5
1BA5
 10
345.840
 20
240.892
 30
0.000000
  70
    32
  0
VERTEX
  8
0
  5
1BA6
 10
345.804
 20
240.863
 30
0.000000
  70
    32
  0
VERTEX
  8
0
  5
1BA7
 10
345.768
 20
240.834
 30
0.000000
  70
    32
  0
VERTEX
  8
0
  5
1BA8
 10
345.733
 20
240.805
 30
0.000000
  70
    32
  0
VERTEX
  8
0
  5
1BA9
 10
345.698
 20
240.777
 30
0.000000
  70
    32
  0
VERTEX
  8
0
  5
1BAA
 10
345.663
 20
240.748
 30
0.000000
  70
    32
  0
VERTEX
  8
0
  5
1BAB
 10
345.628
 20
240.719
 30
0.000000
  70
    32
  0
VERTEX
  8
0
  5
1BAC
 10
345.594
 20
240.690
 30
0.000000
  70
    32
  0
VERTEX
  8
0
  5
1BAD
 10
345.561
 20
240.661
 30
0.000000
  70
    32
  0
VERTEX
  8
0
  5
1BAE
 10
345.527
 20
240.631
 30
0.000000
  70
    32
  0
VERTEX
  8
0
  5
1BAF
 10
345.494
 20
240.602
 30
0.000000
  70
    32
  0
VERTEX
  8
0
  5
1BB0
 10
345.461
 20
240.573
 30
0.000000
  70
    32
  0
VERTEX
  8
0
  5
1BB1
 10
345.429
 20
240.543
 30
0.000000
  70
    32
  0
VERTEX
  8
0
  5
1BB2
 10
345.397
 20
240.514
 30
0.000000
  70
    32
  0
VERTEX
  8
0
  5
1BB3
 10
345.365
 20
240.484
 30
0.000000
  70
    32
  0
VERTEX
  8
0
  5
1BB4
 10
345.334
 20
240.455
 30
0.000000
  70
    32
  0
VERTEX
  8
0
  5
1BB5
 10
345.303
 20
240.425
 30
0.000000
  70
    32
  0
VERTEX
  8
0
  5
1BB6
 10
345.272
 20
240.395
 30
0.000000
  70
    32
  0
VERTEX
  8
0
  5
1BB7
 10
345.242
 20
240.366
 30
0.000000
  70
    32
  0
VERTEX
  8
0
  5
1BB8
 10
345.212
 20
240.336
 30
0.000000
  70
    32
  0
VERTEX
  8
0
  5
1BB9
 10
345.182
 20
240.306
 30
0.000000
  70
    32
  0
VERTEX
  8
0
  5
1BBA
 10
345.153
 20
240.276
 30
0.000000
  70
    32
  0
VERTEX
  8
0
  5
1BBB
 10
345.124
 20
240.246
 30
0.000000
  70
    32
  0
VERTEX
  8
0
  5
1BBC
 10
345.096
 20
240.216
 30
0.000000
  70
    32
  0
VERTEX
  8
0
  5
1BBD
 10
345.067
 20
240.186
 30
0.000000
  70
    32
  0
VERTEX
  8
0
  5
1BBE
 10
345.040
 20
240.156
 30
0.000000
  70
    32
  0
VERTEX
  8
0
  5
1BBF
 10
345.012
 20
240.125
 30
0.000000
  70
    32
  0
VERTEX
  8
0
  5
1BC0
 10
344.985
 20
240.095
 30
0.000000
  70
    32
  0
VERTEX
  8
0
  5
1BC1
 10
344.958
 20
240.065
 30
0.000000
  70
    32
  0
VERTEX
  8
0
  5
1BC2
 10
344.932
 20
240.034
 30
0.000000
  70
    32
  0
VERTEX
  8
0
  5
1BC3
 10
344.906
 20
240.004
 30
0.000000
  70
    32
  0
VERTEX
  8
0
  5
1BC4
 10
344.880
 20
239.973
 30
0.000000
  70
    32
  0
VERTEX
  8
0
  5
1BC5
 10
344.855
 20
239.943
 30
0.000000
  70
    32
  0
VERTEX
  8
0
  5
1BC6
 10
344.830
 20
239.912
 30
0.000000
  70
    32
  0
VERTEX
  8
0
  5
1BC7
 10
344.805
 20
239.881
 30
0.000000
  70
    32
  0
VERTEX
  8
0
  5
1BC8
 10
344.781
 20
239.851
 30
0.000000
  70
    32
  0
VERTEX
  8
0
  5
1BC9
 10
344.757
 20
239.820
 30
0.000000
  70
    32
  0
VERTEX
  8
0
  5
1BCA
 10
344.734
 20
239.789
 30
0.000000
  70
    32
  0
VERTEX
  8
0
  5
1BCB
 10
344.710
 20
239.758
 30
0.000000
  70
    32
  0
VERTEX
  8
0
  5
1BCC
 10
344.688
 20
239.727
 30
0.000000
  70
    32
  0
VERTEX
  8
0
  5
1BCD
 10
344.665
 20
239.696
 30
0.000000
  70
    32
  0
VERTEX
  8
0
  5
1BCE
 10
344.643
 20
239.665
 30
0.000000
  70
    32
  0
VERTEX
  8
0
  5
1BCF
 10
344.621
 20
239.634
 30
0.000000
  70
    32
  0
VERTEX
  8
0
  5
1BD0
 10
344.600
 20
239.603
 30
0.000000
  70
    32
  0
VERTEX
  8
0
  5
1BD1
 10
344.579
 20
239.572
 30
0.000000
  70
    32
  0
VERTEX
  8
0
  5
1BD2
 10
344.558
 20
239.541
 30
0.000000
  70
    32
  0
VERTEX
  8
0
  5
1BD3
 10
344.538
 20
239.510
 30
0.000000
  70
    32
  0
VERTEX
  8
0
  5
1BD4
 10
344.518
 20
239.479
 30
0.000000
  70
    32
  0
VERTEX
  8
0
  5
1BD5
 10
344.499
 20
239.447
 30
0.000000
  70
    32
  0
VERTEX
  8
0
  5
1BD6
 10
344.480
 20
239.416
 30
0.000000
  70
    32
  0
VERTEX
  8
0
  5
1BD7
 10
344.461
 20
239.385
 30
0.000000
  70
    32
  0
VERTEX
  8
0
  5
1BD8
 10
344.442
 20
239.353
 30
0.000000
  70
    32
  0
VERTEX
  8
0
  5
1BD9
 10
344.424
 20
239.322
 30
0.000000
  70
    32
  0
VERTEX
  8
0
  5
1BDA
 10
344.407
 20
239.290
 30
0.000000
  70
    32
  0
VERTEX
  8
0
  5
1BDB
 10
344.389
 20
239.259
 30
0.000000
  70
    32
  0
VERTEX
  8
0
  5
1BDC
 10
344.373
 20
239.227
 30
0.000000
  70
    32
  0
VERTEX
  8
0
  5
1BDD
 10
344.356
 20
239.196
 30
0.000000
  70
    32
  0
VERTEX
  8
0
  5
1BDE
 10
344.340
 20
239.164
 30
0.000000
  70
    32
  0
VERTEX
  8
0
  5
1BDF
 10
344.324
 20
239.132
 30
0.000000
  70
    32
  0
VERTEX
  8
0
  5
1BE0
 10
344.309
 20
239.101
 30
0.000000
  70
    32
  0
VERTEX
  8
0
  5
1BE1
 10
344.294
 20
239.069
 30
0.000000
  70
    32
  0
VERTEX
  8
0
  5
1BE2
 10
344.279
 20
239.037
 30
0.000000
  70
    32
  0
VERTEX
  8
0
  5
1BE3
 10
344.265
 20
239.006
 30
0.000000
  70
    32
  0
VERTEX
  8
0
  5
1BE4
 10
344.251
 20
238.974
 30
0.000000
  70
    32
  0
VERTEX
  8
0
  5
1BE5
 10
344.237
 20
238.942
 30
0.000000
  70
    32
  0
VERTEX
  8
0
  5
1BE6
 10
344.224
 20
238.910
 30
0.000000
  70
    32
  0
VERTEX
  8
0
  5
1BE7
 10
344.211
 20
238.878
 30
0.000000
  70
    32
  0
VERTEX
  8
0
  5
1BE8
 10
344.199
 20
238.846
 30
0.000000
  70
    32
  0
VERTEX
  8
0
  5
1BE9
 10
344.187
 20
238.814
 30
0.000000
  70
    32
  0
VERTEX
  8
0
  5
1BEA
 10
344.175
 20
238.783
 30
0.000000
  70
    32
  0
VERTEX
  8
0
  5
1BEB
 10
344.164
 20
238.751
 30
0.000000
  70
    32
  0
VERTEX
  8
0
  5
1BEC
 10
344.153
 20
238.719
 30
0.000000
  70
    32
  0
VERTEX
  8
0
  5
1BED
 10
344.142
 20
238.687
 30
0.000000
  70
    32
  0
VERTEX
  8
0
  5
1BEE
 10
344.132
 20
238.654
 30
0.000000
  70
    32
  0
VERTEX
  8
0
  5
1BEF
 10
344.122
 20
238.622
 30
0.000000
  70
    32
  0
VERTEX
  8
0
  5
1BF0
 10
344.113
 20
238.590
 30
0.000000
  70
    32
  0
VERTEX
  8
0
  5
1BF1
 10
344.104
 20
238.558
 30
0.000000
  70
    32
  0
VERTEX
  8
0
  5
1BF2
 10
344.095
 20
238.526
 30
0.000000
  70
    32
  0
VERTEX
  8
0
  5
1BF3
 10
344.087
 20
238.494
 30
0.000000
  70
    32
  0
VERTEX
  8
0
  5
1BF4
 10
344.079
 20
238.462
 30
0.000000
  70
    32
  0
VERTEX
  8
0
  5
1BF5
 10
344.071
 20
238.430
 30
0.000000
  70
    32
  0
VERTEX
  8
0
  5
1BF6
 10
344.064
 20
238.398
 30
0.000000
  70
    32
  0
VERTEX
  8
0
  5
1BF7
 10
344.057
 20
238.365
 30
0.000000
  70
    32
  0
VERTEX
  8
0
  5
1BF8
 10
344.051
 20
238.333
 30
0.000000
  70
    32
  0
VERTEX
  8
0
  5
1BF9
 10
344.045
 20
238.301
 30
0.000000
  70
    32
  0
VERTEX
  8
0
  5
1BFA
 10
344.039
 20
238.269
 30
0.000000
  70
    32
  0
VERTEX
  8
0
  5
1BFB
 10
344.034
 20
238.236
 30
0.000000
  70
    32
  0
VERTEX
  8
0
  5
1BFC
 10
344.029
 20
238.204
 30
0.000000
  70
    32
  0
VERTEX
  8
0
  5
1BFD
 10
344.025
 20
238.172
 30
0.000000
  70
    32
  0
VERTEX
  8
0
  5
1BFE
 10
344.020
 20
238.140
 30
0.000000
  70
    32
  0
VERTEX
  8
0
  5
1BFF
 10
344.017
 20
238.107
 30
0.000000
  70
    32
  0
VERTEX
  8
0
  5
1C00
 10
344.013
 20
238.075
 30
0.000000
  70
    32
  0
VERTEX
  8
0
  5
1C01
 10
344.010
 20
238.043
 30
0.000000
  70
    32
  0
VERTEX
  8
0
  5
1C02
 10
344.008
 20
238.011
 30
0.000000
  70
    32
  0
VERTEX
  8
0
  5
1C03
 10
344.005
 20
237.978
 30
0.000000
  70
    32
  0
VERTEX
  8
0
  5
1C04
 10
344.004
 20
237.946
 30
0.000000
  70
    32
  0
VERTEX
  8
0
  5
1C05
 10
344.002
 20
237.914
 30
0.000000
  70
    32
  0
VERTEX
  8
0
  5
1C06
 10
344.001
 20
237.881
 30
0.000000
  70
    32
  0
VERTEX
  8
0
  5
1C07
 10
344.000
 20
237.849
 30
0.000000
  70
    32
  0
VERTEX
  8
0
  5
1C08
 10
344.000
 20
237.817
 30
0.000000
  70
    32
  0
VERTEX
  8
0
  5
1C09
 10
344.000
 20
237.784
 30
0.000000
  70
    32
  0
VERTEX
  8
0
  5
1C0A
 10
344.001
 20
237.752
 30
0.000000
  70
    32
  0
VERTEX
  8
0
  5
1C0B
 10
344.001
 20
237.720
 30
0.000000
  70
    32
  0
VERTEX
  8
0
  5
1C0C
 10
344.003
 20
237.687
 30
0.000000
  70
    32
  0
VERTEX
  8
0
  5
1C0D
 10
344.004
 20
237.655
 30
0.000000
  70
    32
  0
SEQEND
  8
0
  5
1C0E
  0
ARC
  5
1753
  8
0
 10
384.86708947083838
 20
230.102617289904
 30
0.0
 40
16.0
 50
164.02253193666351
 51
212.52472984914499
  0
ARC
  5
1754
  8
0
 10
367.56242915075529
 20
235.0572849080738
 30
0.0
 40
2.0
 50
344.0225319366636
 51
0.0
  0
LINE
  5
1755
  8
0
 10
369.5641359147761
 20
235.31469320611239
 30
0.0
 11
368.19387413750388
 21
247.54152414843281
 31
0.0
  0
LINE
  5
1756
  8
0
 10
368.09346744541369
 20
247.88000000000011
 30
0.0
 11
368.19387413750383
 21
247.54152414843361
 31
0.0
  0
LINE
  5
1757
  8
0
 10
367.48899504868922
 20
249.4370434012304
 30
0.0
 11
367.56252731299497
 21
247.9749770103694
 31
0.0
  0
ARC
  5
1758
  8
0
 10
367.66240108119848
 20
247.9800000000001
 30
0.0
 40
0.1
 50
182.87917264289649
 51
270.0
  0
LINE
  5
1759
  8
0
 10
350.43757084924448
 20
252.74987279617039
 30
0.0
 11
350.43757084924448
 21
235.0572849080738
 31
0.0
  0
LINE
  5
175A
  8
0
 10
350.43586408522373
 20
235.31469320611239
 30
0.0
 11
351.80612586249578
 21
247.54152414843281
 31
0.0
  0
ARC
  5
175B
  8
0
 10
335.13291052916128
 20
230.102617289904
 30
0.0
 40
16.0
 50
327.47527015085501
 51
15.977468063336451
  0
ARC
  5
175C
  8
0
 10
352.43757084924448
 20
235.0572849080738
 30
0.0
 40
2.0
 50
180.0
 51
195.9774680633364
  0
LINE
  5
175D
  8
0
 10
352.51100495131061
 20
249.4370434012304
 30
0.0
 11
352.4374726870048
 21
247.9749770103694
 31
0.0
  0
ARC
  5
175E
  8
0
 10
352.33759891880129
 20
247.9800000000001
 30
0.0
 40
0.1
 50
270.0
 51
357.12082735710351
  0
LINE
  5
175F
  8
0
 10
351.90653255458608
 20
247.88000000000011
 30
0.0
 11
351.80612586249589
 21
247.54152414843361
 31
0.0
  0
ARC
  5
1760
  8
0
 10
374.19179854878951
 20
246.79482008767209
 30
0.0
 40
18.0
 50
116.97266376048761
 51
134.80837889191491
  0
ARC
  5
1761
  8
0
 10
366.70797040097187
 20
261.50000000000011
 30
0.0
 40
1.5
 50
90.0
 51
116.97266376048761
  0
ARC
  5
1762
  8
0
 10
427.67722945832372
 20
303.07348136167502
 30
0.0
 40
80.0
 50
214.03628787408979
 51
219.4398401049927
  0
ARC
  5
1763
  8
0
 10
362.21125306691448
 20
258.85577071176169
 30
0.0
 40
1.0
 50
134.80837889191491
 51
214.03628787408979
  0
ARC
  5
1764
  8
0
 10
352.84229841285139
 20
242.99698452143761
 30
0.0
 40
16.0
 50
23.73479017818541
 51
35.341083939321919
  0
ARC
  5
1765
  8
0
 10
292.32277054167599
 20
303.07348136167502
 30
0.0
 40
80.0
 50
320.5601598950073
 51
325.96371212591009
  0
ARC
  5
1766
  8
0
 10
345.80820145121032
 20
246.79482008767209
 30
0.0
 40
18.0
 50
45.191621108085073
 51
63.027336239512387
  0
ARC
  5
1767
  8
0
 10
357.78874693308518
 20
258.85577071176169
 30
0.0
 40
1.0
 50
325.96371212591009
 51
45.191621108085073
  0
ARC
  5
1768
  8
0
 10
353.29202959902779
 20
261.50000000000011
 30
0.0
 40
1.5
 50
63.027336239512387
 51
90.0
  0
ARC
  5
1769
  8
0
 10
367.15770158714838
 20
242.99698452143761
 30
0.0
 40
16.0
 50
144.65891606067811
 51
156.26520982181449
  0
LINE
  5
1784
  8
1
 10
170.0
 20
365.00000000000011
 30
0.0
 11
170.0
 21
313.00000000000011
 31
0.0
  0
LINE
  5
1785
  8
1
 10
290.0
 20
339.00000000000011
 30
0.0
 11
144.0
 21
339.00000000000011
 31
0.0
  0
LINE
  5
1786
  8
1
 10
170.0
 20
76.0
 30
0.0
 11
170.0
 21
24.0
 31
0.0
  0
LINE
  5
1787
  8
1
 10
290.0
 20
50.0
 30
0.0
 11
144.0
 21
50.0
 31
0.0
  0
LINE
  5
1788
  8
0
 10
166.19999999999999
 20
339.67500000000013
 30
0.0
 11
166.19999999999999
 21
338.32499999999999
 31
0.0
  0
LINE
  5
1789
  8
0
 10
173.80000000000001
 20
339.67500000000013
 30
0.0
 11
173.80000000000001
 21
338.32499999999999
 31
0.0
  0
LINE
  5
178A
  8
0
 10
171.7971219182046
 20
339.67500000000013
 30
0.0
 11
173.80000000000001
 21
339.67500000000013
 31
0.0
  0
LINE
  5
178B
  8
0
 10
171.79712191820451
 20
338.32499999999999
 30
0.0
 11
173.80000000000001
 21
338.32499999999999
 31
0.0
  0
LINE
  5
178C
  8
0
 10
166.19999999999999
 20
339.67500000000013
 30
0.0
 11
168.2028780817954
 21
339.67500000000013
 31
0.0
  0
LINE
  5
178D
  8
0
 10
166.19999999999999
 20
338.32499999999999
 30
0.0
 11
168.20287808179549
 21
338.32499999999999
 31
0.0
  0
CIRCLE
  5
178E
  8
0
 10
170.0
 20
339.00000000000011
 30
0.0
 40
3.999175415007485
  0
LINE
  5
178F
  8
0
 10
56.75
 20
237.60756741649229
 30
0.0
 11
43.25
 21
237.6075674164922
 31
0.0
  0
ARC
  5
1790
  8
0
 10
50.0
 20
227.68600000000001
 30
0.0
 40
12.0
 50
109.4670447595973
 51
124.2288663278126
  0
ARC
  5
1791
  8
0
 10
50.0
 20
227.68600000000001
 30
0.0
 40
12.0
 50
55.771133672187418
 51
70.532955240402643
  0
LINE
  5
1792
  8
0
 10
53.999175415007471
 20
239.00000000000011
 30
0.0
 11
46.000824584992642
 21
239.00000000000011
 31
0.0
  0
LINE
  5
1793
  8
0
 10
43.25
 20
237.6075674164922
 30
0.0
 11
43.25
 21
236.068294039503
 31
0.0
  0
LINE
  5
1794
  8
0
 10
56.75
 20
237.60756741649229
 30
0.0
 11
56.75
 21
236.068294039503
 31
0.0
  0
CIRCLE
  5
1795
  8
0
 10
170.0
 20
339.00000000000011
 30
0.0
 40
6.75
  0
ARC
  5
1796
  8
0
 10
172.3636394229521
 20
340.36464785710882
 30
0.0
 40
0.8925000000000011
 50
163.3417582272229
 51
230.59829508169051
  0
ARC
  5
1797
  8
0
 10
172.3636394229521
 20
337.63535214289152
 30
0.0
 40
0.8925000000000002
 50
129.40170491832549
 51
196.65824177277699
  0
ARC
  5
1798
  8
0
 10
171.02000000000001
 20
337.23330817627982
 30
0.0
 40
0.5099999999999997
 50
223.34175822722079
 51
16.658241772777071
  0
ARC
  5
1799
  8
0
 10
170.00000000000011
 20
336.27070428578281
 30
0.0
 40
0.8925000000000002
 50
43.341758227220801
 51
136.65824177277861
  0
ARC
  5
179A
  8
0
 10
168.9800000000001
 20
337.23330817627982
 30
0.0
 40
0.5100000000000002
 50
163.3417582272229
 51
316.65824177277921
  0
ARC
  5
179B
  8
0
 10
167.63636057704781
 20
337.63535214289152
 30
0.0
 40
0.8925000000000011
 50
343.34175822722278
 51
50.598295081674458
  0
ARC
  5
179C
  8
0
 10
171.02000000000001
 20
340.76669182372029
 30
0.0
 40
0.5100000000000003
 50
343.34175822722278
 51
136.65824177277921
  0
ARC
  5
179D
  8
0
 10
170.00000000000011
 20
341.72929571421741
 30
0.0
 40
0.8924999999999984
 50
223.34175822722079
 51
316.65824177277921
  0
ARC
  5
179E
  8
0
 10
168.9800000000001
 20
340.76669182372029
 30
0.0
 40
0.5099999999999997
 50
43.341758227220801
 51
196.65824177277699
  0
ARC
  5
179F
  8
0
 10
167.63636057704781
 20
340.36464785710882
 30
0.0
 40
0.8925000000000004
 50
309.40170491830958
 51
16.658241772777071
  0
LINE
  5
17A0
  8
0
 10
163.2399999999999
 20
237.6075674164922
 30
0.0
 11
163.2399999999999
 21
235.13750089374429
 31
0.0
  0
LINE
  5
17A1
  8
0
 10
172.99028952821149
 20
239.00000000000011
 30
0.0
 11
165.99082458499251
 21
239.0
 31
0.0
  0
ARC
  5
17A2
  8
0
 10
169.9899999999999
 20
227.68600000000001
 30
0.0
 40
12.0
 50
109.4670447595973
 51
124.2288663278126
  0
LINE
  5
17A3
  8
0
 10
169.38851469483859
 20
237.60756741649229
 30
0.0
 11
163.2399999999999
 21
237.6075674164922
 31
0.0
  0
LINE
  5
17AE
  8
3
 10
56.917500000000018
 20
184.0
 30
0.0
 11
56.917500000000018
 21
150.91749999999999
 31
0.0
  0
LINE
  5
17AF
  8
0
 10
58.0
 20
190.0
 30
0.0
 11
58.0
 21
151.99999999999989
 31
0.0
  0
LINE
  5
17B0
  8
0
 10
56.0
 20
149.99999999999989
 30
0.0
 11
44.0
 21
150.0
 31
0.0
  0
LINE
  5
17B1
  8
0
 10
42.0
 20
152.00000000000011
 30
0.0
 11
58.0
 21
151.99999999999989
 31
0.0
  0
LINE
  5
17B2
  8
0
 10
58.0
 20
151.99999999999989
 30
0.0
 11
56.0
 21
149.99999999999989
 31
0.0
  0
LINE
  5
17B3
  8
0
 10
58.0
 20
184.0
 30
0.0
 11
42.0
 21
184.0
 31
0.0
  0
LINE
  5
17B4
  8
3
 10
56.917500000000018
 20
184.0
 30
0.0
 11
58.0
 21
185.87494499919319
 31
0.0
  0
LINE
  5
17B5
  8
3
 10
43.082499999999982
 20
184.0
 30
0.0
 11
43.082499999999982
 21
150.91750000000019
 31
0.0
  0
LINE
  5
17B6
  8
0
 10
42.0
 20
190.0
 30
0.0
 11
42.0
 21
152.00000000000011
 31
0.0
  0
LINE
  5
17B7
  8
3
 10
43.082499999999982
 20
184.0
 30
0.0
 11
42.0
 21
185.87494499919319
 31
0.0
  0
LINE
  5
17B8
  8
0
 10
44.0
 20
150.0
 30
0.0
 11
42.0
 21
152.00000000000011
 31
0.0
  0
LINE
  5
17B9
  8
3
 10
176.91749999999999
 20
184.0
 30
0.0
 11
176.91749999999999
 21
150.91749999999999
 31
0.0
  0
LINE
  5
17BA
  8
0
 10
178.0
 20
190.0
 30
0.0
 11
178.0
 21
151.99999999999989
 31
0.0
  0
LINE
  5
17BB
  8
0
 10
176.0
 20
149.99999999999989
 30
0.0
 11
164.0
 21
150.0
 31
0.0
  0
LINE
  5
17BC
  8
0
 10
162.0
 20
152.00000000000011
 30
0.0
 11
178.0
 21
151.99999999999989
 31
0.0
  0
LINE
  5
17BD
  8
0
 10
178.0
 20
151.99999999999989
 30
0.0
 11
176.0
 21
149.99999999999989
 31
0.0
  0
LINE
  5
17BE
  8
0
 10
178.0
 20
184.0
 30
0.0
 11
162.0
 21
184.0
 31
0.0
  0
LINE
  5
17BF
  8
3
 10
176.91749999999999
 20
184.0
 30
0.0
 11
178.0
 21
185.87494499919319
 31
0.0
  0
LINE
  5
17C0
  8
3
 10
163.0824999999999
 20
184.0
 30
0.0
 11
163.0824999999999
 21
150.91750000000019
 31
0.0
  0
LINE
  5
17C1
  8
0
 10
162.0
 20
190.0
 30
0.0
 11
162.0
 21
152.00000000000011
 31
0.0
  0
LINE
  5
17C2
  8
3
 10
163.0824999999999
 20
184.0
 30
0.0
 11
162.0
 21
185.87494499919319
 31
0.0
  0
LINE
  5
17C3
  8
0
 10
164.0
 20
150.0
 30
0.0
 11
162.0
 21
152.00000000000011
 31
0.0
  0
LINE
  5
17C4
  8
3
 10
366.9174999999999
 20
184.0
 30
0.0
 11
366.9174999999999
 21
150.91749999999999
 31
0.0
  0
LINE
  5
17C5
  8
0
 10
367.99999999999989
 20
190.0
 30
0.0
 11
367.99999999999989
 21
151.99999999999989
 31
0.0
  0
LINE
  5
17C6
  8
0
 10
365.99999999999989
 20
149.99999999999989
 30
0.0
 11
353.99999999999989
 21
150.0
 31
0.0
  0
LINE
  5
17C7
  8
0
 10
351.99999999999989
 20
152.00000000000011
 30
0.0
 11
367.99999999999989
 21
151.99999999999989
 31
0.0
  0
LINE
  5
17C8
  8
0
 10
367.99999999999989
 20
151.99999999999989
 30
0.0
 11
365.99999999999989
 21
149.99999999999989
 31
0.0
  0
LINE
  5
17C9
  8
0
 10
367.99999999999989
 20
184.0
 30
0.0
 11
351.99999999999989
 21
184.0
 31
0.0
  0
LINE
  5
17CA
  8
3
 10
366.9174999999999
 20
184.0
 30
0.0
 11
367.99999999999989
 21
185.87494499919319
 31
0.0
  0
LINE
  5
17CB
  8
3
 10
353.08249999999992
 20
184.0
 30
0.0
 11
353.08249999999992
 21
150.91750000000019
 31
0.0
  0
LINE
  5
17CC
  8
0
 10
351.99999999999989
 20
190.0
 30
0.0
 11
351.99999999999989
 21
152.00000000000011
 31
0.0
  0
LINE
  5
17CD
  8
3
 10
353.08249999999992
 20
184.0
 30
0.0
 11
351.99999999999989
 21
185.87494499919319
 31
0.0
  0
LINE
  5
17CE
  8
0
 10
353.99999999999989
 20
150.0
 30
0.0
 11
351.99999999999989
 21
152.00000000000011
 31
0.0
  0
ENDSEC
  0
EOF
