  0
SECTION
  2
HEADER
  9
$ACADVER
  1
AC1009
  9
$INSBASE
 10
0.0
 20
0.0
 30
0.0
  9
$EXTMIN
 10
0.0
 20
-2.960436562073669
 30
0.0
  9
$EXTMAX
 10
508.6645209236151
 20
424.39163800425388
 30
0.0
  9
$LIMMIN
 10
0.0
 20
0.0
  9
$LIMMAX
 10
187.5
 20
135.0
  9
$ORTHOMODE
 70
     0
  9
$REGENMODE
 70
     1
  9
$FILLMODE
 70
     1
  9
$QTEXTMODE
 70
     0
  9
$MIRRTEXT
 70
     0
  9
$DRAGMODE
 70
     2
  9
$LTSCALE
 40
10.0
  9
$OSMODE
 70
    55
  9
$ATTMODE
 70
     1
  9
$TEXTSIZE
 40
4.0
  9
$TRACEWID
 40
0.05
  9
$TEXTSTYLE
  7
STANDARD
  9
$CLAYER
  8
0
  9
$CELTYPE
  6
BYLAYER
  9
$CECOLOR
 62
   256
  9
$DIMSCALE
 40
0.5
  9
$DIMASZ
 40
3.0
  9
$DIMEXO
 40
2.0
  9
$DIMDLI
 40
0.38
  9
$DIMRND
 40
0.0
  9
$DIMDLE
 40
0.0
  9
$DIMEXE
 40
2.0
  9
$DIMTP
 40
0.0
  9
$DIMTM
 40
0.0
  9
$DIMTXT
 40
3.0
  9
$DIMCEN
 40
0.0
  9
$DIMTSZ
 40
0.0
  9
$DIMTOL
 70
     0
  9
$DIMLIM
 70
     0
  9
$DIMTIH
 70
     0
  9
$DIMTOH
 70
     0
  9
$DIMSE1
 70
     0
  9
$DIMSE2
 70
     0
  9
$DIMTAD
 70
     1
  9
$DIMZIN
 70
     0
  9
$DIMBLK
  1

  9
$DIMASO
 70
     0
  9
$DIMSHO
 70
     0
  9
$DIMPOST
  1

  9
$DIMAPOST
  1

  9
$DIMALT
 70
     0
  9
$DIMALTD
 70
     2
  9
$DIMALTF
 40
25.399999999999999
  9
$DIMLFAC
 40
1.0
  9
$DIMTOFL
 70
     0
  9
$DIMTVP
 40
1.6000000000000001
  9
$DIMTIX
 70
     1
  9
$DIMSOXD
 70
     0
  9
$DIMSAH
 70
     0
  9
$DIMBLK1
  1

  9
$DIMBLK2
  1

  9
$DIMSTYLE
  2
STANDARD
  9
$DIMCLRD
 70
     0
  9
$DIMCLRE
 70
     0
  9
$DIMCLRT
 70
     0
  9
$DIMTFAC
 40
1.0
  9
$DIMGAP
 40
0.09
  9
$LUNITS
 70
     2
  9
$LUPREC
 70
     4
  9
$SKETCHINC
 40
0.1
  9
$FILLETRAD
 40
1.25
  9
$AUNITS
 70
     0
  9
$AUPREC
 70
     0
  9
$MENU
  1
E:\r13\win\SUPPORT\ACAD
  9
$ELEVATION
 40
0.0
  9
$PELEVATION
 40
0.0
  9
$THICKNESS
 40
0.0
  9
$LIMCHECK
 70
     0
  9
$BLIPMODE
 70
     0
  9
$CHAMFERA
 40
0.0
  9
$CHAMFERB
 40
0.0
  9
$SKPOLY
 70
     0
  9
$TDCREATE
 40
2449840.6143865739
  9
$TDUPDATE
 40
2456598.660652685
  9
$TDINDWG
 40
0.3163429051
  9
$TDUSRTIMER
 40
0.3163429051
  9
$USRTIMER
 70
     1
  9
$ANGBASE
 50
0.0
  9
$ANGDIR
 70
     0
  9
$PDMODE
 70
     0
  9
$PDSIZE
 40
0.0
  9
$PLINEWID
 40
0.0
  9
$COORDS
 70
     1
  9
$SPLFRAME
 70
     0
  9
$SPLINETYPE
 70
     6
  9
$SPLINESEGS
 70
     8
  9
$ATTDIA
 70
     0
  9
$ATTREQ
 70
     1
  9
$HANDLING
 70
     1
  9
$HANDSEED
  5
188C
  9
$SURFTAB1
 70
     6
  9
$SURFTAB2
 70
     6
  9
$SURFTYPE
 70
     6
  9
$SURFU
 70
     6
  9
$SURFV
 70
     6
  9
$UCSNAME
  2

  9
$UCSORG
 10
0.0
 20
0.0
 30
0.0
  9
$UCSXDIR
 10
1.0
 20
0.0
 30
0.0
  9
$UCSYDIR
 10
0.0
 20
1.0
 30
0.0
  9
$PUCSNAME
  2

  9
$PUCSORG
 10
0.0
 20
0.0
 30
0.0
  9
$PUCSXDIR
 10
1.0
 20
0.0
 30
0.0
  9
$PUCSYDIR
 10
0.0
 20
1.0
 30
0.0
  9
$USERI1
 70
     0
  9
$USERI2
 70
     1
  9
$USERI3
 70
     1
  9
$USERI4
 70
     0
  9
$USERI5
 70
     0
  9
$USERR1
 40
0.0
  9
$USERR2
 40
0.0
  9
$USERR3
 40
0.0
  9
$USERR4
 40
0.0
  9
$USERR5
 40
0.0
  9
$WORLDVIEW
 70
     1
  9
$SHADEDGE
 70
     3
  9
$SHADEDIF
 70
    70
  9
$TILEMODE
 70
     1
  9
$MAXACTVP
 70
    16
  9
$PLIMCHECK
 70
     0
  9
$PEXTMIN
 10
1.0000000000000000E+020
 20
1.0000000000000000E+020
 30
1.0000000000000000E+020
  9
$PEXTMAX
 10
-1.0000000000000000E+020
 20
-1.0000000000000000E+020
 30
-1.0000000000000000E+020
  9
$PLIMMIN
 10
0.0
 20
0.0
  9
$PLIMMAX
 10
12.0
 20
9.0
  9
$UNITMODE
 70
     0
  9
$VISRETAIN
 70
     0
  9
$PLINEGEN
 70
     0
  9
$PSLTSCALE
 70
     0
  0
ENDSEC
  0
SECTION
  2
TABLES
  0
TABLE
  2
VPORT
 70
     1
  0
VPORT
  2
*ACTIVE
 70
     0
 10
0.0
 20
0.0
 11
1.0
 21
1.0
 12
254.33226164613441
 22
275.5327412496365
 13
0.0
 23
0.0
 14
5.0
 24
5.0
 15
5.0
 25
5.0
 16
0.0
 26
0.0
 36
1.0
 17
0.0
 27
0.0
 37
0.0
 40
561.96163151001065
 41
1.7807262569832401
 42
50.0
 43
0.0
 44
0.0
 50
0.0
 51
0.0
 71
     0
 72
   100
 73
     1
 74
     0
 75
     0
 76
     0
 77
     0
 78
     0
  0
ENDTAB
  0
TABLE
  2
LTYPE
 70
     3
  0
LTYPE
  2
CONTINUOUS
 70
     0
  3
Solid Line
 72
    65
 73
     0
 40
0.0
  0
LTYPE
  2
CENTER
 70
     0
  3
____ _ ____ _ ____ _ ____ _ ____ _ ____ _ ____
 72
    65
 73
     4
 40
2.0
 49
1.25
 49
-0.25
 49
0.25
 49
-0.25
  0
LTYPE
  2
PHANTOM2
 70
     0
  3
___ _ _ ___ _ _ ___ _ _ ___ _ _
 72
    65
 73
     6
 40
1.25
 49
0.625
 49
-0.125
 49
0.125
 49
-0.125
 49
0.125
 49
-0.125
  0
ENDTAB
  0
TABLE
  2
LAYER
 70
     3
  0
LAYER
  2
0
 70
     0
 62
     7
  6
CONTINUOUS
  0
LAYER
  2
1
 70
     0
 62
     1
  6
CENTER
  0
LAYER
  2
3
 70
     0
 62
     3
  6
CONTINUOUS
  0
ENDTAB
  0
TABLE
  2
STYLE
 70
     2
  0
STYLE
  2
STANDARD
 70
     0
 40
0.0
 41
1.0
 50
0.0
 71
     0
 42
4.0
  3
TXT
  4
BIGFONT
  0
STYLE
  2
STANDARD1
 70
     0
 40
0.0
 41
1.0
 50
0.0
 71
     0
 42
3.0
  3
txt
  4

  0
ENDTAB
  0
TABLE
  2
VIEW
 70
     1
  0
VIEW
  2
ALL
 70
     0
 40
179.66152299999999
 10
141.903918
 20
89.830760999999995
 41
0.0
 11
0.0
 21
0.0
 31
1.0
 12
0.0
 22
0.0
 32
0.0
 42
0.0
 43
0.0
 44
0.0
 50
0.0
 71
     0
  0
ENDTAB
  0
TABLE
  2
UCS
 70
     0
  0
ENDTAB
  0
TABLE
  2
APPID
 70
     4
  0
APPID
  2
ACAD
 70
     0
  0
APPID
  2
DCO15
 70
     0
  0
APPID
  2
ACAD_MLEADERVER
 70
     0
  0
APPID
  2
ACAD_NAV_VCDISPLAY
 70
     0
  0
ENDTAB
  0
TABLE
  2
DIMSTYLE
 70
     1
  0
DIMSTYLE
  2
STANDARD
 70
     0
  3

  4

  5

  6

  7

 40
1.0
 41
0.18
 42
0.0625
 43
0.38
 44
0.18
 45
0.0
 46
0.0
 47
0.0
 48
0.0
140
0.18
141
0.09
142
0.0
143
25.399999999999999
144
1.0
145
0.0
146
1.0
147
0.09
 71
     0
 72
     0
 73
     1
 74
     1
 75
     0
 76
     0
 77
     0
 78
     0
170
     0
171
     2
172
     0
173
     0
174
     0
175
     0
176
     0
177
     0
178
     0
  0
ENDTAB
  0
ENDSEC
  0
SECTION
  2
BLOCKS
  0
BLOCK
  8
0
  2
$MODEL_SPACE
 70
     0
 10
0.0
 20
0.0
 30
0.0
  3
$MODEL_SPACE
  1

  0
ENDBLK
  5
1BD
  8
0
  0
BLOCK
 67
     1
  8
0
  2
$PAPER_SPACE
 70
     0
 10
0.0
 20
0.0
 30
0.0
  3
$PAPER_SPACE
  1

  0
ENDBLK
  5
1BB
 67
     1
  8
0
  0
ENDSEC
  0
SECTION
  2
ENTITIES
  0
LINE
  5
1374
  8
0
 10
265.3405800444728
 20
268.40233473623169
 30
0.0
 11
265.3405800444728
 21
243.5853922163416
 31
0.0
  0
LINE
  5
1375
  8
0
 10
296.34058004447292
 20
243.5853922163416
 30
0.0
 11
296.34058004447292
 21
263.08539221634157
 31
0.0
  0
LINE
  5
1376
  8
0
 10
379.17227413584749
 20
289.46539221634163
 30
0.0
 11
367.41424125723381
 21
289.46539221634163
 31
0.0
  0
LINE
  5
1377
  8
0
 10
296.34058004447292
 20
243.5853922163416
 30
0.0
 11
265.3405800444728
 21
243.5853922163416
 31
0.0
  0
LINE
  5
1378
  8
1
 10
280.84058004447292
 20
290.58539221634157
 30
0.0
 11
280.84058004447292
 21
161.58539221634061
 31
0.0
  0
LINE
  5
137A
  8
0
 10
292.35058004447291
 20
231.5853922163416
 30
0.0
 11
292.35058004447291
 21
243.5853922163416
 31
0.0
  0
LINE
  5
137B
  8
0
 10
269.35058004447291
 20
243.5853922163416
 30
0.0
 11
269.35058004447291
 21
231.5853922163416
 31
0.0
  0
LINE
  5
137D
  8
0
 10
269.35058004447291
 20
231.5853922163416
 30
0.0
 11
292.35058004447291
 21
231.5853922163416
 31
0.0
  0
ARC
  5
138B
  8
0
 10
426.3593738546644
 20
-93.418630244708766
 30
0.0
 40
400.23809523809518
 50
96.056605662905923
 51
113.0583295739723
  0
LINE
  5
138C
  8
0
 10
384.12987013223932
 20
304.58539221634157
 30
0.0
 11
385.85058004447291
 21
304.58539221634157
 31
0.0
  0
LINE
  5
138D
  8
0
 10
390.85058004447291
 20
299.58539221634157
 30
0.0
 11
390.85058004447291
 21
299.46957298857438
 31
0.0
  0
ARC
  5
138E
  8
0
 10
385.85058004447291
 20
299.58539221634157
 30
0.0
 40
5.0
 50
0.0
 51
90.0
  0
ARC
  5
138F
  8
0
 10
272.34058004447292
 20
268.40233473623169
 30
0.0
 40
7.0
 50
113.0583295739723
 51
180.0
  0
ARC
  5
1390
  8
0
 10
468.87748738313428
 20
-75.753839095950525
 30
0.0
 40
380.2380952380953
 50
106.8398715328909
 51
116.985190501685
  0
ARC
  5
1391
  8
0
 10
367.41424125723381
 20
259.46539221634163
 30
0.0
 40
30.0
 50
90.0
 51
106.8398715328925
  0
ARC
  5
1392
  8
0
 10
379.01754634408633
 20
301.46439464614622
 30
0.0
 40
12.0
 50
269.26120874099649
 51
350.43100633373399
  0
LINE
  5
1393
  8
0
 10
265.3405800444728
 20
394.46227418806171
 30
0.0
 11
265.3405800444728
 21
402.32100182044599
 31
0.0
  0
CIRCLE
  5
13A2
  8
0
 10
282.15716343505488
 20
398.39163800425388
 30
0.0
 40
9.0840310268199538
  0
ARC
  5
13A4
  8
0
 10
280.85058004447291
 20
398.39163800425388
 30
0.0
 40
16.0
 50
194.2164221332842
 51
301.31463182248172
  0
ARC
  5
13A5
  8
0
 10
383.35058004447279
 20
398.39163800425388
 30
0.0
 40
7.5
 50
270.0
 51
90.0
  0
ARC
  5
13A6
  8
0
 10
314.68413153116609
 20
477.24401494012329
 30
0.0
 40
70.0
 50
248.62076358023009
 51
277.71778895748702
  0
LINE
  5
13A7
  8
0
 10
325.78627590070391
 20
407.96225768603711
 30
0.0
 11
383.61955700151429
 21
405.886813212118
 31
0.0
  0
ARC
  5
13A8
  8
0
 10
325.42763995798191
 20
397.96869074221843
 30
0.0
 40
10.0
 50
87.944726668168812
 51
97.717788957488679
  0
ARC
  5
13A9
  8
0
 10
314.68413153116609
 20
319.53926106838452
 30
0.0
 40
70.0
 50
82.282211042512927
 51
111.3792364197699
  0
LINE
  5
13AA
  8
0
 10
325.78627590070391
 20
388.82101832247059
 30
0.0
 11
383.61955700151429
 21
390.8964627963897
 31
0.0
  0
ARC
  5
13AB
  8
0
 10
325.42763995798191
 20
398.81458526628938
 30
0.0
 40
10.0
 50
262.28221104251298
 51
272.05527333183119
  0
ARC
  5
13AC
  8
0
 10
280.85058004447291
 20
398.39163800425388
 30
0.0
 40
16.0
 50
58.685368177518342
 51
165.7835778667158
  0
ARC
  5
13AD
  8
0
 10
314.68413153116609
 20
159.39694196089201
 30
0.0
 40
70.0
 50
248.62076358023009
 51
277.71778895748702
  0
ARC
  5
13AE
  8
0
 10
314.68413153116609
 20
1.6921880891532051
 30
0.0
 40
70.0
 50
82.282211042512927
 51
111.3792364197699
  0
LINE
  5
13B0
  8
0
 10
265.3405800444728
 20
76.615201208830456
 30
0.0
 11
265.3405800444728
 21
84.473928841214786
 31
0.0
  0
ARC
  5
13B1
  8
0
 10
280.85058004447291
 20
80.544565025022621
 30
0.0
 40
16.0
 50
194.2164221332842
 51
301.31463182248172
  0
ARC
  5
13B2
  8
0
 10
280.85058004447291
 20
80.544565025022621
 30
0.0
 40
16.0
 50
58.685368177518342
 51
165.7835778667158
  0
ARC
  5
13B4
  8
0
 10
383.35058004447279
 20
80.544565025022621
 30
0.0
 40
7.5
 50
270.0
 51
90.0
  0
ARC
  5
13B5
  8
0
 10
325.42763995798191
 20
80.121617762987114
 30
0.0
 40
10.0
 50
87.944726668168812
 51
97.717788957488679
  0
LINE
  5
13B6
  8
0
 10
325.78627590070391
 20
90.115184706805906
 30
0.0
 11
383.61955700151429
 21
88.039740232886743
 31
0.0
  0
LINE
  5
13B7
  8
0
 10
325.78627590070391
 20
70.973945343239336
 30
0.0
 11
383.61955700151429
 21
73.049389817158485
 31
0.0
  0
ARC
  5
13B8
  8
0
 10
325.42763995798191
 20
80.967512287058113
 30
0.0
 40
10.0
 50
262.28221104251298
 51
272.05527333183119
  0
CIRCLE
  5
13B9
  8
0
 10
280.85058004447291
 20
80.544565025022621
 30
0.0
 40
11.5
  0
CIRCLE
  5
13BA
  8
0
 10
280.85058004447291
 20
80.544565025022621
 30
0.0
 40
15.48999999999999
  0
CIRCLE
  5
13BB
  8
0
 10
280.85058004447291
 20
80.544565025022621
 30
0.0
 40
7.0
  0
CIRCLE
  5
13BC
  8
3
 10
280.85058004447291
 20
80.544565025022621
 30
0.0
 40
8.0
  0
LINE
  5
13BF
  8
0
 10
168.9685604538812
 20
231.5853922163416
 30
0.0
 11
168.9685604538812
 21
243.5853922163416
 31
0.0
  0
LINE
  5
13C0
  8
0
 10
145.9685604538812
 20
243.5853922163416
 30
0.0
 11
145.9685604538812
 21
231.5853922163416
 31
0.0
  0
LINE
  5
13C2
  8
0
 10
145.9685604538812
 20
231.5853922163416
 30
0.0
 11
168.9685604538812
 21
231.5853922163416
 31
0.0
  0
LINE
  5
13C3
  8
1
 10
157.4685604538812
 20
314.58539221634157
 30
0.0
 11
157.4685604538812
 21
161.58539221634061
 31
0.0
  0
LINE
  5
13C4
  8
0
 10
164.5595405384129
 20
304.58539221634157
 30
0.0
 11
150.37758036934949
 21
304.58539221634157
 31
0.0
  0
LINE
  5
13C5
  8
0
 10
172.9685604538812
 20
243.5853922163416
 30
0.0
 11
141.9685604538812
 21
243.5853922163416
 31
0.0
  0
LINE
  5
13C6
  8
0
 10
173.4645546729441
 20
279.2473793371164
 30
0.0
 11
172.9685604538812
 21
243.5853922163416
 31
0.0
  0
LINE
  5
13C7
  8
0
 10
169.1091192493796
 20
274.84308090385082
 30
0.0
 11
145.82800165838259
 21
274.84308090385082
 31
0.0
  0
POLYLINE
  5
13C8
  8
0
 10
169.10911924937969
 20
274.84308090385076
 30
0.0
 66
     1
 70
     8
  0
VERTEX
  8
0
  5
1684
 10
169.109
 20
274.843
 30
0.000000
  70
    32
  0
VERTEX
  8
0
  5
1685
 10
169.500
 20
275.021
 30
0.000000
  70
    32
  0
VERTEX
  8
0
  5
1686
 10
169.876
 20
275.205
 30
0.000000
  70
    32
  0
VERTEX
  8
0
  5
1687
 10
170.235
 20
275.395
 30
0.000000
  70
    32
  0
VERTEX
  8
0
  5
1688
 10
170.577
 20
275.590
 30
0.000000
  70
    32
  0
VERTEX
  8
0
  5
1689
 10
170.902
 20
275.790
 30
0.000000
  70
    32
  0
VERTEX
  8
0
  5
168A
 10
171.209
 20
275.995
 30
0.000000
  70
    32
  0
VERTEX
  8
0
  5
168B
 10
171.498
 20
276.204
 30
0.000000
  70
    32
  0
VERTEX
  8
0
  5
168C
 10
171.768
 20
276.417
 30
0.000000
  70
    32
  0
VERTEX
  8
0
  5
168D
 10
172.020
 20
276.634
 30
0.000000
  70
    32
  0
VERTEX
  8
0
  5
168E
 10
172.252
 20
276.855
 30
0.000000
  70
    32
  0
VERTEX
  8
0
  5
168F
 10
172.465
 20
277.080
 30
0.000000
  70
    32
  0
VERTEX
  8
0
  5
1690
 10
172.657
 20
277.307
 30
0.000000
  70
    32
  0
VERTEX
  8
0
  5
1691
 10
172.830
 20
277.537
 30
0.000000
  70
    32
  0
VERTEX
  8
0
  5
1692
 10
172.983
 20
277.770
 30
0.000000
  70
    32
  0
VERTEX
  8
0
  5
1693
 10
173.115
 20
278.004
 30
0.000000
  70
    32
  0
VERTEX
  8
0
  5
1694
 10
173.226
 20
278.241
 30
0.000000
  70
    32
  0
VERTEX
  8
0
  5
1695
 10
173.316
 20
278.479
 30
0.000000
  70
    32
  0
VERTEX
  8
0
  5
1696
 10
173.386
 20
278.718
 30
0.000000
  70
    32
  0
VERTEX
  8
0
  5
1697
 10
173.434
 20
278.958
 30
0.000000
  70
    32
  0
VERTEX
  8
0
  5
1698
 10
173.462
 20
279.199
 30
0.000000
  70
    32
  0
VERTEX
  8
0
  5
1699
 10
173.468
 20
279.440
 30
0.000000
  70
    32
  0
VERTEX
  8
0
  5
169A
 10
173.453
 20
279.681
 30
0.000000
  70
    32
  0
VERTEX
  8
0
  5
169B
 10
173.417
 20
279.921
 30
0.000000
  70
    32
  0
VERTEX
  8
0
  5
169C
 10
173.360
 20
280.161
 30
0.000000
  70
    32
  0
VERTEX
  8
0
  5
169D
 10
173.282
 20
280.400
 30
0.000000
  70
    32
  0
VERTEX
  8
0
  5
169E
 10
173.183
 20
280.637
 30
0.000000
  70
    32
  0
VERTEX
  8
0
  5
169F
 10
173.063
 20
280.873
 30
0.000000
  70
    32
  0
VERTEX
  8
0
  5
16A0
 10
172.923
 20
281.107
 30
0.000000
  70
    32
  0
VERTEX
  8
0
  5
16A1
 10
172.762
 20
281.339
 30
0.000000
  70
    32
  0
VERTEX
  8
0
  5
16A2
 10
172.581
 20
281.568
 30
0.000000
  70
    32
  0
VERTEX
  8
0
  5
16A3
 10
172.380
 20
281.794
 30
0.000000
  70
    32
  0
VERTEX
  8
0
  5
16A4
 10
172.159
 20
282.017
 30
0.000000
  70
    32
  0
VERTEX
  8
0
  5
16A5
 10
171.919
 20
282.236
 30
0.000000
  70
    32
  0
VERTEX
  8
0
  5
16A6
 10
171.660
 20
282.452
 30
0.000000
  70
    32
  0
VERTEX
  8
0
  5
16A7
 10
171.382
 20
282.664
 30
0.000000
  70
    32
  0
VERTEX
  8
0
  5
16A8
 10
171.086
 20
282.871
 30
0.000000
  70
    32
  0
VERTEX
  8
0
  5
16A9
 10
170.771
 20
283.074
 30
0.000000
  70
    32
  0
VERTEX
  8
0
  5
16AA
 10
170.439
 20
283.272
 30
0.000000
  70
    32
  0
VERTEX
  8
0
  5
16AB
 10
170.090
 20
283.464
 30
0.000000
  70
    32
  0
VERTEX
  8
0
  5
16AC
 10
169.724
 20
283.652
 30
0.000000
  70
    32
  0
VERTEX
  8
0
  5
16AD
 10
169.342
 20
283.833
 30
0.000000
  70
    32
  0
VERTEX
  8
0
  5
16AE
 10
168.945
 20
284.009
 30
0.000000
  70
    32
  0
VERTEX
  8
0
  5
16AF
 10
168.532
 20
284.179
 30
0.000000
  70
    32
  0
VERTEX
  8
0
  5
16B0
 10
168.104
 20
284.342
 30
0.000000
  70
    32
  0
VERTEX
  8
0
  5
16B1
 10
167.663
 20
284.499
 30
0.000000
  70
    32
  0
VERTEX
  8
0
  5
16B2
 10
167.208
 20
284.650
 30
0.000000
  70
    32
  0
VERTEX
  8
0
  5
16B3
 10
166.740
 20
284.793
 30
0.000000
  70
    32
  0
VERTEX
  8
0
  5
16B4
 10
166.260
 20
284.929
 30
0.000000
  70
    32
  0
VERTEX
  8
0
  5
16B5
 10
165.768
 20
285.057
 30
0.000000
  70
    32
  0
VERTEX
  8
0
  5
16B6
 10
165.265
 20
285.179
 30
0.000000
  70
    32
  0
VERTEX
  8
0
  5
16B7
 10
164.752
 20
285.292
 30
0.000000
  70
    32
  0
VERTEX
  8
0
  5
16B8
 10
164.230
 20
285.398
 30
0.000000
  70
    32
  0
VERTEX
  8
0
  5
16B9
 10
163.698
 20
285.496
 30
0.000000
  70
    32
  0
VERTEX
  8
0
  5
16BA
 10
163.158
 20
285.586
 30
0.000000
  70
    32
  0
VERTEX
  8
0
  5
16BB
 10
162.611
 20
285.667
 30
0.000000
  70
    32
  0
VERTEX
  8
0
  5
16BC
 10
162.057
 20
285.741
 30
0.000000
  70
    32
  0
VERTEX
  8
0
  5
16BD
 10
161.497
 20
285.805
 30
0.000000
  70
    32
  0
VERTEX
  8
0
  5
16BE
 10
160.931
 20
285.862
 30
0.000000
  70
    32
  0
VERTEX
  8
0
  5
16BF
 10
160.361
 20
285.910
 30
0.000000
  70
    32
  0
VERTEX
  8
0
  5
16C0
 10
159.787
 20
285.949
 30
0.000000
  70
    32
  0
VERTEX
  8
0
  5
16C1
 10
159.210
 20
285.980
 30
0.000000
  70
    32
  0
VERTEX
  8
0
  5
16C2
 10
158.631
 20
286.001
 30
0.000000
  70
    32
  0
VERTEX
  8
0
  5
16C3
 10
158.050
 20
286.015
 30
0.000000
  70
    32
  0
VERTEX
  8
0
  5
16C4
 10
157.469
 20
286.019
 30
0.000000
  70
    32
  0
VERTEX
  8
0
  5
16C5
 10
156.887
 20
286.015
 30
0.000000
  70
    32
  0
VERTEX
  8
0
  5
16C6
 10
156.306
 20
286.001
 30
0.000000
  70
    32
  0
VERTEX
  8
0
  5
16C7
 10
155.727
 20
285.980
 30
0.000000
  70
    32
  0
VERTEX
  8
0
  5
16C8
 10
155.150
 20
285.949
 30
0.000000
  70
    32
  0
VERTEX
  8
0
  5
16C9
 10
154.576
 20
285.910
 30
0.000000
  70
    32
  0
VERTEX
  8
0
  5
16CA
 10
154.006
 20
285.862
 30
0.000000
  70
    32
  0
VERTEX
  8
0
  5
16CB
 10
153.440
 20
285.805
 30
0.000000
  70
    32
  0
VERTEX
  8
0
  5
16CC
 10
152.880
 20
285.741
 30
0.000000
  70
    32
  0
VERTEX
  8
0
  5
16CD
 10
152.326
 20
285.667
 30
0.000000
  70
    32
  0
VERTEX
  8
0
  5
16CE
 10
151.779
 20
285.586
 30
0.000000
  70
    32
  0
VERTEX
  8
0
  5
16CF
 10
151.239
 20
285.496
 30
0.000000
  70
    32
  0
VERTEX
  8
0
  5
16D0
 10
150.707
 20
285.398
 30
0.000000
  70
    32
  0
VERTEX
  8
0
  5
16D1
 10
150.185
 20
285.292
 30
0.000000
  70
    32
  0
VERTEX
  8
0
  5
16D2
 10
149.672
 20
285.179
 30
0.000000
  70
    32
  0
VERTEX
  8
0
  5
16D3
 10
149.169
 20
285.057
 30
0.000000
  70
    32
  0
VERTEX
  8
0
  5
16D4
 10
148.677
 20
284.929
 30
0.000000
  70
    32
  0
VERTEX
  8
0
  5
16D5
 10
148.197
 20
284.793
 30
0.000000
  70
    32
  0
VERTEX
  8
0
  5
16D6
 10
147.729
 20
284.650
 30
0.000000
  70
    32
  0
VERTEX
  8
0
  5
16D7
 10
147.274
 20
284.499
 30
0.000000
  70
    32
  0
VERTEX
  8
0
  5
16D8
 10
146.833
 20
284.342
 30
0.000000
  70
    32
  0
VERTEX
  8
0
  5
16D9
 10
146.405
 20
284.179
 30
0.000000
  70
    32
  0
VERTEX
  8
0
  5
16DA
 10
145.992
 20
284.009
 30
0.000000
  70
    32
  0
VERTEX
  8
0
  5
16DB
 10
145.595
 20
283.833
 30
0.000000
  70
    32
  0
VERTEX
  8
0
  5
16DC
 10
145.213
 20
283.652
 30
0.000000
  70
    32
  0
VERTEX
  8
0
  5
16DD
 10
144.847
 20
283.464
 30
0.000000
  70
    32
  0
VERTEX
  8
0
  5
16DE
 10
144.498
 20
283.272
 30
0.000000
  70
    32
  0
VERTEX
  8
0
  5
16DF
 10
144.166
 20
283.074
 30
0.000000
  70
    32
  0
VERTEX
  8
0
  5
16E0
 10
143.852
 20
282.871
 30
0.000000
  70
    32
  0
VERTEX
  8
0
  5
16E1
 10
143.555
 20
282.664
 30
0.000000
  70
    32
  0
VERTEX
  8
0
  5
16E2
 10
143.277
 20
282.452
 30
0.000000
  70
    32
  0
VERTEX
  8
0
  5
16E3
 10
143.018
 20
282.236
 30
0.000000
  70
    32
  0
VERTEX
  8
0
  5
16E4
 10
142.778
 20
282.017
 30
0.000000
  70
    32
  0
VERTEX
  8
0
  5
16E5
 10
142.557
 20
281.794
 30
0.000000
  70
    32
  0
VERTEX
  8
0
  5
16E6
 10
142.356
 20
281.568
 30
0.000000
  70
    32
  0
VERTEX
  8
0
  5
16E7
 10
142.175
 20
281.339
 30
0.000000
  70
    32
  0
VERTEX
  8
0
  5
16E8
 10
142.014
 20
281.107
 30
0.000000
  70
    32
  0
VERTEX
  8
0
  5
16E9
 10
141.874
 20
280.873
 30
0.000000
  70
    32
  0
VERTEX
  8
0
  5
16EA
 10
141.754
 20
280.637
 30
0.000000
  70
    32
  0
VERTEX
  8
0
  5
16EB
 10
141.655
 20
280.400
 30
0.000000
  70
    32
  0
VERTEX
  8
0
  5
16EC
 10
141.577
 20
280.161
 30
0.000000
  70
    32
  0
VERTEX
  8
0
  5
16ED
 10
141.520
 20
279.921
 30
0.000000
  70
    32
  0
VERTEX
  8
0
  5
16EE
 10
141.484
 20
279.681
 30
0.000000
  70
    32
  0
VERTEX
  8
0
  5
16EF
 10
141.469
 20
279.440
 30
0.000000
  70
    32
  0
VERTEX
  8
0
  5
16F0
 10
141.475
 20
279.199
 30
0.000000
  70
    32
  0
VERTEX
  8
0
  5
16F1
 10
141.503
 20
278.958
 30
0.000000
  70
    32
  0
VERTEX
  8
0
  5
16F2
 10
141.551
 20
278.718
 30
0.000000
  70
    32
  0
VERTEX
  8
0
  5
16F3
 10
141.621
 20
278.479
 30
0.000000
  70
    32
  0
VERTEX
  8
0
  5
16F4
 10
141.711
 20
278.241
 30
0.000000
  70
    32
  0
VERTEX
  8
0
  5
16F5
 10
141.822
 20
278.004
 30
0.000000
  70
    32
  0
VERTEX
  8
0
  5
16F6
 10
141.954
 20
277.770
 30
0.000000
  70
    32
  0
VERTEX
  8
0
  5
16F7
 10
142.107
 20
277.537
 30
0.000000
  70
    32
  0
VERTEX
  8
0
  5
16F8
 10
142.280
 20
277.307
 30
0.000000
  70
    32
  0
VERTEX
  8
0
  5
16F9
 10
142.473
 20
277.080
 30
0.000000
  70
    32
  0
VERTEX
  8
0
  5
16FA
 10
142.685
 20
276.855
 30
0.000000
  70
    32
  0
VERTEX
  8
0
  5
16FB
 10
142.918
 20
276.634
 30
0.000000
  70
    32
  0
VERTEX
  8
0
  5
16FC
 10
143.169
 20
276.417
 30
0.000000
  70
    32
  0
VERTEX
  8
0
  5
16FD
 10
143.439
 20
276.204
 30
0.000000
  70
    32
  0
VERTEX
  8
0
  5
16FE
 10
143.728
 20
275.995
 30
0.000000
  70
    32
  0
VERTEX
  8
0
  5
16FF
 10
144.035
 20
275.790
 30
0.000000
  70
    32
  0
VERTEX
  8
0
  5
1700
 10
144.360
 20
275.590
 30
0.000000
  70
    32
  0
VERTEX
  8
0
  5
1701
 10
144.702
 20
275.395
 30
0.000000
  70
    32
  0
VERTEX
  8
0
  5
1702
 10
145.061
 20
275.205
 30
0.000000
  70
    32
  0
VERTEX
  8
0
  5
1703
 10
145.437
 20
275.021
 30
0.000000
  70
    32
  0
VERTEX
  8
0
  5
1704
 10
145.828
 20
274.843
 30
0.000000
  70
    32
  0
SEQEND
  8
0
  5
1705
  0
POLYLINE
  5
13C9
  8
0
 10
159.09466716010431
 20
276.56221460031298
 30
0.0
 66
     1
 70
     8
  0
VERTEX
  8
0
  5
1706
 10
159.095
 20
276.562
 30
0.000000
  70
    32
  0
VERTEX
  8
0
  5
1707
 10
159.504
 20
276.594
 30
0.000000
  70
    32
  0
VERTEX
  8
0
  5
1708
 10
159.909
 20
276.634
 30
0.000000
  70
    32
  0
VERTEX
  8
0
  5
1709
 10
160.309
 20
276.680
 30
0.000000
  70
    32
  0
VERTEX
  8
0
  5
170A
 10
160.703
 20
276.733
 30
0.000000
  70
    32
  0
VERTEX
  8
0
  5
170B
 10
161.090
 20
276.793
 30
0.000000
  70
    32
  0
VERTEX
  8
0
  5
170C
 10
161.469
 20
276.860
 30
0.000000
  70
    32
  0
VERTEX
  8
0
  5
170D
 10
161.840
 20
276.934
 30
0.000000
  70
    32
  0
VERTEX
  8
0
  5
170E
 10
162.201
 20
277.013
 30
0.000000
  70
    32
  0
VERTEX
  8
0
  5
170F
 10
162.552
 20
277.099
 30
0.000000
  70
    32
  0
VERTEX
  8
0
  5
1710
 10
162.892
 20
277.192
 30
0.000000
  70
    32
  0
VERTEX
  8
0
  5
1711
 10
163.221
 20
277.290
 30
0.000000
  70
    32
  0
VERTEX
  8
0
  5
1712
 10
163.537
 20
277.393
 30
0.000000
  70
    32
  0
VERTEX
  8
0
  5
1713
 10
163.840
 20
277.502
 30
0.000000
  70
    32
  0
VERTEX
  8
0
  5
1714
 10
164.130
 20
277.617
 30
0.000000
  70
    32
  0
VERTEX
  8
0
  5
1715
 10
164.406
 20
277.736
 30
0.000000
  70
    32
  0
VERTEX
  8
0
  5
1716
 10
164.666
 20
277.860
 30
0.000000
  70
    32
  0
VERTEX
  8
0
  5
1717
 10
164.911
 20
277.988
 30
0.000000
  70
    32
  0
VERTEX
  8
0
  5
1718
 10
165.141
 20
278.121
 30
0.000000
  70
    32
  0
VERTEX
  8
0
  5
1719
 10
165.353
 20
278.257
 30
0.000000
  70
    32
  0
VERTEX
  8
0
  5
171A
 10
165.549
 20
278.397
 30
0.000000
  70
    32
  0
VERTEX
  8
0
  5
171B
 10
165.728
 20
278.540
 30
0.000000
  70
    32
  0
VERTEX
  8
0
  5
171C
 10
165.889
 20
278.687
 30
0.000000
  70
    32
  0
VERTEX
  8
0
  5
171D
 10
166.032
 20
278.836
 30
0.000000
  70
    32
  0
VERTEX
  8
0
  5
171E
 10
166.157
 20
278.987
 30
0.000000
  70
    32
  0
VERTEX
  8
0
  5
171F
 10
166.263
 20
279.140
 30
0.000000
  70
    32
  0
VERTEX
  8
0
  5
1720
 10
166.350
 20
279.295
 30
0.000000
  70
    32
  0
VERTEX
  8
0
  5
1721
 10
166.418
 20
279.452
 30
0.000000
  70
    32
  0
VERTEX
  8
0
  5
1722
 10
166.468
 20
279.609
 30
0.000000
  70
    32
  0
VERTEX
  8
0
  5
1723
 10
166.497
 20
279.767
 30
0.000000
  70
    32
  0
VERTEX
  8
0
  5
1724
 10
166.508
 20
279.925
 30
0.000000
  70
    32
  0
VERTEX
  8
0
  5
1725
 10
166.499
 20
280.084
 30
0.000000
  70
    32
  0
VERTEX
  8
0
  5
1726
 10
166.471
 20
280.242
 30
0.000000
  70
    32
  0
VERTEX
  8
0
  5
1727
 10
166.424
 20
280.400
 30
0.000000
  70
    32
  0
VERTEX
  8
0
  5
1728
 10
166.357
 20
280.556
 30
0.000000
  70
    32
  0
VERTEX
  8
0
  5
1729
 10
166.272
 20
280.711
 30
0.000000
  70
    32
  0
VERTEX
  8
0
  5
172A
 10
166.167
 20
280.865
 30
0.000000
  70
    32
  0
VERTEX
  8
0
  5
172B
 10
166.044
 20
281.016
 30
0.000000
  70
    32
  0
VERTEX
  8
0
  5
172C
 10
165.903
 20
281.165
 30
0.000000
  70
    32
  0
VERTEX
  8
0
  5
172D
 10
165.743
 20
281.312
 30
0.000000
  70
    32
  0
VERTEX
  8
0
  5
172E
 10
165.566
 20
281.455
 30
0.000000
  70
    32
  0
VERTEX
  8
0
  5
172F
 10
165.372
 20
281.596
 30
0.000000
  70
    32
  0
VERTEX
  8
0
  5
1730
 10
165.160
 20
281.732
 30
0.000000
  70
    32
  0
VERTEX
  8
0
  5
1731
 10
164.933
 20
281.865
 30
0.000000
  70
    32
  0
VERTEX
  8
0
  5
1732
 10
164.689
 20
281.994
 30
0.000000
  70
    32
  0
VERTEX
  8
0
  5
1733
 10
164.430
 20
282.118
 30
0.000000
  70
    32
  0
VERTEX
  8
0
  5
1734
 10
164.156
 20
282.238
 30
0.000000
  70
    32
  0
VERTEX
  8
0
  5
1735
 10
163.867
 20
282.353
 30
0.000000
  70
    32
  0
VERTEX
  8
0
  5
1736
 10
163.565
 20
282.462
 30
0.000000
  70
    32
  0
VERTEX
  8
0
  5
1737
 10
163.250
 20
282.567
 30
0.000000
  70
    32
  0
VERTEX
  8
0
  5
1738
 10
162.922
 20
282.665
 30
0.000000
  70
    32
  0
VERTEX
  8
0
  5
1739
 10
162.583
 20
282.758
 30
0.000000
  70
    32
  0
VERTEX
  8
0
  5
173A
 10
162.233
 20
282.844
 30
0.000000
  70
    32
  0
VERTEX
  8
0
  5
173B
 10
161.873
 20
282.925
 30
0.000000
  70
    32
  0
VERTEX
  8
0
  5
173C
 10
161.503
 20
282.999
 30
0.000000
  70
    32
  0
VERTEX
  8
0
  5
173D
 10
161.124
 20
283.066
 30
0.000000
  70
    32
  0
VERTEX
  8
0
  5
173E
 10
160.738
 20
283.127
 30
0.000000
  70
    32
  0
VERTEX
  8
0
  5
173F
 10
160.345
 20
283.181
 30
0.000000
  70
    32
  0
VERTEX
  8
0
  5
1740
 10
159.946
 20
283.228
 30
0.000000
  70
    32
  0
VERTEX
  8
0
  5
1741
 10
159.541
 20
283.268
 30
0.000000
  70
    32
  0
VERTEX
  8
0
  5
1742
 10
159.132
 20
283.300
 30
0.000000
  70
    32
  0
VERTEX
  8
0
  5
1743
 10
158.719
 20
283.326
 30
0.000000
  70
    32
  0
VERTEX
  8
0
  5
1744
 10
158.304
 20
283.344
 30
0.000000
  70
    32
  0
VERTEX
  8
0
  5
1745
 10
157.887
 20
283.355
 30
0.000000
  70
    32
  0
VERTEX
  8
0
  5
1746
 10
157.469
 20
283.359
 30
0.000000
  70
    32
  0
VERTEX
  8
0
  5
1747
 10
157.051
 20
283.355
 30
0.000000
  70
    32
  0
VERTEX
  8
0
  5
1748
 10
156.633
 20
283.344
 30
0.000000
  70
    32
  0
VERTEX
  8
0
  5
1749
 10
156.218
 20
283.326
 30
0.000000
  70
    32
  0
VERTEX
  8
0
  5
174A
 10
155.805
 20
283.300
 30
0.000000
  70
    32
  0
VERTEX
  8
0
  5
174B
 10
155.396
 20
283.268
 30
0.000000
  70
    32
  0
VERTEX
  8
0
  5
174C
 10
154.992
 20
283.228
 30
0.000000
  70
    32
  0
VERTEX
  8
0
  5
174D
 10
154.592
 20
283.181
 30
0.000000
  70
    32
  0
VERTEX
  8
0
  5
174E
 10
154.199
 20
283.127
 30
0.000000
  70
    32
  0
VERTEX
  8
0
  5
174F
 10
153.813
 20
283.066
 30
0.000000
  70
    32
  0
VERTEX
  8
0
  5
1750
 10
153.434
 20
282.999
 30
0.000000
  70
    32
  0
VERTEX
  8
0
  5
1751
 10
153.065
 20
282.925
 30
0.000000
  70
    32
  0
VERTEX
  8
0
  5
1752
 10
152.704
 20
282.844
 30
0.000000
  70
    32
  0
VERTEX
  8
0
  5
1753
 10
152.354
 20
282.758
 30
0.000000
  70
    32
  0
VERTEX
  8
0
  5
1754
 10
152.015
 20
282.665
 30
0.000000
  70
    32
  0
VERTEX
  8
0
  5
1755
 10
151.687
 20
282.567
 30
0.000000
  70
    32
  0
VERTEX
  8
0
  5
1756
 10
151.372
 20
282.462
 30
0.000000
  70
    32
  0
VERTEX
  8
0
  5
1757
 10
151.070
 20
282.353
 30
0.000000
  70
    32
  0
VERTEX
  8
0
  5
1758
 10
150.782
 20
282.238
 30
0.000000
  70
    32
  0
VERTEX
  8
0
  5
1759
 10
150.507
 20
282.118
 30
0.000000
  70
    32
  0
VERTEX
  8
0
  5
175A
 10
150.248
 20
281.994
 30
0.000000
  70
    32
  0
VERTEX
  8
0
  5
175B
 10
150.004
 20
281.865
 30
0.000000
  70
    32
  0
VERTEX
  8
0
  5
175C
 10
149.777
 20
281.732
 30
0.000000
  70
    32
  0
VERTEX
  8
0
  5
175D
 10
149.565
 20
281.596
 30
0.000000
  70
    32
  0
VERTEX
  8
0
  5
175E
 10
149.371
 20
281.455
 30
0.000000
  70
    32
  0
VERTEX
  8
0
  5
175F
 10
149.194
 20
281.312
 30
0.000000
  70
    32
  0
VERTEX
  8
0
  5
1760
 10
149.034
 20
281.165
 30
0.000000
  70
    32
  0
VERTEX
  8
0
  5
1761
 10
148.893
 20
281.016
 30
0.000000
  70
    32
  0
VERTEX
  8
0
  5
1762
 10
148.770
 20
280.865
 30
0.000000
  70
    32
  0
VERTEX
  8
0
  5
1763
 10
148.666
 20
280.711
 30
0.000000
  70
    32
  0
VERTEX
  8
0
  5
1764
 10
148.580
 20
280.556
 30
0.000000
  70
    32
  0
VERTEX
  8
0
  5
1765
 10
148.513
 20
280.400
 30
0.000000
  70
    32
  0
VERTEX
  8
0
  5
1766
 10
148.466
 20
280.242
 30
0.000000
  70
    32
  0
VERTEX
  8
0
  5
1767
 10
148.438
 20
280.084
 30
0.000000
  70
    32
  0
VERTEX
  8
0
  5
1768
 10
148.429
 20
279.925
 30
0.000000
  70
    32
  0
VERTEX
  8
0
  5
1769
 10
148.440
 20
279.767
 30
0.000000
  70
    32
  0
VERTEX
  8
0
  5
176A
 10
148.470
 20
279.609
 30
0.000000
  70
    32
  0
VERTEX
  8
0
  5
176B
 10
148.519
 20
279.452
 30
0.000000
  70
    32
  0
VERTEX
  8
0
  5
176C
 10
148.587
 20
279.295
 30
0.000000
  70
    32
  0
VERTEX
  8
0
  5
176D
 10
148.674
 20
279.140
 30
0.000000
  70
    32
  0
VERTEX
  8
0
  5
176E
 10
148.780
 20
278.987
 30
0.000000
  70
    32
  0
VERTEX
  8
0
  5
176F
 10
148.905
 20
278.836
 30
0.000000
  70
    32
  0
VERTEX
  8
0
  5
1770
 10
149.048
 20
278.687
 30
0.000000
  70
    32
  0
VERTEX
  8
0
  5
1771
 10
149.209
 20
278.540
 30
0.000000
  70
    32
  0
VERTEX
  8
0
  5
1772
 10
149.388
 20
278.397
 30
0.000000
  70
    32
  0
VERTEX
  8
0
  5
1773
 10
149.584
 20
278.257
 30
0.000000
  70
    32
  0
VERTEX
  8
0
  5
1774
 10
149.797
 20
278.121
 30
0.000000
  70
    32
  0
VERTEX
  8
0
  5
1775
 10
150.026
 20
277.988
 30
0.000000
  70
    32
  0
VERTEX
  8
0
  5
1776
 10
150.271
 20
277.860
 30
0.000000
  70
    32
  0
VERTEX
  8
0
  5
1777
 10
150.532
 20
277.736
 30
0.000000
  70
    32
  0
VERTEX
  8
0
  5
1778
 10
150.807
 20
277.617
 30
0.000000
  70
    32
  0
VERTEX
  8
0
  5
1779
 10
151.097
 20
277.502
 30
0.000000
  70
    32
  0
VERTEX
  8
0
  5
177A
 10
151.400
 20
277.393
 30
0.000000
  70
    32
  0
VERTEX
  8
0
  5
177B
 10
151.716
 20
277.290
 30
0.000000
  70
    32
  0
VERTEX
  8
0
  5
177C
 10
152.045
 20
277.192
 30
0.000000
  70
    32
  0
VERTEX
  8
0
  5
177D
 10
152.385
 20
277.099
 30
0.000000
  70
    32
  0
VERTEX
  8
0
  5
177E
 10
152.736
 20
277.013
 30
0.000000
  70
    32
  0
VERTEX
  8
0
  5
177F
 10
153.098
 20
276.934
 30
0.000000
  70
    32
  0
VERTEX
  8
0
  5
1780
 10
153.468
 20
276.860
 30
0.000000
  70
    32
  0
VERTEX
  8
0
  5
1781
 10
153.847
 20
276.793
 30
0.000000
  70
    32
  0
VERTEX
  8
0
  5
1782
 10
154.234
 20
276.733
 30
0.000000
  70
    32
  0
VERTEX
  8
0
  5
1783
 10
154.628
 20
276.680
 30
0.000000
  70
    32
  0
VERTEX
  8
0
  5
1784
 10
155.028
 20
276.634
 30
0.000000
  70
    32
  0
VERTEX
  8
0
  5
1785
 10
155.433
 20
276.594
 30
0.000000
  70
    32
  0
VERTEX
  8
0
  5
1786
 10
155.842
 20
276.562
 30
0.000000
  70
    32
  0
SEQEND
  8
0
  5
1787
  0
LINE
  5
13CA
  8
0
 10
159.09466716010431
 20
276.56221460031293
 30
0.0
 11
155.84245374765811
 21
276.56221460031293
 31
0.0
  0
LINE
  5
13CB
  8
0
 10
167.02107176434021
 20
294.4343582854429
 30
0.0
 11
165.04962269811659
 21
304.18448548927262
 31
0.0
  0
ARC
  5
13CC
  8
0
 10
164.5595405384129
 20
304.08539221634157
 30
0.0
 40
0.5
 50
11.43093316767178
 51
90.0
  0
ARC
  5
13CD
  8
0
 10
173.30120368269331
 20
291.10816084045899
 30
0.0
 40
7.0
 50
154.5146337365355
 51
197.21129352201169
  0
ARC
  5
13CE
  8
0
 10
166.53098960463649
 20
294.33526501251202
 30
0.0
 40
0.5
 50
334.51463373653547
 51
11.43093316767178
  0
LINE
  5
13CF
  8
0
 10
167.03098960463649
 20
294.33526501251202
 30
0.0
 11
167.03098960463649
 21
288.04318888945937
 31
0.0
  0
ARC
  5
13D0
  8
0
 10
180.6487313733939
 20
294.33263315103301
 30
0.0
 40
15.0
 50
200.67396706917449
 51
228.2567813213013
  0
LINE
  5
13D1
  8
0
 10
147.90613130312579
 20
294.33526501251202
 30
0.0
 11
147.90613130312579
 21
288.04318888945937
 31
0.0
  0
ARC
  5
13D2
  8
0
 10
141.63591722506899
 20
291.10816084045899
 30
0.0
 40
7.0
 50
342.78870647798823
 51
25.485366263464481
  0
ARC
  5
13D3
  8
0
 10
134.28838953436841
 20
294.33263315103301
 30
0.0
 40
15.0
 50
311.74321867869872
 51
339.32603293082548
  0
LINE
  5
13D4
  8
0
 10
147.9160491434221
 20
294.4343582854429
 30
0.0
 11
149.8874982096458
 21
304.18448548927262
 31
0.0
  0
ARC
  5
13D5
  8
0
 10
148.40613130312579
 20
294.33526501251202
 30
0.0
 40
0.5
 50
168.56906683232819
 51
205.48536626346441
  0
ARC
  5
13D6
  8
0
 10
150.37758036934949
 20
304.08539221634157
 30
0.0
 40
0.5
 50
90.0
 51
168.56906683232819
  0
LINE
  5
13D7
  8
0
 10
491.27122840424158
 20
299.95686770165838
 30
0.0
 11
494.00487512886701
 21
299.95686770165838
 31
0.0
  0
LINE
  5
13D8
  8
0
 10
490.97723762316463
 20
299.45941435790741
 30
0.0
 11
494.33811352802888
 21
299.45941435790741
 31
0.0
  0
LINE
  5
13D9
  8
0
 10
484.47465256704828
 20
289.12691636477518
 30
0.0
 11
500.86240084205622
 21
289.12691636477518
 31
0.0
  0
LINE
  5
13DA
  8
0
 10
485.179531655863
 20
291.02243561757189
 30
0.0
 11
500.1575217532415
 21
291.02243561757189
 31
0.0
  0
LINE
  5
13DB
  8
0
 10
485.14163645378841
 20
290.26895275054579
 30
0.0
 11
500.19541695531609
 21
290.26895275054579
 31
0.0
  0
LINE
  5
13DC
  8
0
 10
500.76199414996609
 20
289.46539221634163
 30
0.0
 11
484.57505925913853
 21
289.46539221634163
 31
0.0
  0
POLYLINE
  5
13DD
  8
0
 66
     1
 10
0.0
 20
0.0
 30
0.0
  0
VERTEX
  5
1646
  8
0
 10
485.76959368125029
 20
304.57147952754173
 30
0.0
  0
VERTEX
  5
1647
  8
0
 10
485.79435259028122
 20
304.5758050345321
 30
0.0
  0
VERTEX
  5
1648
  8
0
 10
485.84507086603787
 20
304.58199639676991
 30
0.0
  0
VERTEX
  5
1649
  8
0
 10
485.89726863651589
 20
304.58502136497628
 30
0.0
  0
VERTEX
  5
164A
  8
0
 10
485.92387360250427
 20
304.58539221634157
 30
0.0
  0
SEQEND
  5
164B
  8
0
  0
LINE
  5
13DE
  8
0
 10
485.16852670455228
 20
304.3171134902002
 30
0.0
 11
485.16852670455228
 21
290.88630514295261
 31
0.0
  0
LINE
  5
13DF
  8
0
 10
500.16852670455222
 20
304.3171134902002
 30
0.0
 11
500.16852670455222
 21
290.80362052196199
 31
0.0
  0
LINE
  5
13E0
  8
0
 10
508.16852670455222
 20
243.5853922163416
 30
0.0
 11
477.16852670455228
 21
243.5853922163416
 31
0.0
  0
LINE
  5
13E1
  8
1
 10
492.66852670455222
 20
292.58539221634157
 30
0.0
 11
492.66852670455222
 21
242.5853922163416
 31
0.0
  0
LINE
  5
13E2
  8
0
 10
504.16852670455222
 20
231.5853922163416
 30
0.0
 11
504.16852670455222
 21
243.5853922163416
 31
0.0
  0
LINE
  5
13E3
  8
0
 10
481.16852670455228
 20
243.5853922163416
 30
0.0
 11
481.16852670455228
 21
231.5853922163416
 31
0.0
  0
LINE
  5
13E4
  8
0
 10
481.16852670455228
 20
231.5853922163416
 30
0.0
 11
504.16852670455222
 21
231.5853922163416
 31
0.0
  0
LINE
  5
13E5
  8
1
 10
492.66852670455211
 20
314.58539221634152
 30
0.0
 11
492.66852670455211
 21
161.58539221634061
 31
0.0
  0
LINE
  5
13E6
  8
0
 10
502.23095585530763
 20
294.33526501251202
 30
0.0
 11
502.23095585530763
 21
276.64267712441529
 31
0.0
  0
ARC
  5
13E7
  8
0
 10
515.84869762406504
 20
294.33263315103301
 30
0.0
 40
15.0
 50
204.7901669365643
 51
228.2567813213013
  0
LINE
  5
13E8
  8
0
 10
499.75950678908401
 20
304.58539221634157
 30
0.0
 11
485.57754662002048
 21
304.58539221634157
 31
0.0
  0
LINE
  5
13E9
  8
0
 10
502.22103801501129
 20
294.4343582854429
 30
0.0
 11
500.24958894878768
 21
304.18448548927262
 31
0.0
  0
ARC
  5
13EA
  8
0
 10
501.73095585530763
 20
294.33526501251202
 30
0.0
 40
0.5
 50
0.0
 51
11.43093316767178
  0
ARC
  5
13EB
  8
0
 10
499.75950678908401
 20
304.08539221634157
 30
0.0
 40
0.5
 50
11.43093316767178
 51
90.0
  0
ARC
  5
13EC
  8
0
 10
469.48835578503957
 20
294.33263315103301
 30
0.0
 40
15.0
 50
311.74321867869872
 51
335.20983306343572
  0
ARC
  5
13ED
  8
0
 10
485.57754662002048
 20
304.08539221634157
 30
0.0
 40
0.5
 50
90.0
 51
168.56906683232819
  0
ARC
  5
13EE
  8
0
 10
483.60609755379699
 20
294.33526501251202
 30
0.0
 40
0.5
 50
168.56906683232819
 51
180.0
  0
LINE
  5
13EF
  8
0
 10
483.11601539409321
 20
294.4343582854429
 30
0.0
 11
485.08746446031688
 21
304.18448548927262
 31
0.0
  0
POLYLINE
  5
13F0
  8
0
 10
508.66442598958548
 20
279.24055357985605
 30
0.0
 66
     1
 70
     8
  0
VERTEX
  8
0
  5
1788
 10
508.664
 20
279.241
 30
0.000000
  70
    32
  0
VERTEX
  8
0
  5
1789
 10
508.666
 20
279.273
 30
0.000000
  70
    32
  0
VERTEX
  8
0
  5
178A
 10
508.667
 20
279.305
 30
0.000000
  70
    32
  0
VERTEX
  8
0
  5
178B
 10
508.668
 20
279.337
 30
0.000000
  70
    32
  0
VERTEX
  8
0
  5
178C
 10
508.668
 20
279.370
 30
0.000000
  70
    32
  0
VERTEX
  8
0
  5
178D
 10
508.669
 20
279.402
 30
0.000000
  70
    32
  0
VERTEX
  8
0
  5
178E
 10
508.668
 20
279.434
 30
0.000000
  70
    32
  0
VERTEX
  8
0
  5
178F
 10
508.667
 20
279.467
 30
0.000000
  70
    32
  0
VERTEX
  8
0
  5
1790
 10
508.666
 20
279.499
 30
0.000000
  70
    32
  0
VERTEX
  8
0
  5
1791
 10
508.665
 20
279.531
 30
0.000000
  70
    32
  0
VERTEX
  8
0
  5
1792
 10
508.663
 20
279.564
 30
0.000000
  70
    32
  0
VERTEX
  8
0
  5
1793
 10
508.661
 20
279.596
 30
0.000000
  70
    32
  0
VERTEX
  8
0
  5
1794
 10
508.658
 20
279.628
 30
0.000000
  70
    32
  0
VERTEX
  8
0
  5
1795
 10
508.655
 20
279.661
 30
0.000000
  70
    32
  0
VERTEX
  8
0
  5
1796
 10
508.652
 20
279.693
 30
0.000000
  70
    32
  0
VERTEX
  8
0
  5
1797
 10
508.648
 20
279.725
 30
0.000000
  70
    32
  0
VERTEX
  8
0
  5
1798
 10
508.644
 20
279.757
 30
0.000000
  70
    32
  0
VERTEX
  8
0
  5
1799
 10
508.640
 20
279.790
 30
0.000000
  70
    32
  0
VERTEX
  8
0
  5
179A
 10
508.635
 20
279.822
 30
0.000000
  70
    32
  0
VERTEX
  8
0
  5
179B
 10
508.629
 20
279.854
 30
0.000000
  70
    32
  0
VERTEX
  8
0
  5
179C
 10
508.624
 20
279.886
 30
0.000000
  70
    32
  0
VERTEX
  8
0
  5
179D
 10
508.618
 20
279.919
 30
0.000000
  70
    32
  0
VERTEX
  8
0
  5
179E
 10
508.611
 20
279.951
 30
0.000000
  70
    32
  0
VERTEX
  8
0
  5
179F
 10
508.605
 20
279.983
 30
0.000000
  70
    32
  0
VERTEX
  8
0
  5
17A0
 10
508.597
 20
280.015
 30
0.000000
  70
    32
  0
VERTEX
  8
0
  5
17A1
 10
508.590
 20
280.047
 30
0.000000
  70
    32
  0
VERTEX
  8
0
  5
17A2
 10
508.582
 20
280.079
 30
0.000000
  70
    32
  0
VERTEX
  8
0
  5
17A3
 10
508.574
 20
280.112
 30
0.000000
  70
    32
  0
VERTEX
  8
0
  5
17A4
 10
508.565
 20
280.144
 30
0.000000
  70
    32
  0
VERTEX
  8
0
  5
17A5
 10
508.556
 20
280.176
 30
0.000000
  70
    32
  0
VERTEX
  8
0
  5
17A6
 10
508.546
 20
280.208
 30
0.000000
  70
    32
  0
VERTEX
  8
0
  5
17A7
 10
508.537
 20
280.240
 30
0.000000
  70
    32
  0
VERTEX
  8
0
  5
17A8
 10
508.526
 20
280.272
 30
0.000000
  70
    32
  0
VERTEX
  8
0
  5
17A9
 10
508.516
 20
280.304
 30
0.000000
  70
    32
  0
VERTEX
  8
0
  5
17AA
 10
508.505
 20
280.336
 30
0.000000
  70
    32
  0
VERTEX
  8
0
  5
17AB
 10
508.494
 20
280.368
 30
0.000000
  70
    32
  0
VERTEX
  8
0
  5
17AC
 10
508.482
 20
280.400
 30
0.000000
  70
    32
  0
VERTEX
  8
0
  5
17AD
 10
508.470
 20
280.432
 30
0.000000
  70
    32
  0
VERTEX
  8
0
  5
17AE
 10
508.457
 20
280.464
 30
0.000000
  70
    32
  0
VERTEX
  8
0
  5
17AF
 10
508.445
 20
280.496
 30
0.000000
  70
    32
  0
VERTEX
  8
0
  5
17B0
 10
508.431
 20
280.527
 30
0.000000
  70
    32
  0
VERTEX
  8
0
  5
17B1
 10
508.418
 20
280.559
 30
0.000000
  70
    32
  0
VERTEX
  8
0
  5
17B2
 10
508.404
 20
280.591
 30
0.000000
  70
    32
  0
VERTEX
  8
0
  5
17B3
 10
508.390
 20
280.623
 30
0.000000
  70
    32
  0
VERTEX
  8
0
  5
17B4
 10
508.375
 20
280.654
 30
0.000000
  70
    32
  0
VERTEX
  8
0
  5
17B5
 10
508.360
 20
280.686
 30
0.000000
  70
    32
  0
VERTEX
  8
0
  5
17B6
 10
508.344
 20
280.718
 30
0.000000
  70
    32
  0
VERTEX
  8
0
  5
17B7
 10
508.329
 20
280.750
 30
0.000000
  70
    32
  0
VERTEX
  8
0
  5
17B8
 10
508.313
 20
280.781
 30
0.000000
  70
    32
  0
VERTEX
  8
0
  5
17B9
 10
508.296
 20
280.813
 30
0.000000
  70
    32
  0
VERTEX
  8
0
  5
17BA
 10
508.279
 20
280.844
 30
0.000000
  70
    32
  0
VERTEX
  8
0
  5
17BB
 10
508.262
 20
280.876
 30
0.000000
  70
    32
  0
VERTEX
  8
0
  5
17BC
 10
508.244
 20
280.907
 30
0.000000
  70
    32
  0
VERTEX
  8
0
  5
17BD
 10
508.226
 20
280.939
 30
0.000000
  70
    32
  0
VERTEX
  8
0
  5
17BE
 10
508.208
 20
280.970
 30
0.000000
  70
    32
  0
VERTEX
  8
0
  5
17BF
 10
508.189
 20
281.001
 30
0.000000
  70
    32
  0
VERTEX
  8
0
  5
17C0
 10
508.170
 20
281.033
 30
0.000000
  70
    32
  0
VERTEX
  8
0
  5
17C1
 10
508.150
 20
281.064
 30
0.000000
  70
    32
  0
VERTEX
  8
0
  5
17C2
 10
508.130
 20
281.095
 30
0.000000
  70
    32
  0
VERTEX
  8
0
  5
17C3
 10
508.110
 20
281.126
 30
0.000000
  70
    32
  0
VERTEX
  8
0
  5
17C4
 10
508.090
 20
281.158
 30
0.000000
  70
    32
  0
VERTEX
  8
0
  5
17C5
 10
508.069
 20
281.189
 30
0.000000
  70
    32
  0
VERTEX
  8
0
  5
17C6
 10
508.047
 20
281.220
 30
0.000000
  70
    32
  0
VERTEX
  8
0
  5
17C7
 10
508.025
 20
281.251
 30
0.000000
  70
    32
  0
VERTEX
  8
0
  5
17C8
 10
508.003
 20
281.282
 30
0.000000
  70
    32
  0
VERTEX
  8
0
  5
17C9
 10
507.981
 20
281.313
 30
0.000000
  70
    32
  0
VERTEX
  8
0
  5
17CA
 10
507.958
 20
281.344
 30
0.000000
  70
    32
  0
VERTEX
  8
0
  5
17CB
 10
507.935
 20
281.375
 30
0.000000
  70
    32
  0
VERTEX
  8
0
  5
17CC
 10
507.911
 20
281.405
 30
0.000000
  70
    32
  0
VERTEX
  8
0
  5
17CD
 10
507.888
 20
281.436
 30
0.000000
  70
    32
  0
VERTEX
  8
0
  5
17CE
 10
507.863
 20
281.467
 30
0.000000
  70
    32
  0
VERTEX
  8
0
  5
17CF
 10
507.839
 20
281.498
 30
0.000000
  70
    32
  0
VERTEX
  8
0
  5
17D0
 10
507.814
 20
281.528
 30
0.000000
  70
    32
  0
VERTEX
  8
0
  5
17D1
 10
507.788
 20
281.559
 30
0.000000
  70
    32
  0
VERTEX
  8
0
  5
17D2
 10
507.763
 20
281.589
 30
0.000000
  70
    32
  0
VERTEX
  8
0
  5
17D3
 10
507.737
 20
281.620
 30
0.000000
  70
    32
  0
VERTEX
  8
0
  5
17D4
 10
507.710
 20
281.650
 30
0.000000
  70
    32
  0
VERTEX
  8
0
  5
17D5
 10
507.684
 20
281.680
 30
0.000000
  70
    32
  0
VERTEX
  8
0
  5
17D6
 10
507.656
 20
281.711
 30
0.000000
  70
    32
  0
VERTEX
  8
0
  5
17D7
 10
507.629
 20
281.741
 30
0.000000
  70
    32
  0
VERTEX
  8
0
  5
17D8
 10
507.601
 20
281.771
 30
0.000000
  70
    32
  0
VERTEX
  8
0
  5
17D9
 10
507.573
 20
281.801
 30
0.000000
  70
    32
  0
VERTEX
  8
0
  5
17DA
 10
507.544
 20
281.831
 30
0.000000
  70
    32
  0
VERTEX
  8
0
  5
17DB
 10
507.515
 20
281.861
 30
0.000000
  70
    32
  0
VERTEX
  8
0
  5
17DC
 10
507.486
 20
281.891
 30
0.000000
  70
    32
  0
VERTEX
  8
0
  5
17DD
 10
507.457
 20
281.921
 30
0.000000
  70
    32
  0
VERTEX
  8
0
  5
17DE
 10
507.427
 20
281.951
 30
0.000000
  70
    32
  0
VERTEX
  8
0
  5
17DF
 10
507.396
 20
281.981
 30
0.000000
  70
    32
  0
VERTEX
  8
0
  5
17E0
 10
507.366
 20
282.011
 30
0.000000
  70
    32
  0
VERTEX
  8
0
  5
17E1
 10
507.335
 20
282.040
 30
0.000000
  70
    32
  0
VERTEX
  8
0
  5
17E2
 10
507.303
 20
282.070
 30
0.000000
  70
    32
  0
VERTEX
  8
0
  5
17E3
 10
507.272
 20
282.099
 30
0.000000
  70
    32
  0
VERTEX
  8
0
  5
17E4
 10
507.240
 20
282.129
 30
0.000000
  70
    32
  0
VERTEX
  8
0
  5
17E5
 10
507.207
 20
282.158
 30
0.000000
  70
    32
  0
VERTEX
  8
0
  5
17E6
 10
507.174
 20
282.187
 30
0.000000
  70
    32
  0
VERTEX
  8
0
  5
17E7
 10
507.141
 20
282.217
 30
0.000000
  70
    32
  0
VERTEX
  8
0
  5
17E8
 10
507.108
 20
282.246
 30
0.000000
  70
    32
  0
VERTEX
  8
0
  5
17E9
 10
507.074
 20
282.275
 30
0.000000
  70
    32
  0
VERTEX
  8
0
  5
17EA
 10
507.040
 20
282.304
 30
0.000000
  70
    32
  0
VERTEX
  8
0
  5
17EB
 10
507.006
 20
282.333
 30
0.000000
  70
    32
  0
VERTEX
  8
0
  5
17EC
 10
506.971
 20
282.362
 30
0.000000
  70
    32
  0
VERTEX
  8
0
  5
17ED
 10
506.936
 20
282.391
 30
0.000000
  70
    32
  0
VERTEX
  8
0
  5
17EE
 10
506.900
 20
282.420
 30
0.000000
  70
    32
  0
VERTEX
  8
0
  5
17EF
 10
506.864
 20
282.448
 30
0.000000
  70
    32
  0
VERTEX
  8
0
  5
17F0
 10
506.828
 20
282.477
 30
0.000000
  70
    32
  0
VERTEX
  8
0
  5
17F1
 10
506.792
 20
282.506
 30
0.000000
  70
    32
  0
VERTEX
  8
0
  5
17F2
 10
506.755
 20
282.534
 30
0.000000
  70
    32
  0
VERTEX
  8
0
  5
17F3
 10
506.718
 20
282.562
 30
0.000000
  70
    32
  0
VERTEX
  8
0
  5
17F4
 10
506.680
 20
282.591
 30
0.000000
  70
    32
  0
VERTEX
  8
0
  5
17F5
 10
506.642
 20
282.619
 30
0.000000
  70
    32
  0
VERTEX
  8
0
  5
17F6
 10
506.604
 20
282.647
 30
0.000000
  70
    32
  0
VERTEX
  8
0
  5
17F7
 10
506.566
 20
282.675
 30
0.000000
  70
    32
  0
VERTEX
  8
0
  5
17F8
 10
506.527
 20
282.703
 30
0.000000
  70
    32
  0
VERTEX
  8
0
  5
17F9
 10
506.488
 20
282.731
 30
0.000000
  70
    32
  0
VERTEX
  8
0
  5
17FA
 10
506.448
 20
282.759
 30
0.000000
  70
    32
  0
VERTEX
  8
0
  5
17FB
 10
506.409
 20
282.787
 30
0.000000
  70
    32
  0
VERTEX
  8
0
  5
17FC
 10
506.368
 20
282.815
 30
0.000000
  70
    32
  0
VERTEX
  8
0
  5
17FD
 10
506.328
 20
282.842
 30
0.000000
  70
    32
  0
VERTEX
  8
0
  5
17FE
 10
506.287
 20
282.870
 30
0.000000
  70
    32
  0
VERTEX
  8
0
  5
17FF
 10
506.246
 20
282.897
 30
0.000000
  70
    32
  0
VERTEX
  8
0
  5
1800
 10
506.205
 20
282.925
 30
0.000000
  70
    32
  0
VERTEX
  8
0
  5
1801
 10
506.163
 20
282.952
 30
0.000000
  70
    32
  0
VERTEX
  8
0
  5
1802
 10
506.121
 20
282.979
 30
0.000000
  70
    32
  0
VERTEX
  8
0
  5
1803
 10
506.078
 20
283.006
 30
0.000000
  70
    32
  0
VERTEX
  8
0
  5
1804
 10
506.036
 20
283.033
 30
0.000000
  70
    32
  0
VERTEX
  8
0
  5
1805
 10
505.993
 20
283.060
 30
0.000000
  70
    32
  0
VERTEX
  8
0
  5
1806
 10
505.949
 20
283.087
 30
0.000000
  70
    32
  0
VERTEX
  8
0
  5
1807
 10
505.906
 20
283.114
 30
0.000000
  70
    32
  0
VERTEX
  8
0
  5
1808
 10
505.862
 20
283.141
 30
0.000000
  70
    32
  0
SEQEND
  8
0
  5
1809
  0
LINE
  5
13F1
  8
0
 10
508.6645209236151
 20
279.2473793371164
 30
0.0
 11
508.16852670455222
 21
243.5853922163416
 31
0.0
  0
LINE
  5
13F2
  8
0
 10
141.47256623481829
 20
279.2473793371164
 30
0.0
 11
141.9685604538812
 21
243.5853922163416
 31
0.0
  0
LINE
  5
13F3
  8
0
 10
476.67253248548928
 20
279.2473793371164
 30
0.0
 11
477.16852670455228
 21
243.5853922163416
 31
0.0
  0
POLYLINE
  5
13F4
  8
0
 10
479.47525619529517
 20
283.14059043329655
 30
0.0
 66
     1
 70
     8
  0
VERTEX
  8
0
  5
180A
 10
479.475
 20
283.141
 30
0.000000
  70
    32
  0
VERTEX
  8
0
  5
180B
 10
479.431
 20
283.114
 30
0.000000
  70
    32
  0
VERTEX
  8
0
  5
180C
 10
479.388
 20
283.087
 30
0.000000
  70
    32
  0
VERTEX
  8
0
  5
180D
 10
479.344
 20
283.060
 30
0.000000
  70
    32
  0
VERTEX
  8
0
  5
180E
 10
479.301
 20
283.033
 30
0.000000
  70
    32
  0
VERTEX
  8
0
  5
180F
 10
479.259
 20
283.006
 30
0.000000
  70
    32
  0
VERTEX
  8
0
  5
1810
 10
479.216
 20
282.979
 30
0.000000
  70
    32
  0
VERTEX
  8
0
  5
1811
 10
479.174
 20
282.952
 30
0.000000
  70
    32
  0
VERTEX
  8
0
  5
1812
 10
479.132
 20
282.925
 30
0.000000
  70
    32
  0
VERTEX
  8
0
  5
1813
 10
479.091
 20
282.897
 30
0.000000
  70
    32
  0
VERTEX
  8
0
  5
1814
 10
479.050
 20
282.870
 30
0.000000
  70
    32
  0
VERTEX
  8
0
  5
1815
 10
479.009
 20
282.842
 30
0.000000
  70
    32
  0
VERTEX
  8
0
  5
1816
 10
478.969
 20
282.815
 30
0.000000
  70
    32
  0
VERTEX
  8
0
  5
1817
 10
478.928
 20
282.787
 30
0.000000
  70
    32
  0
VERTEX
  8
0
  5
1818
 10
478.889
 20
282.759
 30
0.000000
  70
    32
  0
VERTEX
  8
0
  5
1819
 10
478.849
 20
282.731
 30
0.000000
  70
    32
  0
VERTEX
  8
0
  5
181A
 10
478.810
 20
282.703
 30
0.000000
  70
    32
  0
VERTEX
  8
0
  5
181B
 10
478.771
 20
282.675
 30
0.000000
  70
    32
  0
VERTEX
  8
0
  5
181C
 10
478.733
 20
282.647
 30
0.000000
  70
    32
  0
VERTEX
  8
0
  5
181D
 10
478.695
 20
282.619
 30
0.000000
  70
    32
  0
VERTEX
  8
0
  5
181E
 10
478.657
 20
282.591
 30
0.000000
  70
    32
  0
VERTEX
  8
0
  5
181F
 10
478.619
 20
282.562
 30
0.000000
  70
    32
  0
VERTEX
  8
0
  5
1820
 10
478.582
 20
282.534
 30
0.000000
  70
    32
  0
VERTEX
  8
0
  5
1821
 10
478.545
 20
282.506
 30
0.000000
  70
    32
  0
VERTEX
  8
0
  5
1822
 10
478.509
 20
282.477
 30
0.000000
  70
    32
  0
VERTEX
  8
0
  5
1823
 10
478.473
 20
282.448
 30
0.000000
  70
    32
  0
VERTEX
  8
0
  5
1824
 10
478.437
 20
282.420
 30
0.000000
  70
    32
  0
VERTEX
  8
0
  5
1825
 10
478.401
 20
282.391
 30
0.000000
  70
    32
  0
VERTEX
  8
0
  5
1826
 10
478.366
 20
282.362
 30
0.000000
  70
    32
  0
VERTEX
  8
0
  5
1827
 10
478.331
 20
282.333
 30
0.000000
  70
    32
  0
VERTEX
  8
0
  5
1828
 10
478.297
 20
282.304
 30
0.000000
  70
    32
  0
VERTEX
  8
0
  5
1829
 10
478.263
 20
282.275
 30
0.000000
  70
    32
  0
VERTEX
  8
0
  5
182A
 10
478.229
 20
282.246
 30
0.000000
  70
    32
  0
VERTEX
  8
0
  5
182B
 10
478.196
 20
282.217
 30
0.000000
  70
    32
  0
VERTEX
  8
0
  5
182C
 10
478.163
 20
282.187
 30
0.000000
  70
    32
  0
VERTEX
  8
0
  5
182D
 10
478.130
 20
282.158
 30
0.000000
  70
    32
  0
VERTEX
  8
0
  5
182E
 10
478.097
 20
282.129
 30
0.000000
  70
    32
  0
VERTEX
  8
0
  5
182F
 10
478.065
 20
282.099
 30
0.000000
  70
    32
  0
VERTEX
  8
0
  5
1830
 10
478.034
 20
282.070
 30
0.000000
  70
    32
  0
VERTEX
  8
0
  5
1831
 10
478.002
 20
282.040
 30
0.000000
  70
    32
  0
VERTEX
  8
0
  5
1832
 10
477.971
 20
282.011
 30
0.000000
  70
    32
  0
VERTEX
  8
0
  5
1833
 10
477.941
 20
281.981
 30
0.000000
  70
    32
  0
VERTEX
  8
0
  5
1834
 10
477.910
 20
281.951
 30
0.000000
  70
    32
  0
VERTEX
  8
0
  5
1835
 10
477.880
 20
281.921
 30
0.000000
  70
    32
  0
VERTEX
  8
0
  5
1836
 10
477.851
 20
281.891
 30
0.000000
  70
    32
  0
VERTEX
  8
0
  5
1837
 10
477.822
 20
281.861
 30
0.000000
  70
    32
  0
VERTEX
  8
0
  5
1838
 10
477.793
 20
281.831
 30
0.000000
  70
    32
  0
VERTEX
  8
0
  5
1839
 10
477.764
 20
281.801
 30
0.000000
  70
    32
  0
VERTEX
  8
0
  5
183A
 10
477.736
 20
281.771
 30
0.000000
  70
    32
  0
VERTEX
  8
0
  5
183B
 10
477.708
 20
281.741
 30
0.000000
  70
    32
  0
VERTEX
  8
0
  5
183C
 10
477.681
 20
281.711
 30
0.000000
  70
    32
  0
VERTEX
  8
0
  5
183D
 10
477.654
 20
281.680
 30
0.000000
  70
    32
  0
VERTEX
  8
0
  5
183E
 10
477.627
 20
281.650
 30
0.000000
  70
    32
  0
VERTEX
  8
0
  5
183F
 10
477.600
 20
281.620
 30
0.000000
  70
    32
  0
VERTEX
  8
0
  5
1840
 10
477.574
 20
281.589
 30
0.000000
  70
    32
  0
VERTEX
  8
0
  5
1841
 10
477.549
 20
281.559
 30
0.000000
  70
    32
  0
VERTEX
  8
0
  5
1842
 10
477.523
 20
281.528
 30
0.000000
  70
    32
  0
VERTEX
  8
0
  5
1843
 10
477.498
 20
281.498
 30
0.000000
  70
    32
  0
VERTEX
  8
0
  5
1844
 10
477.474
 20
281.467
 30
0.000000
  70
    32
  0
VERTEX
  8
0
  5
1845
 10
477.449
 20
281.436
 30
0.000000
  70
    32
  0
VERTEX
  8
0
  5
1846
 10
477.426
 20
281.405
 30
0.000000
  70
    32
  0
VERTEX
  8
0
  5
1847
 10
477.402
 20
281.375
 30
0.000000
  70
    32
  0
VERTEX
  8
0
  5
1848
 10
477.379
 20
281.344
 30
0.000000
  70
    32
  0
VERTEX
  8
0
  5
1849
 10
477.356
 20
281.313
 30
0.000000
  70
    32
  0
VERTEX
  8
0
  5
184A
 10
477.334
 20
281.282
 30
0.000000
  70
    32
  0
VERTEX
  8
0
  5
184B
 10
477.312
 20
281.251
 30
0.000000
  70
    32
  0
VERTEX
  8
0
  5
184C
 10
477.290
 20
281.220
 30
0.000000
  70
    32
  0
VERTEX
  8
0
  5
184D
 10
477.269
 20
281.189
 30
0.000000
  70
    32
  0
VERTEX
  8
0
  5
184E
 10
477.248
 20
281.158
 30
0.000000
  70
    32
  0
VERTEX
  8
0
  5
184F
 10
477.227
 20
281.126
 30
0.000000
  70
    32
  0
VERTEX
  8
0
  5
1850
 10
477.207
 20
281.095
 30
0.000000
  70
    32
  0
VERTEX
  8
0
  5
1851
 10
477.187
 20
281.064
 30
0.000000
  70
    32
  0
VERTEX
  8
0
  5
1852
 10
477.167
 20
281.033
 30
0.000000
  70
    32
  0
VERTEX
  8
0
  5
1853
 10
477.148
 20
281.001
 30
0.000000
  70
    32
  0
VERTEX
  8
0
  5
1854
 10
477.129
 20
280.970
 30
0.000000
  70
    32
  0
VERTEX
  8
0
  5
1855
 10
477.111
 20
280.939
 30
0.000000
  70
    32
  0
VERTEX
  8
0
  5
1856
 10
477.093
 20
280.907
 30
0.000000
  70
    32
  0
VERTEX
  8
0
  5
1857
 10
477.075
 20
280.876
 30
0.000000
  70
    32
  0
VERTEX
  8
0
  5
1858
 10
477.058
 20
280.844
 30
0.000000
  70
    32
  0
VERTEX
  8
0
  5
1859
 10
477.041
 20
280.813
 30
0.000000
  70
    32
  0
VERTEX
  8
0
  5
185A
 10
477.025
 20
280.781
 30
0.000000
  70
    32
  0
VERTEX
  8
0
  5
185B
 10
477.008
 20
280.750
 30
0.000000
  70
    32
  0
VERTEX
  8
0
  5
185C
 10
476.993
 20
280.718
 30
0.000000
  70
    32
  0
VERTEX
  8
0
  5
185D
 10
476.977
 20
280.686
 30
0.000000
  70
    32
  0
VERTEX
  8
0
  5
185E
 10
476.962
 20
280.654
 30
0.000000
  70
    32
  0
VERTEX
  8
0
  5
185F
 10
476.947
 20
280.623
 30
0.000000
  70
    32
  0
VERTEX
  8
0
  5
1860
 10
476.933
 20
280.591
 30
0.000000
  70
    32
  0
VERTEX
  8
0
  5
1861
 10
476.919
 20
280.559
 30
0.000000
  70
    32
  0
VERTEX
  8
0
  5
1862
 10
476.906
 20
280.527
 30
0.000000
  70
    32
  0
VERTEX
  8
0
  5
1863
 10
476.892
 20
280.496
 30
0.000000
  70
    32
  0
VERTEX
  8
0
  5
1864
 10
476.880
 20
280.464
 30
0.000000
  70
    32
  0
VERTEX
  8
0
  5
1865
 10
476.867
 20
280.432
 30
0.000000
  70
    32
  0
VERTEX
  8
0
  5
1866
 10
476.855
 20
280.400
 30
0.000000
  70
    32
  0
VERTEX
  8
0
  5
1867
 10
476.843
 20
280.368
 30
0.000000
  70
    32
  0
VERTEX
  8
0
  5
1868
 10
476.832
 20
280.336
 30
0.000000
  70
    32
  0
VERTEX
  8
0
  5
1869
 10
476.821
 20
280.304
 30
0.000000
  70
    32
  0
VERTEX
  8
0
  5
186A
 10
476.811
 20
280.272
 30
0.000000
  70
    32
  0
VERTEX
  8
0
  5
186B
 10
476.800
 20
280.240
 30
0.000000
  70
    32
  0
VERTEX
  8
0
  5
186C
 10
476.791
 20
280.208
 30
0.000000
  70
    32
  0
VERTEX
  8
0
  5
186D
 10
476.781
 20
280.176
 30
0.000000
  70
    32
  0
VERTEX
  8
0
  5
186E
 10
476.772
 20
280.144
 30
0.000000
  70
    32
  0
VERTEX
  8
0
  5
186F
 10
476.763
 20
280.112
 30
0.000000
  70
    32
  0
VERTEX
  8
0
  5
1870
 10
476.755
 20
280.079
 30
0.000000
  70
    32
  0
VERTEX
  8
0
  5
1871
 10
476.747
 20
280.047
 30
0.000000
  70
    32
  0
VERTEX
  8
0
  5
1872
 10
476.740
 20
280.015
 30
0.000000
  70
    32
  0
VERTEX
  8
0
  5
1873
 10
476.733
 20
279.983
 30
0.000000
  70
    32
  0
VERTEX
  8
0
  5
1874
 10
476.726
 20
279.951
 30
0.000000
  70
    32
  0
VERTEX
  8
0
  5
1875
 10
476.719
 20
279.919
 30
0.000000
  70
    32
  0
VERTEX
  8
0
  5
1876
 10
476.713
 20
279.886
 30
0.000000
  70
    32
  0
VERTEX
  8
0
  5
1877
 10
476.708
 20
279.854
 30
0.000000
  70
    32
  0
VERTEX
  8
0
  5
1878
 10
476.702
 20
279.822
 30
0.000000
  70
    32
  0
VERTEX
  8
0
  5
1879
 10
476.698
 20
279.790
 30
0.000000
  70
    32
  0
VERTEX
  8
0
  5
187A
 10
476.693
 20
279.757
 30
0.000000
  70
    32
  0
VERTEX
  8
0
  5
187B
 10
476.689
 20
279.725
 30
0.000000
  70
    32
  0
VERTEX
  8
0
  5
187C
 10
476.685
 20
279.693
 30
0.000000
  70
    32
  0
VERTEX
  8
0
  5
187D
 10
476.682
 20
279.661
 30
0.000000
  70
    32
  0
VERTEX
  8
0
  5
187E
 10
476.679
 20
279.628
 30
0.000000
  70
    32
  0
VERTEX
  8
0
  5
187F
 10
476.676
 20
279.596
 30
0.000000
  70
    32
  0
VERTEX
  8
0
  5
1880
 10
476.674
 20
279.564
 30
0.000000
  70
    32
  0
VERTEX
  8
0
  5
1881
 10
476.672
 20
279.531
 30
0.000000
  70
    32
  0
VERTEX
  8
0
  5
1882
 10
476.671
 20
279.499
 30
0.000000
  70
    32
  0
VERTEX
  8
0
  5
1883
 10
476.670
 20
279.467
 30
0.000000
  70
    32
  0
VERTEX
  8
0
  5
1884
 10
476.669
 20
279.434
 30
0.000000
  70
    32
  0
VERTEX
  8
0
  5
1885
 10
476.669
 20
279.402
 30
0.000000
  70
    32
  0
VERTEX
  8
0
  5
1886
 10
476.669
 20
279.370
 30
0.000000
  70
    32
  0
VERTEX
  8
0
  5
1887
 10
476.669
 20
279.337
 30
0.000000
  70
    32
  0
VERTEX
  8
0
  5
1888
 10
476.670
 20
279.305
 30
0.000000
  70
    32
  0
VERTEX
  8
0
  5
1889
 10
476.671
 20
279.273
 30
0.000000
  70
    32
  0
VERTEX
  8
0
  5
188A
 10
476.673
 20
279.241
 30
0.000000
  70
    32
  0
SEQEND
  8
0
  5
188B
  0
ARC
  5
13F5
  8
0
 10
517.53561617539083
 20
271.68800950624552
 30
0.0
 40
16.0
 50
164.0225319366626
 51
212.5247298491451
  0
ARC
  5
13F6
  8
0
 10
500.23095585530768
 20
276.64267712441529
 30
0.0
 40
2.0
 50
344.02253193666257
 51
0.0
  0
LINE
  5
13F7
  8
0
 10
502.23266261932849
 20
276.90008542245391
 30
0.0
 11
500.86240084205627
 21
289.12691636477427
 31
0.0
  0
LINE
  5
13F8
  8
0
 10
500.76199414996609
 20
289.46539221634163
 30
0.0
 11
500.86240084205622
 21
289.12691636477518
 31
0.0
  0
LINE
  5
13F9
  8
0
 10
500.1575217532415
 20
291.02243561757189
 30
0.0
 11
500.23105401754742
 21
289.5603692267108
 31
0.0
  0
ARC
  5
13FA
  8
0
 10
500.33092778575087
 20
289.56539221634159
 30
0.0
 40
0.1
 50
182.8791726428968
 51
270.0
  0
LINE
  5
13FB
  8
0
 10
483.10609755379681
 20
294.33526501251202
 30
0.0
 11
483.10609755379681
 21
276.64267712441529
 31
0.0
  0
LINE
  5
13FC
  8
0
 10
483.10439078977601
 20
276.90008542245391
 30
0.0
 11
484.47465256704822
 21
289.12691636477427
 31
0.0
  0
ARC
  5
13FD
  8
0
 10
467.80143723371373
 20
271.68800950624552
 30
0.0
 40
16.0
 50
327.4752701508549
 51
15.977468063337369
  0
ARC
  5
13FE
  8
0
 10
485.10609755379687
 20
276.64267712441529
 30
0.0
 40
2.0
 50
180.0
 51
195.97746806333731
  0
LINE
  5
13FF
  8
0
 10
485.179531655863
 20
291.02243561757189
 30
0.0
 11
485.10599939155708
 21
289.5603692267108
 31
0.0
  0
ARC
  5
1400
  8
0
 10
485.00612562335363
 20
289.56539221634159
 30
0.0
 40
0.1
 50
270.0
 51
357.12082735710311
  0
LINE
  5
1401
  8
0
 10
484.57505925913841
 20
289.46539221634163
 30
0.0
 11
484.47465256704828
 21
289.12691636477518
 31
0.0
  0
ARC
  5
1402
  8
0
 10
506.8603252533419
 20
288.3802123040137
 30
0.0
 40
18.0
 50
116.9726637604859
 51
134.80837889191491
  0
ARC
  5
1403
  8
0
 10
499.37649710552421
 20
303.08539221634157
 30
0.0
 40
1.5
 50
90.0
 51
116.9726637604859
  0
ARC
  5
1404
  8
0
 10
560.345756162876
 20
344.65887357801648
 30
0.0
 40
80.0
 50
214.0362878740896
 51
219.4398401049931
  0
ARC
  5
1405
  8
0
 10
494.87977977146687
 20
300.44116292810321
 30
0.0
 40
1.0
 50
134.80837889191491
 51
214.0362878740896
  0
ARC
  5
1406
  8
0
 10
485.51082511740373
 20
284.5823767377791
 30
0.0
 40
16.0
 50
23.734790178187481
 51
35.341083939324157
  0
ARC
  5
1407
  8
0
 10
424.99129724622838
 20
344.65887357801648
 30
0.0
 40
80.0
 50
320.5601598950069
 51
325.96371212591038
  0
ARC
  5
1408
  8
0
 10
478.4767281557626
 20
288.3802123040137
 30
0.0
 40
18.0
 50
45.191621108085108
 51
63.027336239514078
  0
ARC
  5
1409
  8
0
 10
490.45727363763763
 20
300.44116292810321
 30
0.0
 40
1.0
 50
325.96371212591038
 51
45.191621108085108
  0
ARC
  5
140A
  8
0
 10
485.96055630358018
 20
303.08539221634157
 30
0.0
 40
1.5
 50
63.027336239514078
 51
90.0
  0
ARC
  5
140B
  8
0
 10
499.82622829170072
 20
284.5823767377791
 30
0.0
 40
16.0
 50
144.65891606067581
 51
156.2652098218125
  0
LINE
  5
1433
  8
0
 10
286.85058004447279
 20
171.5853922163414
 30
0.0
 11
274.85058004447279
 21
171.58539221634149
 31
0.0
  0
LINE
  5
1434
  8
0
 10
272.85058004447279
 20
231.5853922163416
 30
0.0
 11
272.85058004447279
 21
173.58539221634169
 31
0.0
  0
LINE
  5
1435
  8
3
 10
273.93308004447277
 20
225.5853922163416
 30
0.0
 11
273.93308004447277
 21
172.50289221634171
 31
0.0
  0
LINE
  5
1436
  8
3
 10
287.76808004447281
 20
225.5853922163416
 30
0.0
 11
287.76808004447281
 21
172.50289221634139
 31
0.0
  0
LINE
  5
1437
  8
0
 10
288.85058004447291
 20
231.5853922163416
 30
0.0
 11
288.85058004447291
 21
173.5853922163414
 31
0.0
  0
LINE
  5
1438
  8
0
 10
288.85058004447291
 20
173.5853922163414
 30
0.0
 11
286.85058004447279
 21
171.5853922163414
 31
0.0
  0
LINE
  5
1439
  8
0
 10
274.85058004447279
 20
171.58539221634149
 30
0.0
 11
272.85058004447279
 21
173.5853922163416
 31
0.0
  0
LINE
  5
143A
  8
0
 10
272.85058004447279
 20
173.5853922163416
 30
0.0
 11
288.85058004447291
 21
173.5853922163414
 31
0.0
  0
LINE
  5
143B
  8
0
 10
288.85058004447291
 20
225.5853922163416
 30
0.0
 11
272.85058004447279
 21
225.5853922163416
 31
0.0
  0
LINE
  5
143C
  8
3
 10
287.76808004447281
 20
225.5853922163416
 30
0.0
 11
288.85058004447291
 21
227.46033721553479
 31
0.0
  0
LINE
  5
143D
  8
3
 10
273.93308004447277
 20
225.5853922163416
 30
0.0
 11
272.85058004447291
 21
227.46033721553479
 31
0.0
  0
LINE
  5
1442
  8
3
 10
150.56106045388111
 20
225.5853922163416
 30
0.0
 11
150.56106045388111
 21
172.50289221634171
 31
0.0
  0
LINE
  5
1443
  8
3
 10
164.3960604538812
 20
225.5853922163416
 30
0.0
 11
164.3960604538812
 21
172.50289221634151
 31
0.0
  0
LINE
  5
1444
  8
0
 10
163.4785604538811
 20
171.5853922163414
 30
0.0
 11
151.47856045388119
 21
171.58539221634149
 31
0.0
  0
LINE
  5
1445
  8
0
 10
149.47856045388119
 20
173.5853922163416
 30
0.0
 11
165.47856045388119
 21
173.5853922163414
 31
0.0
  0
LINE
  5
1446
  8
0
 10
151.47856045388119
 20
171.58539221634149
 30
0.0
 11
149.47856045388119
 21
173.5853922163416
 31
0.0
  0
LINE
  5
1447
  8
0
 10
165.47856045388119
 20
173.5853922163414
 30
0.0
 11
163.4785604538811
 21
171.5853922163414
 31
0.0
  0
LINE
  5
1448
  8
0
 10
165.47856045388119
 20
225.5853922163416
 30
0.0
 11
149.47856045388119
 21
225.5853922163416
 31
0.0
  0
LINE
  5
1449
  8
3
 10
150.56106045388111
 20
225.5853922163416
 30
0.0
 11
149.47856045388119
 21
227.46033721553479
 31
0.0
  0
LINE
  5
144A
  8
3
 10
164.3960604538812
 20
225.5853922163416
 30
0.0
 11
165.47856045388119
 21
227.46033721553479
 31
0.0
  0
LINE
  5
144B
  8
0
 10
165.47856045388119
 20
231.5853922163416
 30
0.0
 11
165.4785604538811
 21
173.5853922163414
 31
0.0
  0
LINE
  5
144C
  8
0
 10
149.47856045388119
 20
231.5853922163416
 30
0.0
 11
149.4785604538811
 21
173.58539221634169
 31
0.0
  0
LINE
  5
144D
  8
3
 10
499.59602670455217
 20
225.5853922163416
 30
0.0
 11
499.59602670455217
 21
172.50289221634139
 31
0.0
  0
LINE
  5
144E
  8
0
 10
500.67852670455221
 20
231.5853922163416
 30
0.0
 11
500.67852670455221
 21
173.5853922163414
 31
0.0
  0
LINE
  5
144F
  8
0
 10
498.67852670455221
 20
171.5853922163414
 30
0.0
 11
486.67852670455221
 21
171.58539221634149
 31
0.0
  0
LINE
  5
1450
  8
0
 10
484.67852670455233
 20
173.5853922163416
 30
0.0
 11
500.67852670455221
 21
173.5853922163414
 31
0.0
  0
LINE
  5
1451
  8
0
 10
500.67852670455221
 20
173.5853922163414
 30
0.0
 11
498.67852670455221
 21
171.5853922163414
 31
0.0
  0
LINE
  5
1452
  8
0
 10
500.67852670455221
 20
225.5853922163416
 30
0.0
 11
484.67852670455233
 21
225.5853922163416
 31
0.0
  0
LINE
  5
1453
  8
3
 10
499.59602670455217
 20
225.5853922163416
 30
0.0
 11
500.67852670455221
 21
227.46033721553479
 31
0.0
  0
LINE
  5
1454
  8
3
 10
485.76102670455219
 20
225.5853922163416
 30
0.0
 11
485.76102670455219
 21
172.50289221634171
 31
0.0
  0
LINE
  5
1455
  8
0
 10
484.67852670455233
 20
231.5853922163416
 30
0.0
 11
484.67852670455233
 21
173.58539221634169
 31
0.0
  0
LINE
  5
1456
  8
3
 10
485.76102670455219
 20
225.5853922163416
 30
0.0
 11
484.67852670455233
 21
227.46033721553479
 31
0.0
  0
LINE
  5
1457
  8
0
 10
486.67852670455221
 20
171.58539221634149
 30
0.0
 11
484.67852670455233
 21
173.5853922163416
 31
0.0
  0
LINE
  5
1465
  8
1
 10
280.85058004447291
 20
424.39163800425388
 30
0.0
 11
280.85058004447291
 21
372.39163800425388
 31
0.0
  0
LINE
  5
1466
  8
1
 10
400.85058004447279
 20
398.39163800425388
 30
0.0
 11
254.85058004447291
 21
398.39163800425388
 31
0.0
  0
LINE
  5
1468
  8
1
 10
280.85058004447291
 20
106.54456502502261
 30
0.0
 11
280.85058004447291
 21
54.544565025022621
 31
0.0
  0
LINE
  5
1469
  8
1
 10
400.85058004447279
 20
80.544565025022621
 30
0.0
 11
254.85058004447291
 21
80.544565025022621
 31
0.0
  0
ARC
  5
14E5
  8
0
 10
278.48694062152077
 20
399.75628586136258
 30
0.0
 40
0.8925000000000004
 50
309.40170491831071
 51
16.658241772777039
  0
ARC
  5
14E6
  8
0
 10
279.83058004447292
 20
400.15832982797411
 30
0.0
 40
0.5099999999999997
 50
43.341758227222343
 51
196.65824177277699
  0
ARC
  5
14E7
  8
0
 10
280.85058004447291
 20
401.12093371847118
 30
0.0
 40
0.8924999999999984
 50
223.3417582272223
 51
316.65824177277773
  0
ARC
  5
14E8
  8
0
 10
281.87058004447277
 20
400.15832982797411
 30
0.0
 40
0.5100000000000003
 50
343.3417582272229
 51
136.65824177277759
  0
ARC
  5
14E9
  8
0
 10
278.48694062152077
 20
397.02699014714528
 30
0.0
 40
0.8925000000000011
 50
343.3417582272229
 51
50.598295081676767
  0
ARC
  5
14EA
  8
0
 10
279.83058004447292
 20
396.62494618053358
 30
0.0
 40
0.5100000000000002
 50
163.3417582272229
 51
316.65824177277773
  0
ARC
  5
14EB
  8
0
 10
280.85058004447291
 20
395.66234229003658
 30
0.0
 40
0.8925000000000002
 50
43.341758227222343
 51
136.65824177277651
  0
ARC
  5
14EC
  8
0
 10
281.87058004447277
 20
396.62494618053358
 30
0.0
 40
0.5099999999999997
 50
223.3417582272223
 51
16.658241772777039
  0
ARC
  5
14ED
  8
0
 10
283.2142194674251
 20
397.02699014714528
 30
0.0
 40
0.8925000000000002
 50
129.40170491832319
 51
196.65824177277699
  0
ARC
  5
14EE
  8
0
 10
283.2142194674251
 20
399.75628586136258
 30
0.0
 40
0.8925000000000011
 50
163.3417582272229
 51
230.59829508168929
  0
CIRCLE
  5
14EF
  8
0
 10
280.85058004447291
 20
398.39163800425388
 30
0.0
 40
6.75
  0
CIRCLE
  5
14F0
  8
0
 10
280.85058004447291
 20
398.39163800425388
 30
0.0
 40
3.999175415007485
  0
LINE
  5
14F1
  8
0
 10
277.05058004447289
 20
397.71663800425392
 30
0.0
 11
279.05345812626842
 21
397.71663800425392
 31
0.0
  0
LINE
  5
14F2
  8
0
 10
277.05058004447289
 20
399.06663800425389
 30
0.0
 11
279.05345812626831
 21
399.06663800425389
 31
0.0
  0
LINE
  5
14F3
  8
0
 10
282.64770196267739
 20
397.71663800425392
 30
0.0
 11
284.65058004447292
 21
397.71663800425392
 31
0.0
  0
LINE
  5
14F4
  8
0
 10
282.6477019626775
 20
399.06663800425389
 30
0.0
 11
284.65058004447292
 21
399.06663800425389
 31
0.0
  0
LINE
  5
14F5
  8
0
 10
284.65058004447292
 20
399.06663800425389
 30
0.0
 11
284.65058004447292
 21
397.71663800425392
 31
0.0
  0
LINE
  5
14F6
  8
0
 10
277.05058004447289
 20
399.06663800425389
 30
0.0
 11
277.05058004447289
 21
397.71663800425392
 31
0.0
  0
LINE
  5
14F8
  8
0
 10
274.0905800444728
 20
279.19295963283372
 30
0.0
 11
274.0905800444728
 21
276.72289311008592
 31
0.0
  0
LINE
  5
14F9
  8
0
 10
283.84086957268443
 20
280.58539221634157
 30
0.0
 11
276.8414046294655
 21
280.58539221634157
 31
0.0
  0
ARC
  5
14FA
  8
0
 10
280.84058004447292
 20
269.27139221634161
 30
0.0
 40
12.0
 50
109.4670447595973
 51
124.2288663278118
  0
LINE
  5
14FB
  8
0
 10
280.23909473931133
 20
279.19295963283372
 30
0.0
 11
274.0905800444728
 21
279.19295963283372
 31
0.0
  0
LINE
  5
14FD
  8
0
 10
164.2185604538812
 20
279.19295963283378
 30
0.0
 11
164.2185604538812
 21
277.6536862558446
 31
0.0
  0
LINE
  5
14FE
  8
0
 10
161.46773586888861
 20
280.58539221634157
 30
0.0
 11
153.46938503887381
 21
280.58539221634157
 31
0.0
  0
ARC
  5
14FF
  8
0
 10
157.4685604538812
 20
269.27139221634161
 30
0.0
 40
12.0
 50
55.771133672188213
 51
70.532955240402714
  0
LINE
  5
1500
  8
0
 10
164.2185604538812
 20
279.19295963283378
 30
0.0
 11
150.7185604538812
 21
279.19295963283372
 31
0.0
  0
LINE
  5
1501
  8
0
 10
150.7185604538812
 20
279.19295963283372
 30
0.0
 11
150.7185604538812
 21
277.6536862558446
 31
0.0
  0
ARC
  5
1502
  8
0
 10
157.4685604538812
 20
269.27139221634161
 30
0.0
 40
12.0
 50
109.4670447595973
 51
124.2288663278118
  0
TEXT
  5
15ED
  8
0
 62
     3
 10
0.0
 20
0.0
 30
0.0
 40
10.0
  1
FKR16X60-OG
  7
STANDARD1
  0
ENDSEC
  0
EOF
