  0
SECTION
  2
HEADER
  9
$ACADVER
  1
AC1009
  9
$INSBASE
 10
0.0
 20
0.0
 30
0.0
  9
$EXTMIN
 10
0.0
 20
-2.960436562073669
 30
0.0
  9
$EXTMAX
 10
528.6645209236151
 20
444.39163800425382
 30
0.0
  9
$LIMMIN
 10
0.0
 20
0.0
  9
$LIMMAX
 10
187.5
 20
135.0
  9
$ORTHOMODE
 70
     0
  9
$REGENMODE
 70
     1
  9
$FILLMODE
 70
     1
  9
$QTEXTMODE
 70
     0
  9
$MIRRTEXT
 70
     0
  9
$DRAGMODE
 70
     2
  9
$LTSCALE
 40
10.0
  9
$OSMODE
 70
    55
  9
$ATTMODE
 70
     1
  9
$TEXTSIZE
 40
4.0
  9
$TRACEWID
 40
0.05
  9
$TEXTSTYLE
  7
STANDARD
  9
$CLAYER
  8
0
  9
$CELTYPE
  6
BYLAYER
  9
$CECOLOR
 62
   256
  9
$DIMSCALE
 40
0.5
  9
$DIMASZ
 40
3.0
  9
$DIMEXO
 40
2.0
  9
$DIMDLI
 40
0.38
  9
$DIMRND
 40
0.0
  9
$DIMDLE
 40
0.0
  9
$DIMEXE
 40
2.0
  9
$DIMTP
 40
0.0
  9
$DIMTM
 40
0.0
  9
$DIMTXT
 40
3.0
  9
$DIMCEN
 40
0.0
  9
$DIMTSZ
 40
0.0
  9
$DIMTOL
 70
     0
  9
$DIMLIM
 70
     0
  9
$DIMTIH
 70
     0
  9
$DIMTOH
 70
     0
  9
$DIMSE1
 70
     0
  9
$DIMSE2
 70
     0
  9
$DIMTAD
 70
     1
  9
$DIMZIN
 70
     0
  9
$DIMBLK
  1

  9
$DIMASO
 70
     0
  9
$DIMSHO
 70
     0
  9
$DIMPOST
  1

  9
$DIMAPOST
  1

  9
$DIMALT
 70
     0
  9
$DIMALTD
 70
     2
  9
$DIMALTF
 40
25.399999999999999
  9
$DIMLFAC
 40
1.0
  9
$DIMTOFL
 70
     0
  9
$DIMTVP
 40
1.6000000000000001
  9
$DIMTIX
 70
     1
  9
$DIMSOXD
 70
     0
  9
$DIMSAH
 70
     0
  9
$DIMBLK1
  1

  9
$DIMBLK2
  1

  9
$DIMSTYLE
  2
STANDARD
  9
$DIMCLRD
 70
     0
  9
$DIMCLRE
 70
     0
  9
$DIMCLRT
 70
     0
  9
$DIMTFAC
 40
1.0
  9
$DIMGAP
 40
0.09
  9
$LUNITS
 70
     2
  9
$LUPREC
 70
     4
  9
$SKETCHINC
 40
0.1
  9
$FILLETRAD
 40
1.25
  9
$AUNITS
 70
     0
  9
$AUPREC
 70
     0
  9
$MENU
  1
E:\r13\win\SUPPORT\ACAD
  9
$ELEVATION
 40
0.0
  9
$PELEVATION
 40
0.0
  9
$THICKNESS
 40
0.0
  9
$LIMCHECK
 70
     0
  9
$BLIPMODE
 70
     0
  9
$CHAMFERA
 40
0.0
  9
$CHAMFERB
 40
0.0
  9
$SKPOLY
 70
     0
  9
$TDCREATE
 40
2449840.6143865739
  9
$TDUPDATE
 40
2456598.6609271648
  9
$TDINDWG
 40
0.3457404051
  9
$TDUSRTIMER
 40
0.3457404051
  9
$USRTIMER
 70
     1
  9
$ANGBASE
 50
0.0
  9
$ANGDIR
 70
     0
  9
$PDMODE
 70
     0
  9
$PDSIZE
 40
0.0
  9
$PLINEWID
 40
0.0
  9
$COORDS
 70
     1
  9
$SPLFRAME
 70
     0
  9
$SPLINETYPE
 70
     6
  9
$SPLINESEGS
 70
     8
  9
$ATTDIA
 70
     0
  9
$ATTREQ
 70
     1
  9
$HANDLING
 70
     1
  9
$HANDSEED
  5
1888
  9
$SURFTAB1
 70
     6
  9
$SURFTAB2
 70
     6
  9
$SURFTYPE
 70
     6
  9
$SURFU
 70
     6
  9
$SURFV
 70
     6
  9
$UCSNAME
  2

  9
$UCSORG
 10
0.0
 20
0.0
 30
0.0
  9
$UCSXDIR
 10
1.0
 20
0.0
 30
0.0
  9
$UCSYDIR
 10
0.0
 20
1.0
 30
0.0
  9
$PUCSNAME
  2

  9
$PUCSORG
 10
0.0
 20
0.0
 30
0.0
  9
$PUCSXDIR
 10
1.0
 20
0.0
 30
0.0
  9
$PUCSYDIR
 10
0.0
 20
1.0
 30
0.0
  9
$USERI1
 70
     0
  9
$USERI2
 70
     1
  9
$USERI3
 70
     1
  9
$USERI4
 70
     0
  9
$USERI5
 70
     0
  9
$USERR1
 40
0.0
  9
$USERR2
 40
0.0
  9
$USERR3
 40
0.0
  9
$USERR4
 40
0.0
  9
$USERR5
 40
0.0
  9
$WORLDVIEW
 70
     1
  9
$SHADEDGE
 70
     3
  9
$SHADEDIF
 70
    70
  9
$TILEMODE
 70
     1
  9
$MAXACTVP
 70
    16
  9
$PLIMCHECK
 70
     0
  9
$PEXTMIN
 10
1.0000000000000000E+020
 20
1.0000000000000000E+020
 30
1.0000000000000000E+020
  9
$PEXTMAX
 10
-1.0000000000000000E+020
 20
-1.0000000000000000E+020
 30
-1.0000000000000000E+020
  9
$PLIMMIN
 10
0.0
 20
0.0
  9
$PLIMMAX
 10
12.0
 20
9.0
  9
$UNITMODE
 70
     0
  9
$VISRETAIN
 70
     0
  9
$PLINEGEN
 70
     0
  9
$PSLTSCALE
 70
     0
  0
ENDSEC
  0
SECTION
  2
TABLES
  0
TABLE
  2
VPORT
 70
     1
  0
VPORT
  2
*ACTIVE
 70
     0
 10
0.0
 20
0.0
 11
1.0
 21
1.0
 12
264.3322616927008
 22
288.5766232500464
 13
0.0
 23
0.0
 14
5.0
 24
5.0
 15
5.0
 25
5.0
 16
0.0
 26
0.0
 36
1.0
 17
0.0
 27
0.0
 37
0.0
 40
588.22189805963478
 41
1.7807262569832401
 42
50.0
 43
0.0
 44
0.0
 50
0.0
 51
0.0
 71
     0
 72
   100
 73
     1
 74
     0
 75
     0
 76
     0
 77
     0
 78
     0
  0
ENDTAB
  0
TABLE
  2
LTYPE
 70
     3
  0
LTYPE
  2
CONTINUOUS
 70
     0
  3
Solid Line
 72
    65
 73
     0
 40
0.0
  0
LTYPE
  2
CENTER
 70
     0
  3
____ _ ____ _ ____ _ ____ _ ____ _ ____ _ ____
 72
    65
 73
     4
 40
2.0
 49
1.25
 49
-0.25
 49
0.25
 49
-0.25
  0
LTYPE
  2
PHANTOM2
 70
     0
  3
___ _ _ ___ _ _ ___ _ _ ___ _ _
 72
    65
 73
     6
 40
1.25
 49
0.625
 49
-0.125
 49
0.125
 49
-0.125
 49
0.125
 49
-0.125
  0
ENDTAB
  0
TABLE
  2
LAYER
 70
     3
  0
LAYER
  2
0
 70
     0
 62
     7
  6
CONTINUOUS
  0
LAYER
  2
1
 70
     0
 62
     1
  6
CENTER
  0
LAYER
  2
3
 70
     0
 62
     3
  6
CONTINUOUS
  0
ENDTAB
  0
TABLE
  2
STYLE
 70
     2
  0
STYLE
  2
STANDARD
 70
     0
 40
0.0
 41
1.0
 50
0.0
 71
     0
 42
4.0
  3
TXT
  4
BIGFONT
  0
STYLE
  2
STANDARD1
 70
     0
 40
0.0
 41
1.0
 50
0.0
 71
     0
 42
3.0
  3
txt
  4

  0
ENDTAB
  0
TABLE
  2
VIEW
 70
     1
  0
VIEW
  2
ALL
 70
     0
 40
179.66152299999999
 10
141.903918
 20
89.830760999999995
 41
0.0
 11
0.0
 21
0.0
 31
1.0
 12
0.0
 22
0.0
 32
0.0
 42
0.0
 43
0.0
 44
0.0
 50
0.0
 71
     0
  0
ENDTAB
  0
TABLE
  2
UCS
 70
     0
  0
ENDTAB
  0
TABLE
  2
APPID
 70
     4
  0
APPID
  2
ACAD
 70
     0
  0
APPID
  2
DCO15
 70
     0
  0
APPID
  2
ACAD_MLEADERVER
 70
     0
  0
APPID
  2
ACAD_NAV_VCDISPLAY
 70
     0
  0
ENDTAB
  0
TABLE
  2
DIMSTYLE
 70
     1
  0
DIMSTYLE
  2
STANDARD
 70
     0
  3

  4

  5

  6

  7

 40
1.0
 41
0.18
 42
0.0625
 43
0.38
 44
0.18
 45
0.0
 46
0.0
 47
0.0
 48
0.0
140
0.18
141
0.09
142
0.0
143
25.399999999999999
144
1.0
145
0.0
146
1.0
147
0.09
 71
     0
 72
     0
 73
     1
 74
     1
 75
     0
 76
     0
 77
     0
 78
     0
170
     0
171
     2
172
     0
173
     0
174
     0
175
     0
176
     0
177
     0
178
     0
  0
ENDTAB
  0
ENDSEC
  0
SECTION
  2
BLOCKS
  0
BLOCK
  8
0
  2
$MODEL_SPACE
 70
     0
 10
0.0
 20
0.0
 30
0.0
  3
$MODEL_SPACE
  1

  0
ENDBLK
  5
1BD
  8
0
  0
BLOCK
 67
     1
  8
0
  2
$PAPER_SPACE
 70
     0
 10
0.0
 20
0.0
 30
0.0
  3
$PAPER_SPACE
  1

  0
ENDBLK
  5
1BB
 67
     1
  8
0
  0
ENDSEC
  0
SECTION
  2
ENTITIES
  0
LINE
  5
1374
  8
0
 10
285.34058004447292
 20
288.40233473623169
 30
0.0
 11
285.34058004447292
 21
263.58539221634157
 31
0.0
  0
LINE
  5
1375
  8
0
 10
316.34058004447292
 20
263.58539221634157
 30
0.0
 11
316.34058004447292
 21
283.08539221634157
 31
0.0
  0
LINE
  5
1376
  8
0
 10
399.17227413584749
 20
309.46539221634163
 30
0.0
 11
387.41424125723381
 21
309.46539221634163
 31
0.0
  0
LINE
  5
1377
  8
0
 10
316.34058004447292
 20
263.58539221634157
 30
0.0
 11
285.34058004447292
 21
263.58539221634157
 31
0.0
  0
LINE
  5
1378
  8
1
 10
300.8405800444728
 20
310.58539221634157
 30
0.0
 11
300.8405800444728
 21
161.58539221634061
 31
0.0
  0
LINE
  5
137A
  8
0
 10
312.35058004447279
 20
251.5853922163416
 30
0.0
 11
312.35058004447279
 21
263.58539221634157
 31
0.0
  0
LINE
  5
137B
  8
0
 10
289.35058004447279
 20
263.58539221634157
 30
0.0
 11
289.35058004447279
 21
251.5853922163416
 31
0.0
  0
LINE
  5
137D
  8
0
 10
289.35058004447279
 20
251.5853922163416
 30
0.0
 11
312.35058004447279
 21
251.5853922163416
 31
0.0
  0
ARC
  5
138B
  8
0
 10
446.3593738546644
 20
-73.418630244708766
 30
0.0
 40
400.23809523809518
 50
96.056605662905923
 51
113.0583295739723
  0
LINE
  5
138C
  8
0
 10
404.1298701322392
 20
324.58539221634157
 30
0.0
 11
405.85058004447279
 21
324.58539221634157
 31
0.0
  0
LINE
  5
138D
  8
0
 10
410.85058004447279
 20
319.58539221634157
 30
0.0
 11
410.85058004447279
 21
319.4695729885745
 31
0.0
  0
ARC
  5
138E
  8
0
 10
405.85058004447279
 20
319.58539221634157
 30
0.0
 40
5.0
 50
0.0
 51
90.0
  0
ARC
  5
138F
  8
0
 10
292.3405800444728
 20
288.40233473623169
 30
0.0
 40
7.0
 50
113.0583295739723
 51
180.0
  0
ARC
  5
1390
  8
0
 10
488.87748738313428
 20
-55.753839095950532
 30
0.0
 40
380.2380952380953
 50
106.8398715328909
 51
116.985190501685
  0
ARC
  5
1391
  8
0
 10
387.41424125723381
 20
279.46539221634163
 30
0.0
 40
30.0
 50
90.0
 51
106.8398715328925
  0
ARC
  5
1392
  8
0
 10
399.01754634408633
 20
321.46439464614622
 30
0.0
 40
12.0
 50
269.26120874099649
 51
350.43100633373399
  0
LINE
  5
1393
  8
0
 10
285.34058004447292
 20
414.46227418806171
 30
0.0
 11
285.34058004447292
 21
422.32100182044599
 31
0.0
  0
CIRCLE
  5
13A2
  8
0
 10
302.157163435055
 20
418.39163800425382
 30
0.0
 40
9.0840310268199538
  0
ARC
  5
13A4
  8
0
 10
300.85058004447291
 20
418.39163800425382
 30
0.0
 40
16.0
 50
194.2164221332842
 51
301.31463182248172
  0
ARC
  5
13A5
  8
0
 10
403.35058004447279
 20
418.39163800425382
 30
0.0
 40
7.5
 50
270.0
 51
90.0
  0
ARC
  5
13A6
  8
0
 10
334.6841315311662
 20
497.24401494012329
 30
0.0
 40
70.0
 50
248.62076358023009
 51
277.71778895748702
  0
LINE
  5
13A7
  8
0
 10
345.7862759007038
 20
427.96225768603711
 30
0.0
 11
403.61955700151418
 21
425.886813212118
 31
0.0
  0
ARC
  5
13A8
  8
0
 10
345.42763995798191
 20
417.96869074221831
 30
0.0
 40
10.0
 50
87.944726668168812
 51
97.717788957488679
  0
ARC
  5
13A9
  8
0
 10
334.6841315311662
 20
339.53926106838452
 30
0.0
 40
70.0
 50
82.282211042512927
 51
111.3792364197699
  0
LINE
  5
13AA
  8
0
 10
345.7862759007038
 20
408.82101832247048
 30
0.0
 11
403.61955700151418
 21
410.89646279638981
 31
0.0
  0
ARC
  5
13AB
  8
0
 10
345.42763995798191
 20
418.81458526628933
 30
0.0
 40
10.0
 50
262.28221104251298
 51
272.05527333183119
  0
ARC
  5
13AC
  8
0
 10
300.85058004447291
 20
418.39163800425382
 30
0.0
 40
16.0
 50
58.685368177518342
 51
165.7835778667158
  0
ARC
  5
13AD
  8
0
 10
334.6841315311662
 20
159.39694196089201
 30
0.0
 40
70.0
 50
248.62076358023009
 51
277.71778895748702
  0
ARC
  5
13AE
  8
0
 10
334.6841315311662
 20
1.6921880891532051
 30
0.0
 40
70.0
 50
82.282211042512927
 51
111.3792364197699
  0
LINE
  5
13B0
  8
0
 10
285.34058004447292
 20
76.615201208830456
 30
0.0
 11
285.34058004447292
 21
84.473928841214786
 31
0.0
  0
ARC
  5
13B1
  8
0
 10
300.85058004447291
 20
80.544565025022621
 30
0.0
 40
16.0
 50
194.2164221332842
 51
301.31463182248172
  0
ARC
  5
13B2
  8
0
 10
300.85058004447291
 20
80.544565025022621
 30
0.0
 40
16.0
 50
58.685368177518342
 51
165.7835778667158
  0
ARC
  5
13B4
  8
0
 10
403.35058004447279
 20
80.544565025022621
 30
0.0
 40
7.5
 50
270.0
 51
90.0
  0
ARC
  5
13B5
  8
0
 10
345.42763995798191
 20
80.121617762987114
 30
0.0
 40
10.0
 50
87.944726668168812
 51
97.717788957488679
  0
LINE
  5
13B6
  8
0
 10
345.7862759007038
 20
90.115184706805906
 30
0.0
 11
403.61955700151418
 21
88.039740232886743
 31
0.0
  0
LINE
  5
13B7
  8
0
 10
345.7862759007038
 20
70.973945343239336
 30
0.0
 11
403.61955700151418
 21
73.049389817158485
 31
0.0
  0
ARC
  5
13B8
  8
0
 10
345.42763995798191
 20
80.967512287058113
 30
0.0
 40
10.0
 50
262.28221104251298
 51
272.05527333183119
  0
CIRCLE
  5
13B9
  8
0
 10
300.85058004447291
 20
80.544565025022621
 30
0.0
 40
11.5
  0
CIRCLE
  5
13BA
  8
0
 10
300.85058004447291
 20
80.544565025022621
 30
0.0
 40
15.48999999999999
  0
CIRCLE
  5
13BB
  8
0
 10
300.85058004447291
 20
80.544565025022621
 30
0.0
 40
7.0
  0
CIRCLE
  5
13BC
  8
3
 10
300.85058004447291
 20
80.544565025022621
 30
0.0
 40
8.0
  0
LINE
  5
13BF
  8
0
 10
188.9685604538812
 20
251.5853922163416
 30
0.0
 11
188.9685604538812
 21
263.58539221634157
 31
0.0
  0
LINE
  5
13C0
  8
0
 10
165.9685604538812
 20
263.58539221634157
 30
0.0
 11
165.9685604538812
 21
251.5853922163416
 31
0.0
  0
LINE
  5
13C2
  8
0
 10
165.9685604538812
 20
251.5853922163416
 30
0.0
 11
188.9685604538812
 21
251.5853922163416
 31
0.0
  0
LINE
  5
13C3
  8
1
 10
177.4685604538812
 20
334.58539221634157
 30
0.0
 11
177.4685604538812
 21
161.58539221634061
 31
0.0
  0
LINE
  5
13C4
  8
0
 10
184.5595405384129
 20
324.58539221634157
 30
0.0
 11
170.37758036934949
 21
324.58539221634157
 31
0.0
  0
LINE
  5
13C5
  8
0
 10
192.9685604538812
 20
263.58539221634157
 30
0.0
 11
161.9685604538812
 21
263.58539221634157
 31
0.0
  0
LINE
  5
13C6
  8
0
 10
193.4645546729441
 20
299.2473793371164
 30
0.0
 11
192.9685604538812
 21
263.58539221634157
 31
0.0
  0
LINE
  5
13C7
  8
0
 10
189.1091192493796
 20
294.84308090385082
 30
0.0
 11
165.82800165838259
 21
294.84308090385082
 31
0.0
  0
POLYLINE
  5
13C8
  8
0
 10
189.10911924937969
 20
294.84308090385076
 30
0.0
 66
     1
 70
     8
  0
VERTEX
  8
0
  5
1680
 10
189.109
 20
294.843
 30
0.000000
  70
    32
  0
VERTEX
  8
0
  5
1681
 10
189.500
 20
295.021
 30
0.000000
  70
    32
  0
VERTEX
  8
0
  5
1682
 10
189.876
 20
295.205
 30
0.000000
  70
    32
  0
VERTEX
  8
0
  5
1683
 10
190.235
 20
295.395
 30
0.000000
  70
    32
  0
VERTEX
  8
0
  5
1684
 10
190.577
 20
295.590
 30
0.000000
  70
    32
  0
VERTEX
  8
0
  5
1685
 10
190.902
 20
295.790
 30
0.000000
  70
    32
  0
VERTEX
  8
0
  5
1686
 10
191.209
 20
295.995
 30
0.000000
  70
    32
  0
VERTEX
  8
0
  5
1687
 10
191.498
 20
296.204
 30
0.000000
  70
    32
  0
VERTEX
  8
0
  5
1688
 10
191.768
 20
296.417
 30
0.000000
  70
    32
  0
VERTEX
  8
0
  5
1689
 10
192.020
 20
296.634
 30
0.000000
  70
    32
  0
VERTEX
  8
0
  5
168A
 10
192.252
 20
296.855
 30
0.000000
  70
    32
  0
VERTEX
  8
0
  5
168B
 10
192.465
 20
297.080
 30
0.000000
  70
    32
  0
VERTEX
  8
0
  5
168C
 10
192.657
 20
297.307
 30
0.000000
  70
    32
  0
VERTEX
  8
0
  5
168D
 10
192.830
 20
297.537
 30
0.000000
  70
    32
  0
VERTEX
  8
0
  5
168E
 10
192.983
 20
297.770
 30
0.000000
  70
    32
  0
VERTEX
  8
0
  5
168F
 10
193.115
 20
298.004
 30
0.000000
  70
    32
  0
VERTEX
  8
0
  5
1690
 10
193.226
 20
298.241
 30
0.000000
  70
    32
  0
VERTEX
  8
0
  5
1691
 10
193.316
 20
298.479
 30
0.000000
  70
    32
  0
VERTEX
  8
0
  5
1692
 10
193.386
 20
298.718
 30
0.000000
  70
    32
  0
VERTEX
  8
0
  5
1693
 10
193.434
 20
298.958
 30
0.000000
  70
    32
  0
VERTEX
  8
0
  5
1694
 10
193.462
 20
299.199
 30
0.000000
  70
    32
  0
VERTEX
  8
0
  5
1695
 10
193.468
 20
299.440
 30
0.000000
  70
    32
  0
VERTEX
  8
0
  5
1696
 10
193.453
 20
299.681
 30
0.000000
  70
    32
  0
VERTEX
  8
0
  5
1697
 10
193.417
 20
299.921
 30
0.000000
  70
    32
  0
VERTEX
  8
0
  5
1698
 10
193.360
 20
300.161
 30
0.000000
  70
    32
  0
VERTEX
  8
0
  5
1699
 10
193.282
 20
300.400
 30
0.000000
  70
    32
  0
VERTEX
  8
0
  5
169A
 10
193.183
 20
300.637
 30
0.000000
  70
    32
  0
VERTEX
  8
0
  5
169B
 10
193.063
 20
300.873
 30
0.000000
  70
    32
  0
VERTEX
  8
0
  5
169C
 10
192.923
 20
301.107
 30
0.000000
  70
    32
  0
VERTEX
  8
0
  5
169D
 10
192.762
 20
301.339
 30
0.000000
  70
    32
  0
VERTEX
  8
0
  5
169E
 10
192.581
 20
301.568
 30
0.000000
  70
    32
  0
VERTEX
  8
0
  5
169F
 10
192.380
 20
301.794
 30
0.000000
  70
    32
  0
VERTEX
  8
0
  5
16A0
 10
192.159
 20
302.017
 30
0.000000
  70
    32
  0
VERTEX
  8
0
  5
16A1
 10
191.919
 20
302.236
 30
0.000000
  70
    32
  0
VERTEX
  8
0
  5
16A2
 10
191.660
 20
302.452
 30
0.000000
  70
    32
  0
VERTEX
  8
0
  5
16A3
 10
191.382
 20
302.664
 30
0.000000
  70
    32
  0
VERTEX
  8
0
  5
16A4
 10
191.086
 20
302.871
 30
0.000000
  70
    32
  0
VERTEX
  8
0
  5
16A5
 10
190.771
 20
303.074
 30
0.000000
  70
    32
  0
VERTEX
  8
0
  5
16A6
 10
190.439
 20
303.272
 30
0.000000
  70
    32
  0
VERTEX
  8
0
  5
16A7
 10
190.090
 20
303.464
 30
0.000000
  70
    32
  0
VERTEX
  8
0
  5
16A8
 10
189.724
 20
303.652
 30
0.000000
  70
    32
  0
VERTEX
  8
0
  5
16A9
 10
189.342
 20
303.833
 30
0.000000
  70
    32
  0
VERTEX
  8
0
  5
16AA
 10
188.945
 20
304.009
 30
0.000000
  70
    32
  0
VERTEX
  8
0
  5
16AB
 10
188.532
 20
304.179
 30
0.000000
  70
    32
  0
VERTEX
  8
0
  5
16AC
 10
188.104
 20
304.342
 30
0.000000
  70
    32
  0
VERTEX
  8
0
  5
16AD
 10
187.663
 20
304.499
 30
0.000000
  70
    32
  0
VERTEX
  8
0
  5
16AE
 10
187.208
 20
304.650
 30
0.000000
  70
    32
  0
VERTEX
  8
0
  5
16AF
 10
186.740
 20
304.793
 30
0.000000
  70
    32
  0
VERTEX
  8
0
  5
16B0
 10
186.260
 20
304.929
 30
0.000000
  70
    32
  0
VERTEX
  8
0
  5
16B1
 10
185.768
 20
305.057
 30
0.000000
  70
    32
  0
VERTEX
  8
0
  5
16B2
 10
185.265
 20
305.179
 30
0.000000
  70
    32
  0
VERTEX
  8
0
  5
16B3
 10
184.752
 20
305.292
 30
0.000000
  70
    32
  0
VERTEX
  8
0
  5
16B4
 10
184.230
 20
305.398
 30
0.000000
  70
    32
  0
VERTEX
  8
0
  5
16B5
 10
183.698
 20
305.496
 30
0.000000
  70
    32
  0
VERTEX
  8
0
  5
16B6
 10
183.158
 20
305.586
 30
0.000000
  70
    32
  0
VERTEX
  8
0
  5
16B7
 10
182.611
 20
305.667
 30
0.000000
  70
    32
  0
VERTEX
  8
0
  5
16B8
 10
182.057
 20
305.741
 30
0.000000
  70
    32
  0
VERTEX
  8
0
  5
16B9
 10
181.497
 20
305.805
 30
0.000000
  70
    32
  0
VERTEX
  8
0
  5
16BA
 10
180.931
 20
305.862
 30
0.000000
  70
    32
  0
VERTEX
  8
0
  5
16BB
 10
180.361
 20
305.910
 30
0.000000
  70
    32
  0
VERTEX
  8
0
  5
16BC
 10
179.787
 20
305.949
 30
0.000000
  70
    32
  0
VERTEX
  8
0
  5
16BD
 10
179.210
 20
305.980
 30
0.000000
  70
    32
  0
VERTEX
  8
0
  5
16BE
 10
178.631
 20
306.001
 30
0.000000
  70
    32
  0
VERTEX
  8
0
  5
16BF
 10
178.050
 20
306.015
 30
0.000000
  70
    32
  0
VERTEX
  8
0
  5
16C0
 10
177.469
 20
306.019
 30
0.000000
  70
    32
  0
VERTEX
  8
0
  5
16C1
 10
176.887
 20
306.015
 30
0.000000
  70
    32
  0
VERTEX
  8
0
  5
16C2
 10
176.306
 20
306.001
 30
0.000000
  70
    32
  0
VERTEX
  8
0
  5
16C3
 10
175.727
 20
305.980
 30
0.000000
  70
    32
  0
VERTEX
  8
0
  5
16C4
 10
175.150
 20
305.949
 30
0.000000
  70
    32
  0
VERTEX
  8
0
  5
16C5
 10
174.576
 20
305.910
 30
0.000000
  70
    32
  0
VERTEX
  8
0
  5
16C6
 10
174.006
 20
305.862
 30
0.000000
  70
    32
  0
VERTEX
  8
0
  5
16C7
 10
173.440
 20
305.805
 30
0.000000
  70
    32
  0
VERTEX
  8
0
  5
16C8
 10
172.880
 20
305.741
 30
0.000000
  70
    32
  0
VERTEX
  8
0
  5
16C9
 10
172.326
 20
305.667
 30
0.000000
  70
    32
  0
VERTEX
  8
0
  5
16CA
 10
171.779
 20
305.586
 30
0.000000
  70
    32
  0
VERTEX
  8
0
  5
16CB
 10
171.239
 20
305.496
 30
0.000000
  70
    32
  0
VERTEX
  8
0
  5
16CC
 10
170.707
 20
305.398
 30
0.000000
  70
    32
  0
VERTEX
  8
0
  5
16CD
 10
170.185
 20
305.292
 30
0.000000
  70
    32
  0
VERTEX
  8
0
  5
16CE
 10
169.672
 20
305.179
 30
0.000000
  70
    32
  0
VERTEX
  8
0
  5
16CF
 10
169.169
 20
305.057
 30
0.000000
  70
    32
  0
VERTEX
  8
0
  5
16D0
 10
168.677
 20
304.929
 30
0.000000
  70
    32
  0
VERTEX
  8
0
  5
16D1
 10
168.197
 20
304.793
 30
0.000000
  70
    32
  0
VERTEX
  8
0
  5
16D2
 10
167.729
 20
304.650
 30
0.000000
  70
    32
  0
VERTEX
  8
0
  5
16D3
 10
167.274
 20
304.499
 30
0.000000
  70
    32
  0
VERTEX
  8
0
  5
16D4
 10
166.833
 20
304.342
 30
0.000000
  70
    32
  0
VERTEX
  8
0
  5
16D5
 10
166.405
 20
304.179
 30
0.000000
  70
    32
  0
VERTEX
  8
0
  5
16D6
 10
165.992
 20
304.009
 30
0.000000
  70
    32
  0
VERTEX
  8
0
  5
16D7
 10
165.595
 20
303.833
 30
0.000000
  70
    32
  0
VERTEX
  8
0
  5
16D8
 10
165.213
 20
303.652
 30
0.000000
  70
    32
  0
VERTEX
  8
0
  5
16D9
 10
164.847
 20
303.464
 30
0.000000
  70
    32
  0
VERTEX
  8
0
  5
16DA
 10
164.498
 20
303.272
 30
0.000000
  70
    32
  0
VERTEX
  8
0
  5
16DB
 10
164.166
 20
303.074
 30
0.000000
  70
    32
  0
VERTEX
  8
0
  5
16DC
 10
163.852
 20
302.871
 30
0.000000
  70
    32
  0
VERTEX
  8
0
  5
16DD
 10
163.555
 20
302.664
 30
0.000000
  70
    32
  0
VERTEX
  8
0
  5
16DE
 10
163.277
 20
302.452
 30
0.000000
  70
    32
  0
VERTEX
  8
0
  5
16DF
 10
163.018
 20
302.236
 30
0.000000
  70
    32
  0
VERTEX
  8
0
  5
16E0
 10
162.778
 20
302.017
 30
0.000000
  70
    32
  0
VERTEX
  8
0
  5
16E1
 10
162.557
 20
301.794
 30
0.000000
  70
    32
  0
VERTEX
  8
0
  5
16E2
 10
162.356
 20
301.568
 30
0.000000
  70
    32
  0
VERTEX
  8
0
  5
16E3
 10
162.175
 20
301.339
 30
0.000000
  70
    32
  0
VERTEX
  8
0
  5
16E4
 10
162.014
 20
301.107
 30
0.000000
  70
    32
  0
VERTEX
  8
0
  5
16E5
 10
161.874
 20
300.873
 30
0.000000
  70
    32
  0
VERTEX
  8
0
  5
16E6
 10
161.754
 20
300.637
 30
0.000000
  70
    32
  0
VERTEX
  8
0
  5
16E7
 10
161.655
 20
300.400
 30
0.000000
  70
    32
  0
VERTEX
  8
0
  5
16E8
 10
161.577
 20
300.161
 30
0.000000
  70
    32
  0
VERTEX
  8
0
  5
16E9
 10
161.520
 20
299.921
 30
0.000000
  70
    32
  0
VERTEX
  8
0
  5
16EA
 10
161.484
 20
299.681
 30
0.000000
  70
    32
  0
VERTEX
  8
0
  5
16EB
 10
161.469
 20
299.440
 30
0.000000
  70
    32
  0
VERTEX
  8
0
  5
16EC
 10
161.475
 20
299.199
 30
0.000000
  70
    32
  0
VERTEX
  8
0
  5
16ED
 10
161.503
 20
298.958
 30
0.000000
  70
    32
  0
VERTEX
  8
0
  5
16EE
 10
161.551
 20
298.718
 30
0.000000
  70
    32
  0
VERTEX
  8
0
  5
16EF
 10
161.621
 20
298.479
 30
0.000000
  70
    32
  0
VERTEX
  8
0
  5
16F0
 10
161.711
 20
298.241
 30
0.000000
  70
    32
  0
VERTEX
  8
0
  5
16F1
 10
161.822
 20
298.004
 30
0.000000
  70
    32
  0
VERTEX
  8
0
  5
16F2
 10
161.954
 20
297.770
 30
0.000000
  70
    32
  0
VERTEX
  8
0
  5
16F3
 10
162.107
 20
297.537
 30
0.000000
  70
    32
  0
VERTEX
  8
0
  5
16F4
 10
162.280
 20
297.307
 30
0.000000
  70
    32
  0
VERTEX
  8
0
  5
16F5
 10
162.473
 20
297.080
 30
0.000000
  70
    32
  0
VERTEX
  8
0
  5
16F6
 10
162.685
 20
296.855
 30
0.000000
  70
    32
  0
VERTEX
  8
0
  5
16F7
 10
162.918
 20
296.634
 30
0.000000
  70
    32
  0
VERTEX
  8
0
  5
16F8
 10
163.169
 20
296.417
 30
0.000000
  70
    32
  0
VERTEX
  8
0
  5
16F9
 10
163.439
 20
296.204
 30
0.000000
  70
    32
  0
VERTEX
  8
0
  5
16FA
 10
163.728
 20
295.995
 30
0.000000
  70
    32
  0
VERTEX
  8
0
  5
16FB
 10
164.035
 20
295.790
 30
0.000000
  70
    32
  0
VERTEX
  8
0
  5
16FC
 10
164.360
 20
295.590
 30
0.000000
  70
    32
  0
VERTEX
  8
0
  5
16FD
 10
164.702
 20
295.395
 30
0.000000
  70
    32
  0
VERTEX
  8
0
  5
16FE
 10
165.061
 20
295.205
 30
0.000000
  70
    32
  0
VERTEX
  8
0
  5
16FF
 10
165.437
 20
295.021
 30
0.000000
  70
    32
  0
VERTEX
  8
0
  5
1700
 10
165.828
 20
294.843
 30
0.000000
  70
    32
  0
SEQEND
  8
0
  5
1701
  0
POLYLINE
  5
13C9
  8
0
 10
179.09466716010431
 20
296.56221460031298
 30
0.0
 66
     1
 70
     8
  0
VERTEX
  8
0
  5
1702
 10
179.095
 20
296.562
 30
0.000000
  70
    32
  0
VERTEX
  8
0
  5
1703
 10
179.504
 20
296.594
 30
0.000000
  70
    32
  0
VERTEX
  8
0
  5
1704
 10
179.909
 20
296.634
 30
0.000000
  70
    32
  0
VERTEX
  8
0
  5
1705
 10
180.309
 20
296.680
 30
0.000000
  70
    32
  0
VERTEX
  8
0
  5
1706
 10
180.703
 20
296.733
 30
0.000000
  70
    32
  0
VERTEX
  8
0
  5
1707
 10
181.090
 20
296.793
 30
0.000000
  70
    32
  0
VERTEX
  8
0
  5
1708
 10
181.469
 20
296.860
 30
0.000000
  70
    32
  0
VERTEX
  8
0
  5
1709
 10
181.840
 20
296.934
 30
0.000000
  70
    32
  0
VERTEX
  8
0
  5
170A
 10
182.201
 20
297.013
 30
0.000000
  70
    32
  0
VERTEX
  8
0
  5
170B
 10
182.552
 20
297.099
 30
0.000000
  70
    32
  0
VERTEX
  8
0
  5
170C
 10
182.892
 20
297.192
 30
0.000000
  70
    32
  0
VERTEX
  8
0
  5
170D
 10
183.221
 20
297.290
 30
0.000000
  70
    32
  0
VERTEX
  8
0
  5
170E
 10
183.537
 20
297.393
 30
0.000000
  70
    32
  0
VERTEX
  8
0
  5
170F
 10
183.840
 20
297.502
 30
0.000000
  70
    32
  0
VERTEX
  8
0
  5
1710
 10
184.130
 20
297.617
 30
0.000000
  70
    32
  0
VERTEX
  8
0
  5
1711
 10
184.406
 20
297.736
 30
0.000000
  70
    32
  0
VERTEX
  8
0
  5
1712
 10
184.666
 20
297.860
 30
0.000000
  70
    32
  0
VERTEX
  8
0
  5
1713
 10
184.911
 20
297.988
 30
0.000000
  70
    32
  0
VERTEX
  8
0
  5
1714
 10
185.141
 20
298.121
 30
0.000000
  70
    32
  0
VERTEX
  8
0
  5
1715
 10
185.353
 20
298.257
 30
0.000000
  70
    32
  0
VERTEX
  8
0
  5
1716
 10
185.549
 20
298.397
 30
0.000000
  70
    32
  0
VERTEX
  8
0
  5
1717
 10
185.728
 20
298.540
 30
0.000000
  70
    32
  0
VERTEX
  8
0
  5
1718
 10
185.889
 20
298.687
 30
0.000000
  70
    32
  0
VERTEX
  8
0
  5
1719
 10
186.032
 20
298.836
 30
0.000000
  70
    32
  0
VERTEX
  8
0
  5
171A
 10
186.157
 20
298.987
 30
0.000000
  70
    32
  0
VERTEX
  8
0
  5
171B
 10
186.263
 20
299.140
 30
0.000000
  70
    32
  0
VERTEX
  8
0
  5
171C
 10
186.350
 20
299.295
 30
0.000000
  70
    32
  0
VERTEX
  8
0
  5
171D
 10
186.418
 20
299.452
 30
0.000000
  70
    32
  0
VERTEX
  8
0
  5
171E
 10
186.468
 20
299.609
 30
0.000000
  70
    32
  0
VERTEX
  8
0
  5
171F
 10
186.497
 20
299.767
 30
0.000000
  70
    32
  0
VERTEX
  8
0
  5
1720
 10
186.508
 20
299.925
 30
0.000000
  70
    32
  0
VERTEX
  8
0
  5
1721
 10
186.499
 20
300.084
 30
0.000000
  70
    32
  0
VERTEX
  8
0
  5
1722
 10
186.471
 20
300.242
 30
0.000000
  70
    32
  0
VERTEX
  8
0
  5
1723
 10
186.424
 20
300.400
 30
0.000000
  70
    32
  0
VERTEX
  8
0
  5
1724
 10
186.357
 20
300.556
 30
0.000000
  70
    32
  0
VERTEX
  8
0
  5
1725
 10
186.272
 20
300.711
 30
0.000000
  70
    32
  0
VERTEX
  8
0
  5
1726
 10
186.167
 20
300.865
 30
0.000000
  70
    32
  0
VERTEX
  8
0
  5
1727
 10
186.044
 20
301.016
 30
0.000000
  70
    32
  0
VERTEX
  8
0
  5
1728
 10
185.903
 20
301.165
 30
0.000000
  70
    32
  0
VERTEX
  8
0
  5
1729
 10
185.743
 20
301.312
 30
0.000000
  70
    32
  0
VERTEX
  8
0
  5
172A
 10
185.566
 20
301.455
 30
0.000000
  70
    32
  0
VERTEX
  8
0
  5
172B
 10
185.372
 20
301.596
 30
0.000000
  70
    32
  0
VERTEX
  8
0
  5
172C
 10
185.160
 20
301.732
 30
0.000000
  70
    32
  0
VERTEX
  8
0
  5
172D
 10
184.933
 20
301.865
 30
0.000000
  70
    32
  0
VERTEX
  8
0
  5
172E
 10
184.689
 20
301.994
 30
0.000000
  70
    32
  0
VERTEX
  8
0
  5
172F
 10
184.430
 20
302.118
 30
0.000000
  70
    32
  0
VERTEX
  8
0
  5
1730
 10
184.156
 20
302.238
 30
0.000000
  70
    32
  0
VERTEX
  8
0
  5
1731
 10
183.867
 20
302.353
 30
0.000000
  70
    32
  0
VERTEX
  8
0
  5
1732
 10
183.565
 20
302.462
 30
0.000000
  70
    32
  0
VERTEX
  8
0
  5
1733
 10
183.250
 20
302.567
 30
0.000000
  70
    32
  0
VERTEX
  8
0
  5
1734
 10
182.922
 20
302.665
 30
0.000000
  70
    32
  0
VERTEX
  8
0
  5
1735
 10
182.583
 20
302.758
 30
0.000000
  70
    32
  0
VERTEX
  8
0
  5
1736
 10
182.233
 20
302.844
 30
0.000000
  70
    32
  0
VERTEX
  8
0
  5
1737
 10
181.873
 20
302.925
 30
0.000000
  70
    32
  0
VERTEX
  8
0
  5
1738
 10
181.503
 20
302.999
 30
0.000000
  70
    32
  0
VERTEX
  8
0
  5
1739
 10
181.124
 20
303.066
 30
0.000000
  70
    32
  0
VERTEX
  8
0
  5
173A
 10
180.738
 20
303.127
 30
0.000000
  70
    32
  0
VERTEX
  8
0
  5
173B
 10
180.345
 20
303.181
 30
0.000000
  70
    32
  0
VERTEX
  8
0
  5
173C
 10
179.946
 20
303.228
 30
0.000000
  70
    32
  0
VERTEX
  8
0
  5
173D
 10
179.541
 20
303.268
 30
0.000000
  70
    32
  0
VERTEX
  8
0
  5
173E
 10
179.132
 20
303.300
 30
0.000000
  70
    32
  0
VERTEX
  8
0
  5
173F
 10
178.719
 20
303.326
 30
0.000000
  70
    32
  0
VERTEX
  8
0
  5
1740
 10
178.304
 20
303.344
 30
0.000000
  70
    32
  0
VERTEX
  8
0
  5
1741
 10
177.887
 20
303.355
 30
0.000000
  70
    32
  0
VERTEX
  8
0
  5
1742
 10
177.469
 20
303.359
 30
0.000000
  70
    32
  0
VERTEX
  8
0
  5
1743
 10
177.051
 20
303.355
 30
0.000000
  70
    32
  0
VERTEX
  8
0
  5
1744
 10
176.633
 20
303.344
 30
0.000000
  70
    32
  0
VERTEX
  8
0
  5
1745
 10
176.218
 20
303.326
 30
0.000000
  70
    32
  0
VERTEX
  8
0
  5
1746
 10
175.805
 20
303.300
 30
0.000000
  70
    32
  0
VERTEX
  8
0
  5
1747
 10
175.396
 20
303.268
 30
0.000000
  70
    32
  0
VERTEX
  8
0
  5
1748
 10
174.992
 20
303.228
 30
0.000000
  70
    32
  0
VERTEX
  8
0
  5
1749
 10
174.592
 20
303.181
 30
0.000000
  70
    32
  0
VERTEX
  8
0
  5
174A
 10
174.199
 20
303.127
 30
0.000000
  70
    32
  0
VERTEX
  8
0
  5
174B
 10
173.813
 20
303.066
 30
0.000000
  70
    32
  0
VERTEX
  8
0
  5
174C
 10
173.434
 20
302.999
 30
0.000000
  70
    32
  0
VERTEX
  8
0
  5
174D
 10
173.065
 20
302.925
 30
0.000000
  70
    32
  0
VERTEX
  8
0
  5
174E
 10
172.704
 20
302.844
 30
0.000000
  70
    32
  0
VERTEX
  8
0
  5
174F
 10
172.354
 20
302.758
 30
0.000000
  70
    32
  0
VERTEX
  8
0
  5
1750
 10
172.015
 20
302.665
 30
0.000000
  70
    32
  0
VERTEX
  8
0
  5
1751
 10
171.687
 20
302.567
 30
0.000000
  70
    32
  0
VERTEX
  8
0
  5
1752
 10
171.372
 20
302.462
 30
0.000000
  70
    32
  0
VERTEX
  8
0
  5
1753
 10
171.070
 20
302.353
 30
0.000000
  70
    32
  0
VERTEX
  8
0
  5
1754
 10
170.782
 20
302.238
 30
0.000000
  70
    32
  0
VERTEX
  8
0
  5
1755
 10
170.507
 20
302.118
 30
0.000000
  70
    32
  0
VERTEX
  8
0
  5
1756
 10
170.248
 20
301.994
 30
0.000000
  70
    32
  0
VERTEX
  8
0
  5
1757
 10
170.004
 20
301.865
 30
0.000000
  70
    32
  0
VERTEX
  8
0
  5
1758
 10
169.777
 20
301.732
 30
0.000000
  70
    32
  0
VERTEX
  8
0
  5
1759
 10
169.565
 20
301.596
 30
0.000000
  70
    32
  0
VERTEX
  8
0
  5
175A
 10
169.371
 20
301.455
 30
0.000000
  70
    32
  0
VERTEX
  8
0
  5
175B
 10
169.194
 20
301.312
 30
0.000000
  70
    32
  0
VERTEX
  8
0
  5
175C
 10
169.034
 20
301.165
 30
0.000000
  70
    32
  0
VERTEX
  8
0
  5
175D
 10
168.893
 20
301.016
 30
0.000000
  70
    32
  0
VERTEX
  8
0
  5
175E
 10
168.770
 20
300.865
 30
0.000000
  70
    32
  0
VERTEX
  8
0
  5
175F
 10
168.666
 20
300.711
 30
0.000000
  70
    32
  0
VERTEX
  8
0
  5
1760
 10
168.580
 20
300.556
 30
0.000000
  70
    32
  0
VERTEX
  8
0
  5
1761
 10
168.513
 20
300.400
 30
0.000000
  70
    32
  0
VERTEX
  8
0
  5
1762
 10
168.466
 20
300.242
 30
0.000000
  70
    32
  0
VERTEX
  8
0
  5
1763
 10
168.438
 20
300.084
 30
0.000000
  70
    32
  0
VERTEX
  8
0
  5
1764
 10
168.429
 20
299.925
 30
0.000000
  70
    32
  0
VERTEX
  8
0
  5
1765
 10
168.440
 20
299.767
 30
0.000000
  70
    32
  0
VERTEX
  8
0
  5
1766
 10
168.470
 20
299.609
 30
0.000000
  70
    32
  0
VERTEX
  8
0
  5
1767
 10
168.519
 20
299.452
 30
0.000000
  70
    32
  0
VERTEX
  8
0
  5
1768
 10
168.587
 20
299.295
 30
0.000000
  70
    32
  0
VERTEX
  8
0
  5
1769
 10
168.674
 20
299.140
 30
0.000000
  70
    32
  0
VERTEX
  8
0
  5
176A
 10
168.780
 20
298.987
 30
0.000000
  70
    32
  0
VERTEX
  8
0
  5
176B
 10
168.905
 20
298.836
 30
0.000000
  70
    32
  0
VERTEX
  8
0
  5
176C
 10
169.048
 20
298.687
 30
0.000000
  70
    32
  0
VERTEX
  8
0
  5
176D
 10
169.209
 20
298.540
 30
0.000000
  70
    32
  0
VERTEX
  8
0
  5
176E
 10
169.388
 20
298.397
 30
0.000000
  70
    32
  0
VERTEX
  8
0
  5
176F
 10
169.584
 20
298.257
 30
0.000000
  70
    32
  0
VERTEX
  8
0
  5
1770
 10
169.797
 20
298.121
 30
0.000000
  70
    32
  0
VERTEX
  8
0
  5
1771
 10
170.026
 20
297.988
 30
0.000000
  70
    32
  0
VERTEX
  8
0
  5
1772
 10
170.271
 20
297.860
 30
0.000000
  70
    32
  0
VERTEX
  8
0
  5
1773
 10
170.532
 20
297.736
 30
0.000000
  70
    32
  0
VERTEX
  8
0
  5
1774
 10
170.807
 20
297.617
 30
0.000000
  70
    32
  0
VERTEX
  8
0
  5
1775
 10
171.097
 20
297.502
 30
0.000000
  70
    32
  0
VERTEX
  8
0
  5
1776
 10
171.400
 20
297.393
 30
0.000000
  70
    32
  0
VERTEX
  8
0
  5
1777
 10
171.716
 20
297.290
 30
0.000000
  70
    32
  0
VERTEX
  8
0
  5
1778
 10
172.045
 20
297.192
 30
0.000000
  70
    32
  0
VERTEX
  8
0
  5
1779
 10
172.385
 20
297.099
 30
0.000000
  70
    32
  0
VERTEX
  8
0
  5
177A
 10
172.736
 20
297.013
 30
0.000000
  70
    32
  0
VERTEX
  8
0
  5
177B
 10
173.098
 20
296.934
 30
0.000000
  70
    32
  0
VERTEX
  8
0
  5
177C
 10
173.468
 20
296.860
 30
0.000000
  70
    32
  0
VERTEX
  8
0
  5
177D
 10
173.847
 20
296.793
 30
0.000000
  70
    32
  0
VERTEX
  8
0
  5
177E
 10
174.234
 20
296.733
 30
0.000000
  70
    32
  0
VERTEX
  8
0
  5
177F
 10
174.628
 20
296.680
 30
0.000000
  70
    32
  0
VERTEX
  8
0
  5
1780
 10
175.028
 20
296.634
 30
0.000000
  70
    32
  0
VERTEX
  8
0
  5
1781
 10
175.433
 20
296.594
 30
0.000000
  70
    32
  0
VERTEX
  8
0
  5
1782
 10
175.842
 20
296.562
 30
0.000000
  70
    32
  0
SEQEND
  8
0
  5
1783
  0
LINE
  5
13CA
  8
0
 10
179.09466716010431
 20
296.56221460031293
 30
0.0
 11
175.84245374765811
 21
296.56221460031293
 31
0.0
  0
LINE
  5
13CB
  8
0
 10
187.02107176434021
 20
314.4343582854429
 30
0.0
 11
185.04962269811659
 21
324.18448548927262
 31
0.0
  0
ARC
  5
13CC
  8
0
 10
184.5595405384129
 20
324.08539221634157
 30
0.0
 40
0.5
 50
11.43093316767178
 51
90.0
  0
ARC
  5
13CD
  8
0
 10
193.30120368269331
 20
311.10816084045911
 30
0.0
 40
7.0
 50
154.5146337365355
 51
197.21129352201169
  0
ARC
  5
13CE
  8
0
 10
186.53098960463649
 20
314.33526501251202
 30
0.0
 40
0.5
 50
334.51463373653547
 51
11.43093316767178
  0
LINE
  5
13CF
  8
0
 10
187.03098960463649
 20
314.33526501251202
 30
0.0
 11
187.03098960463649
 21
308.04318888945937
 31
0.0
  0
ARC
  5
13D0
  8
0
 10
200.64873137339401
 20
314.33263315103289
 30
0.0
 40
15.0
 50
200.67396706917449
 51
228.2567813213013
  0
LINE
  5
13D1
  8
0
 10
167.90613130312579
 20
314.33526501251202
 30
0.0
 11
167.90613130312579
 21
308.04318888945937
 31
0.0
  0
ARC
  5
13D2
  8
0
 10
161.63591722506899
 20
311.10816084045911
 30
0.0
 40
7.0
 50
342.78870647798823
 51
25.485366263464481
  0
ARC
  5
13D3
  8
0
 10
154.28838953436849
 20
314.33263315103289
 30
0.0
 40
15.0
 50
311.74321867869872
 51
339.32603293082548
  0
LINE
  5
13D4
  8
0
 10
167.9160491434221
 20
314.4343582854429
 30
0.0
 11
169.8874982096458
 21
324.18448548927262
 31
0.0
  0
ARC
  5
13D5
  8
0
 10
168.40613130312579
 20
314.33526501251202
 30
0.0
 40
0.5
 50
168.56906683232819
 51
205.48536626346441
  0
ARC
  5
13D6
  8
0
 10
170.37758036934949
 20
324.08539221634157
 30
0.0
 40
0.5
 50
90.0
 51
168.56906683232819
  0
LINE
  5
13D7
  8
0
 10
511.27122840424153
 20
319.95686770165838
 30
0.0
 11
514.00487512886696
 21
319.95686770165838
 31
0.0
  0
LINE
  5
13D8
  8
0
 10
510.97723762316468
 20
319.45941435790741
 30
0.0
 11
514.33811352802888
 21
319.45941435790741
 31
0.0
  0
LINE
  5
13D9
  8
0
 10
504.47465256704828
 20
309.12691636477518
 30
0.0
 11
520.86240084205622
 21
309.12691636477518
 31
0.0
  0
LINE
  5
13DA
  8
0
 10
505.179531655863
 20
311.02243561757189
 30
0.0
 11
520.15752175324155
 21
311.02243561757189
 31
0.0
  0
LINE
  5
13DB
  8
0
 10
505.14163645378841
 20
310.26895275054579
 30
0.0
 11
520.19541695531598
 21
310.26895275054579
 31
0.0
  0
LINE
  5
13DC
  8
0
 10
520.76199414996597
 20
309.46539221634163
 30
0.0
 11
504.57505925913853
 21
309.46539221634163
 31
0.0
  0
POLYLINE
  5
13DD
  8
0
 66
     1
 10
0.0
 20
0.0
 30
0.0
  0
VERTEX
  5
1642
  8
0
 10
505.76959368125029
 20
324.57147952754173
 30
0.0
  0
VERTEX
  5
1643
  8
0
 10
505.79435259028122
 20
324.5758050345321
 30
0.0
  0
VERTEX
  5
1644
  8
0
 10
505.84507086603787
 20
324.58199639676991
 30
0.0
  0
VERTEX
  5
1645
  8
0
 10
505.89726863651589
 20
324.5850213649764
 30
0.0
  0
VERTEX
  5
1646
  8
0
 10
505.92387360250427
 20
324.58539221634157
 30
0.0
  0
SEQEND
  5
1647
  8
0
  0
LINE
  5
13DE
  8
0
 10
505.16852670455222
 20
324.31711349020009
 30
0.0
 11
505.16852670455222
 21
310.88630514295249
 31
0.0
  0
LINE
  5
13DF
  8
0
 10
520.16852670455216
 20
324.31711349020009
 30
0.0
 11
520.16852670455216
 21
310.80362052196199
 31
0.0
  0
LINE
  5
13E0
  8
0
 10
528.16852670455216
 20
263.58539221634157
 30
0.0
 11
497.16852670455222
 21
263.58539221634157
 31
0.0
  0
LINE
  5
13E1
  8
1
 10
512.66852670455216
 20
312.58539221634157
 30
0.0
 11
512.66852670455216
 21
262.58539221634157
 31
0.0
  0
LINE
  5
13E2
  8
0
 10
524.16852670455216
 20
251.5853922163416
 30
0.0
 11
524.16852670455216
 21
263.58539221634157
 31
0.0
  0
LINE
  5
13E3
  8
0
 10
501.16852670455222
 20
263.58539221634157
 30
0.0
 11
501.16852670455222
 21
251.5853922163416
 31
0.0
  0
LINE
  5
13E4
  8
0
 10
501.16852670455222
 20
251.5853922163416
 30
0.0
 11
524.16852670455216
 21
251.5853922163416
 31
0.0
  0
LINE
  5
13E5
  8
1
 10
512.66852670455205
 20
334.5853922163414
 30
0.0
 11
512.66852670455205
 21
161.58539221634061
 31
0.0
  0
LINE
  5
13E6
  8
0
 10
522.23095585530757
 20
314.33526501251202
 30
0.0
 11
522.23095585530757
 21
296.64267712441529
 31
0.0
  0
ARC
  5
13E7
  8
0
 10
535.84869762406504
 20
314.33263315103289
 30
0.0
 40
15.0
 50
204.7901669365643
 51
228.2567813213013
  0
LINE
  5
13E8
  8
0
 10
519.75950678908407
 20
324.58539221634157
 30
0.0
 11
505.5775466200206
 21
324.58539221634157
 31
0.0
  0
LINE
  5
13E9
  8
0
 10
522.22103801501135
 20
314.4343582854429
 30
0.0
 11
520.24958894878773
 21
324.18448548927262
 31
0.0
  0
ARC
  5
13EA
  8
0
 10
521.73095585530757
 20
314.33526501251202
 30
0.0
 40
0.5
 50
0.0
 51
11.43093316767178
  0
ARC
  5
13EB
  8
0
 10
519.75950678908407
 20
324.08539221634157
 30
0.0
 40
0.5
 50
11.43093316767178
 51
90.0
  0
ARC
  5
13EC
  8
0
 10
489.48835578503957
 20
314.33263315103289
 30
0.0
 40
15.0
 50
311.74321867869872
 51
335.20983306343572
  0
ARC
  5
13ED
  8
0
 10
505.5775466200206
 20
324.08539221634157
 30
0.0
 40
0.5
 50
90.0
 51
168.56906683232819
  0
ARC
  5
13EE
  8
0
 10
503.60609755379699
 20
314.33526501251202
 30
0.0
 40
0.5
 50
168.56906683232819
 51
180.0
  0
LINE
  5
13EF
  8
0
 10
503.1160153940931
 20
314.4343582854429
 30
0.0
 11
505.08746446031688
 21
324.18448548927262
 31
0.0
  0
POLYLINE
  5
13F0
  8
0
 10
528.66442598958542
 20
299.24055357985605
 30
0.0
 66
     1
 70
     8
  0
VERTEX
  8
0
  5
1784
 10
528.664
 20
299.241
 30
0.000000
  70
    32
  0
VERTEX
  8
0
  5
1785
 10
528.666
 20
299.273
 30
0.000000
  70
    32
  0
VERTEX
  8
0
  5
1786
 10
528.667
 20
299.305
 30
0.000000
  70
    32
  0
VERTEX
  8
0
  5
1787
 10
528.668
 20
299.337
 30
0.000000
  70
    32
  0
VERTEX
  8
0
  5
1788
 10
528.668
 20
299.370
 30
0.000000
  70
    32
  0
VERTEX
  8
0
  5
1789
 10
528.669
 20
299.402
 30
0.000000
  70
    32
  0
VERTEX
  8
0
  5
178A
 10
528.668
 20
299.434
 30
0.000000
  70
    32
  0
VERTEX
  8
0
  5
178B
 10
528.667
 20
299.467
 30
0.000000
  70
    32
  0
VERTEX
  8
0
  5
178C
 10
528.666
 20
299.499
 30
0.000000
  70
    32
  0
VERTEX
  8
0
  5
178D
 10
528.665
 20
299.531
 30
0.000000
  70
    32
  0
VERTEX
  8
0
  5
178E
 10
528.663
 20
299.564
 30
0.000000
  70
    32
  0
VERTEX
  8
0
  5
178F
 10
528.661
 20
299.596
 30
0.000000
  70
    32
  0
VERTEX
  8
0
  5
1790
 10
528.658
 20
299.628
 30
0.000000
  70
    32
  0
VERTEX
  8
0
  5
1791
 10
528.655
 20
299.661
 30
0.000000
  70
    32
  0
VERTEX
  8
0
  5
1792
 10
528.652
 20
299.693
 30
0.000000
  70
    32
  0
VERTEX
  8
0
  5
1793
 10
528.648
 20
299.725
 30
0.000000
  70
    32
  0
VERTEX
  8
0
  5
1794
 10
528.644
 20
299.757
 30
0.000000
  70
    32
  0
VERTEX
  8
0
  5
1795
 10
528.640
 20
299.790
 30
0.000000
  70
    32
  0
VERTEX
  8
0
  5
1796
 10
528.635
 20
299.822
 30
0.000000
  70
    32
  0
VERTEX
  8
0
  5
1797
 10
528.629
 20
299.854
 30
0.000000
  70
    32
  0
VERTEX
  8
0
  5
1798
 10
528.624
 20
299.886
 30
0.000000
  70
    32
  0
VERTEX
  8
0
  5
1799
 10
528.618
 20
299.919
 30
0.000000
  70
    32
  0
VERTEX
  8
0
  5
179A
 10
528.611
 20
299.951
 30
0.000000
  70
    32
  0
VERTEX
  8
0
  5
179B
 10
528.605
 20
299.983
 30
0.000000
  70
    32
  0
VERTEX
  8
0
  5
179C
 10
528.597
 20
300.015
 30
0.000000
  70
    32
  0
VERTEX
  8
0
  5
179D
 10
528.590
 20
300.047
 30
0.000000
  70
    32
  0
VERTEX
  8
0
  5
179E
 10
528.582
 20
300.079
 30
0.000000
  70
    32
  0
VERTEX
  8
0
  5
179F
 10
528.574
 20
300.112
 30
0.000000
  70
    32
  0
VERTEX
  8
0
  5
17A0
 10
528.565
 20
300.144
 30
0.000000
  70
    32
  0
VERTEX
  8
0
  5
17A1
 10
528.556
 20
300.176
 30
0.000000
  70
    32
  0
VERTEX
  8
0
  5
17A2
 10
528.546
 20
300.208
 30
0.000000
  70
    32
  0
VERTEX
  8
0
  5
17A3
 10
528.537
 20
300.240
 30
0.000000
  70
    32
  0
VERTEX
  8
0
  5
17A4
 10
528.526
 20
300.272
 30
0.000000
  70
    32
  0
VERTEX
  8
0
  5
17A5
 10
528.516
 20
300.304
 30
0.000000
  70
    32
  0
VERTEX
  8
0
  5
17A6
 10
528.505
 20
300.336
 30
0.000000
  70
    32
  0
VERTEX
  8
0
  5
17A7
 10
528.494
 20
300.368
 30
0.000000
  70
    32
  0
VERTEX
  8
0
  5
17A8
 10
528.482
 20
300.400
 30
0.000000
  70
    32
  0
VERTEX
  8
0
  5
17A9
 10
528.470
 20
300.432
 30
0.000000
  70
    32
  0
VERTEX
  8
0
  5
17AA
 10
528.457
 20
300.464
 30
0.000000
  70
    32
  0
VERTEX
  8
0
  5
17AB
 10
528.445
 20
300.496
 30
0.000000
  70
    32
  0
VERTEX
  8
0
  5
17AC
 10
528.431
 20
300.527
 30
0.000000
  70
    32
  0
VERTEX
  8
0
  5
17AD
 10
528.418
 20
300.559
 30
0.000000
  70
    32
  0
VERTEX
  8
0
  5
17AE
 10
528.404
 20
300.591
 30
0.000000
  70
    32
  0
VERTEX
  8
0
  5
17AF
 10
528.390
 20
300.623
 30
0.000000
  70
    32
  0
VERTEX
  8
0
  5
17B0
 10
528.375
 20
300.654
 30
0.000000
  70
    32
  0
VERTEX
  8
0
  5
17B1
 10
528.360
 20
300.686
 30
0.000000
  70
    32
  0
VERTEX
  8
0
  5
17B2
 10
528.344
 20
300.718
 30
0.000000
  70
    32
  0
VERTEX
  8
0
  5
17B3
 10
528.329
 20
300.750
 30
0.000000
  70
    32
  0
VERTEX
  8
0
  5
17B4
 10
528.313
 20
300.781
 30
0.000000
  70
    32
  0
VERTEX
  8
0
  5
17B5
 10
528.296
 20
300.813
 30
0.000000
  70
    32
  0
VERTEX
  8
0
  5
17B6
 10
528.279
 20
300.844
 30
0.000000
  70
    32
  0
VERTEX
  8
0
  5
17B7
 10
528.262
 20
300.876
 30
0.000000
  70
    32
  0
VERTEX
  8
0
  5
17B8
 10
528.244
 20
300.907
 30
0.000000
  70
    32
  0
VERTEX
  8
0
  5
17B9
 10
528.226
 20
300.939
 30
0.000000
  70
    32
  0
VERTEX
  8
0
  5
17BA
 10
528.208
 20
300.970
 30
0.000000
  70
    32
  0
VERTEX
  8
0
  5
17BB
 10
528.189
 20
301.001
 30
0.000000
  70
    32
  0
VERTEX
  8
0
  5
17BC
 10
528.170
 20
301.033
 30
0.000000
  70
    32
  0
VERTEX
  8
0
  5
17BD
 10
528.150
 20
301.064
 30
0.000000
  70
    32
  0
VERTEX
  8
0
  5
17BE
 10
528.130
 20
301.095
 30
0.000000
  70
    32
  0
VERTEX
  8
0
  5
17BF
 10
528.110
 20
301.126
 30
0.000000
  70
    32
  0
VERTEX
  8
0
  5
17C0
 10
528.090
 20
301.158
 30
0.000000
  70
    32
  0
VERTEX
  8
0
  5
17C1
 10
528.069
 20
301.189
 30
0.000000
  70
    32
  0
VERTEX
  8
0
  5
17C2
 10
528.047
 20
301.220
 30
0.000000
  70
    32
  0
VERTEX
  8
0
  5
17C3
 10
528.025
 20
301.251
 30
0.000000
  70
    32
  0
VERTEX
  8
0
  5
17C4
 10
528.003
 20
301.282
 30
0.000000
  70
    32
  0
VERTEX
  8
0
  5
17C5
 10
527.981
 20
301.313
 30
0.000000
  70
    32
  0
VERTEX
  8
0
  5
17C6
 10
527.958
 20
301.344
 30
0.000000
  70
    32
  0
VERTEX
  8
0
  5
17C7
 10
527.935
 20
301.375
 30
0.000000
  70
    32
  0
VERTEX
  8
0
  5
17C8
 10
527.911
 20
301.405
 30
0.000000
  70
    32
  0
VERTEX
  8
0
  5
17C9
 10
527.888
 20
301.436
 30
0.000000
  70
    32
  0
VERTEX
  8
0
  5
17CA
 10
527.863
 20
301.467
 30
0.000000
  70
    32
  0
VERTEX
  8
0
  5
17CB
 10
527.839
 20
301.498
 30
0.000000
  70
    32
  0
VERTEX
  8
0
  5
17CC
 10
527.814
 20
301.528
 30
0.000000
  70
    32
  0
VERTEX
  8
0
  5
17CD
 10
527.788
 20
301.559
 30
0.000000
  70
    32
  0
VERTEX
  8
0
  5
17CE
 10
527.763
 20
301.589
 30
0.000000
  70
    32
  0
VERTEX
  8
0
  5
17CF
 10
527.737
 20
301.620
 30
0.000000
  70
    32
  0
VERTEX
  8
0
  5
17D0
 10
527.710
 20
301.650
 30
0.000000
  70
    32
  0
VERTEX
  8
0
  5
17D1
 10
527.684
 20
301.680
 30
0.000000
  70
    32
  0
VERTEX
  8
0
  5
17D2
 10
527.656
 20
301.711
 30
0.000000
  70
    32
  0
VERTEX
  8
0
  5
17D3
 10
527.629
 20
301.741
 30
0.000000
  70
    32
  0
VERTEX
  8
0
  5
17D4
 10
527.601
 20
301.771
 30
0.000000
  70
    32
  0
VERTEX
  8
0
  5
17D5
 10
527.573
 20
301.801
 30
0.000000
  70
    32
  0
VERTEX
  8
0
  5
17D6
 10
527.544
 20
301.831
 30
0.000000
  70
    32
  0
VERTEX
  8
0
  5
17D7
 10
527.515
 20
301.861
 30
0.000000
  70
    32
  0
VERTEX
  8
0
  5
17D8
 10
527.486
 20
301.891
 30
0.000000
  70
    32
  0
VERTEX
  8
0
  5
17D9
 10
527.457
 20
301.921
 30
0.000000
  70
    32
  0
VERTEX
  8
0
  5
17DA
 10
527.427
 20
301.951
 30
0.000000
  70
    32
  0
VERTEX
  8
0
  5
17DB
 10
527.396
 20
301.981
 30
0.000000
  70
    32
  0
VERTEX
  8
0
  5
17DC
 10
527.366
 20
302.011
 30
0.000000
  70
    32
  0
VERTEX
  8
0
  5
17DD
 10
527.335
 20
302.040
 30
0.000000
  70
    32
  0
VERTEX
  8
0
  5
17DE
 10
527.303
 20
302.070
 30
0.000000
  70
    32
  0
VERTEX
  8
0
  5
17DF
 10
527.272
 20
302.099
 30
0.000000
  70
    32
  0
VERTEX
  8
0
  5
17E0
 10
527.240
 20
302.129
 30
0.000000
  70
    32
  0
VERTEX
  8
0
  5
17E1
 10
527.207
 20
302.158
 30
0.000000
  70
    32
  0
VERTEX
  8
0
  5
17E2
 10
527.174
 20
302.187
 30
0.000000
  70
    32
  0
VERTEX
  8
0
  5
17E3
 10
527.141
 20
302.217
 30
0.000000
  70
    32
  0
VERTEX
  8
0
  5
17E4
 10
527.108
 20
302.246
 30
0.000000
  70
    32
  0
VERTEX
  8
0
  5
17E5
 10
527.074
 20
302.275
 30
0.000000
  70
    32
  0
VERTEX
  8
0
  5
17E6
 10
527.040
 20
302.304
 30
0.000000
  70
    32
  0
VERTEX
  8
0
  5
17E7
 10
527.006
 20
302.333
 30
0.000000
  70
    32
  0
VERTEX
  8
0
  5
17E8
 10
526.971
 20
302.362
 30
0.000000
  70
    32
  0
VERTEX
  8
0
  5
17E9
 10
526.936
 20
302.391
 30
0.000000
  70
    32
  0
VERTEX
  8
0
  5
17EA
 10
526.900
 20
302.420
 30
0.000000
  70
    32
  0
VERTEX
  8
0
  5
17EB
 10
526.864
 20
302.448
 30
0.000000
  70
    32
  0
VERTEX
  8
0
  5
17EC
 10
526.828
 20
302.477
 30
0.000000
  70
    32
  0
VERTEX
  8
0
  5
17ED
 10
526.792
 20
302.506
 30
0.000000
  70
    32
  0
VERTEX
  8
0
  5
17EE
 10
526.755
 20
302.534
 30
0.000000
  70
    32
  0
VERTEX
  8
0
  5
17EF
 10
526.718
 20
302.562
 30
0.000000
  70
    32
  0
VERTEX
  8
0
  5
17F0
 10
526.680
 20
302.591
 30
0.000000
  70
    32
  0
VERTEX
  8
0
  5
17F1
 10
526.642
 20
302.619
 30
0.000000
  70
    32
  0
VERTEX
  8
0
  5
17F2
 10
526.604
 20
302.647
 30
0.000000
  70
    32
  0
VERTEX
  8
0
  5
17F3
 10
526.566
 20
302.675
 30
0.000000
  70
    32
  0
VERTEX
  8
0
  5
17F4
 10
526.527
 20
302.703
 30
0.000000
  70
    32
  0
VERTEX
  8
0
  5
17F5
 10
526.488
 20
302.731
 30
0.000000
  70
    32
  0
VERTEX
  8
0
  5
17F6
 10
526.448
 20
302.759
 30
0.000000
  70
    32
  0
VERTEX
  8
0
  5
17F7
 10
526.409
 20
302.787
 30
0.000000
  70
    32
  0
VERTEX
  8
0
  5
17F8
 10
526.368
 20
302.815
 30
0.000000
  70
    32
  0
VERTEX
  8
0
  5
17F9
 10
526.328
 20
302.842
 30
0.000000
  70
    32
  0
VERTEX
  8
0
  5
17FA
 10
526.287
 20
302.870
 30
0.000000
  70
    32
  0
VERTEX
  8
0
  5
17FB
 10
526.246
 20
302.897
 30
0.000000
  70
    32
  0
VERTEX
  8
0
  5
17FC
 10
526.205
 20
302.925
 30
0.000000
  70
    32
  0
VERTEX
  8
0
  5
17FD
 10
526.163
 20
302.952
 30
0.000000
  70
    32
  0
VERTEX
  8
0
  5
17FE
 10
526.121
 20
302.979
 30
0.000000
  70
    32
  0
VERTEX
  8
0
  5
17FF
 10
526.078
 20
303.006
 30
0.000000
  70
    32
  0
VERTEX
  8
0
  5
1800
 10
526.036
 20
303.033
 30
0.000000
  70
    32
  0
VERTEX
  8
0
  5
1801
 10
525.993
 20
303.060
 30
0.000000
  70
    32
  0
VERTEX
  8
0
  5
1802
 10
525.949
 20
303.087
 30
0.000000
  70
    32
  0
VERTEX
  8
0
  5
1803
 10
525.906
 20
303.114
 30
0.000000
  70
    32
  0
VERTEX
  8
0
  5
1804
 10
525.862
 20
303.141
 30
0.000000
  70
    32
  0
SEQEND
  8
0
  5
1805
  0
LINE
  5
13F1
  8
0
 10
528.6645209236151
 20
299.2473793371164
 30
0.0
 11
528.16852670455216
 21
263.58539221634157
 31
0.0
  0
LINE
  5
13F2
  8
0
 10
161.47256623481829
 20
299.2473793371164
 30
0.0
 11
161.9685604538812
 21
263.58539221634157
 31
0.0
  0
LINE
  5
13F3
  8
0
 10
496.67253248548928
 20
299.2473793371164
 30
0.0
 11
497.16852670455222
 21
263.58539221634157
 31
0.0
  0
POLYLINE
  5
13F4
  8
0
 10
499.47525619529512
 20
303.14059043329655
 30
0.0
 66
     1
 70
     8
  0
VERTEX
  8
0
  5
1806
 10
499.475
 20
303.141
 30
0.000000
  70
    32
  0
VERTEX
  8
0
  5
1807
 10
499.431
 20
303.114
 30
0.000000
  70
    32
  0
VERTEX
  8
0
  5
1808
 10
499.388
 20
303.087
 30
0.000000
  70
    32
  0
VERTEX
  8
0
  5
1809
 10
499.344
 20
303.060
 30
0.000000
  70
    32
  0
VERTEX
  8
0
  5
180A
 10
499.301
 20
303.033
 30
0.000000
  70
    32
  0
VERTEX
  8
0
  5
180B
 10
499.259
 20
303.006
 30
0.000000
  70
    32
  0
VERTEX
  8
0
  5
180C
 10
499.216
 20
302.979
 30
0.000000
  70
    32
  0
VERTEX
  8
0
  5
180D
 10
499.174
 20
302.952
 30
0.000000
  70
    32
  0
VERTEX
  8
0
  5
180E
 10
499.132
 20
302.925
 30
0.000000
  70
    32
  0
VERTEX
  8
0
  5
180F
 10
499.091
 20
302.897
 30
0.000000
  70
    32
  0
VERTEX
  8
0
  5
1810
 10
499.050
 20
302.870
 30
0.000000
  70
    32
  0
VERTEX
  8
0
  5
1811
 10
499.009
 20
302.842
 30
0.000000
  70
    32
  0
VERTEX
  8
0
  5
1812
 10
498.969
 20
302.815
 30
0.000000
  70
    32
  0
VERTEX
  8
0
  5
1813
 10
498.928
 20
302.787
 30
0.000000
  70
    32
  0
VERTEX
  8
0
  5
1814
 10
498.889
 20
302.759
 30
0.000000
  70
    32
  0
VERTEX
  8
0
  5
1815
 10
498.849
 20
302.731
 30
0.000000
  70
    32
  0
VERTEX
  8
0
  5
1816
 10
498.810
 20
302.703
 30
0.000000
  70
    32
  0
VERTEX
  8
0
  5
1817
 10
498.771
 20
302.675
 30
0.000000
  70
    32
  0
VERTEX
  8
0
  5
1818
 10
498.733
 20
302.647
 30
0.000000
  70
    32
  0
VERTEX
  8
0
  5
1819
 10
498.695
 20
302.619
 30
0.000000
  70
    32
  0
VERTEX
  8
0
  5
181A
 10
498.657
 20
302.591
 30
0.000000
  70
    32
  0
VERTEX
  8
0
  5
181B
 10
498.619
 20
302.562
 30
0.000000
  70
    32
  0
VERTEX
  8
0
  5
181C
 10
498.582
 20
302.534
 30
0.000000
  70
    32
  0
VERTEX
  8
0
  5
181D
 10
498.545
 20
302.506
 30
0.000000
  70
    32
  0
VERTEX
  8
0
  5
181E
 10
498.509
 20
302.477
 30
0.000000
  70
    32
  0
VERTEX
  8
0
  5
181F
 10
498.473
 20
302.448
 30
0.000000
  70
    32
  0
VERTEX
  8
0
  5
1820
 10
498.437
 20
302.420
 30
0.000000
  70
    32
  0
VERTEX
  8
0
  5
1821
 10
498.401
 20
302.391
 30
0.000000
  70
    32
  0
VERTEX
  8
0
  5
1822
 10
498.366
 20
302.362
 30
0.000000
  70
    32
  0
VERTEX
  8
0
  5
1823
 10
498.331
 20
302.333
 30
0.000000
  70
    32
  0
VERTEX
  8
0
  5
1824
 10
498.297
 20
302.304
 30
0.000000
  70
    32
  0
VERTEX
  8
0
  5
1825
 10
498.263
 20
302.275
 30
0.000000
  70
    32
  0
VERTEX
  8
0
  5
1826
 10
498.229
 20
302.246
 30
0.000000
  70
    32
  0
VERTEX
  8
0
  5
1827
 10
498.196
 20
302.217
 30
0.000000
  70
    32
  0
VERTEX
  8
0
  5
1828
 10
498.163
 20
302.187
 30
0.000000
  70
    32
  0
VERTEX
  8
0
  5
1829
 10
498.130
 20
302.158
 30
0.000000
  70
    32
  0
VERTEX
  8
0
  5
182A
 10
498.097
 20
302.129
 30
0.000000
  70
    32
  0
VERTEX
  8
0
  5
182B
 10
498.065
 20
302.099
 30
0.000000
  70
    32
  0
VERTEX
  8
0
  5
182C
 10
498.034
 20
302.070
 30
0.000000
  70
    32
  0
VERTEX
  8
0
  5
182D
 10
498.002
 20
302.040
 30
0.000000
  70
    32
  0
VERTEX
  8
0
  5
182E
 10
497.971
 20
302.011
 30
0.000000
  70
    32
  0
VERTEX
  8
0
  5
182F
 10
497.941
 20
301.981
 30
0.000000
  70
    32
  0
VERTEX
  8
0
  5
1830
 10
497.910
 20
301.951
 30
0.000000
  70
    32
  0
VERTEX
  8
0
  5
1831
 10
497.880
 20
301.921
 30
0.000000
  70
    32
  0
VERTEX
  8
0
  5
1832
 10
497.851
 20
301.891
 30
0.000000
  70
    32
  0
VERTEX
  8
0
  5
1833
 10
497.822
 20
301.861
 30
0.000000
  70
    32
  0
VERTEX
  8
0
  5
1834
 10
497.793
 20
301.831
 30
0.000000
  70
    32
  0
VERTEX
  8
0
  5
1835
 10
497.764
 20
301.801
 30
0.000000
  70
    32
  0
VERTEX
  8
0
  5
1836
 10
497.736
 20
301.771
 30
0.000000
  70
    32
  0
VERTEX
  8
0
  5
1837
 10
497.708
 20
301.741
 30
0.000000
  70
    32
  0
VERTEX
  8
0
  5
1838
 10
497.681
 20
301.711
 30
0.000000
  70
    32
  0
VERTEX
  8
0
  5
1839
 10
497.654
 20
301.680
 30
0.000000
  70
    32
  0
VERTEX
  8
0
  5
183A
 10
497.627
 20
301.650
 30
0.000000
  70
    32
  0
VERTEX
  8
0
  5
183B
 10
497.600
 20
301.620
 30
0.000000
  70
    32
  0
VERTEX
  8
0
  5
183C
 10
497.574
 20
301.589
 30
0.000000
  70
    32
  0
VERTEX
  8
0
  5
183D
 10
497.549
 20
301.559
 30
0.000000
  70
    32
  0
VERTEX
  8
0
  5
183E
 10
497.523
 20
301.528
 30
0.000000
  70
    32
  0
VERTEX
  8
0
  5
183F
 10
497.498
 20
301.498
 30
0.000000
  70
    32
  0
VERTEX
  8
0
  5
1840
 10
497.474
 20
301.467
 30
0.000000
  70
    32
  0
VERTEX
  8
0
  5
1841
 10
497.449
 20
301.436
 30
0.000000
  70
    32
  0
VERTEX
  8
0
  5
1842
 10
497.426
 20
301.405
 30
0.000000
  70
    32
  0
VERTEX
  8
0
  5
1843
 10
497.402
 20
301.375
 30
0.000000
  70
    32
  0
VERTEX
  8
0
  5
1844
 10
497.379
 20
301.344
 30
0.000000
  70
    32
  0
VERTEX
  8
0
  5
1845
 10
497.356
 20
301.313
 30
0.000000
  70
    32
  0
VERTEX
  8
0
  5
1846
 10
497.334
 20
301.282
 30
0.000000
  70
    32
  0
VERTEX
  8
0
  5
1847
 10
497.312
 20
301.251
 30
0.000000
  70
    32
  0
VERTEX
  8
0
  5
1848
 10
497.290
 20
301.220
 30
0.000000
  70
    32
  0
VERTEX
  8
0
  5
1849
 10
497.269
 20
301.189
 30
0.000000
  70
    32
  0
VERTEX
  8
0
  5
184A
 10
497.248
 20
301.158
 30
0.000000
  70
    32
  0
VERTEX
  8
0
  5
184B
 10
497.227
 20
301.126
 30
0.000000
  70
    32
  0
VERTEX
  8
0
  5
184C
 10
497.207
 20
301.095
 30
0.000000
  70
    32
  0
VERTEX
  8
0
  5
184D
 10
497.187
 20
301.064
 30
0.000000
  70
    32
  0
VERTEX
  8
0
  5
184E
 10
497.167
 20
301.033
 30
0.000000
  70
    32
  0
VERTEX
  8
0
  5
184F
 10
497.148
 20
301.001
 30
0.000000
  70
    32
  0
VERTEX
  8
0
  5
1850
 10
497.129
 20
300.970
 30
0.000000
  70
    32
  0
VERTEX
  8
0
  5
1851
 10
497.111
 20
300.939
 30
0.000000
  70
    32
  0
VERTEX
  8
0
  5
1852
 10
497.093
 20
300.907
 30
0.000000
  70
    32
  0
VERTEX
  8
0
  5
1853
 10
497.075
 20
300.876
 30
0.000000
  70
    32
  0
VERTEX
  8
0
  5
1854
 10
497.058
 20
300.844
 30
0.000000
  70
    32
  0
VERTEX
  8
0
  5
1855
 10
497.041
 20
300.813
 30
0.000000
  70
    32
  0
VERTEX
  8
0
  5
1856
 10
497.025
 20
300.781
 30
0.000000
  70
    32
  0
VERTEX
  8
0
  5
1857
 10
497.008
 20
300.750
 30
0.000000
  70
    32
  0
VERTEX
  8
0
  5
1858
 10
496.993
 20
300.718
 30
0.000000
  70
    32
  0
VERTEX
  8
0
  5
1859
 10
496.977
 20
300.686
 30
0.000000
  70
    32
  0
VERTEX
  8
0
  5
185A
 10
496.962
 20
300.654
 30
0.000000
  70
    32
  0
VERTEX
  8
0
  5
185B
 10
496.947
 20
300.623
 30
0.000000
  70
    32
  0
VERTEX
  8
0
  5
185C
 10
496.933
 20
300.591
 30
0.000000
  70
    32
  0
VERTEX
  8
0
  5
185D
 10
496.919
 20
300.559
 30
0.000000
  70
    32
  0
VERTEX
  8
0
  5
185E
 10
496.906
 20
300.527
 30
0.000000
  70
    32
  0
VERTEX
  8
0
  5
185F
 10
496.892
 20
300.496
 30
0.000000
  70
    32
  0
VERTEX
  8
0
  5
1860
 10
496.880
 20
300.464
 30
0.000000
  70
    32
  0
VERTEX
  8
0
  5
1861
 10
496.867
 20
300.432
 30
0.000000
  70
    32
  0
VERTEX
  8
0
  5
1862
 10
496.855
 20
300.400
 30
0.000000
  70
    32
  0
VERTEX
  8
0
  5
1863
 10
496.843
 20
300.368
 30
0.000000
  70
    32
  0
VERTEX
  8
0
  5
1864
 10
496.832
 20
300.336
 30
0.000000
  70
    32
  0
VERTEX
  8
0
  5
1865
 10
496.821
 20
300.304
 30
0.000000
  70
    32
  0
VERTEX
  8
0
  5
1866
 10
496.811
 20
300.272
 30
0.000000
  70
    32
  0
VERTEX
  8
0
  5
1867
 10
496.800
 20
300.240
 30
0.000000
  70
    32
  0
VERTEX
  8
0
  5
1868
 10
496.791
 20
300.208
 30
0.000000
  70
    32
  0
VERTEX
  8
0
  5
1869
 10
496.781
 20
300.176
 30
0.000000
  70
    32
  0
VERTEX
  8
0
  5
186A
 10
496.772
 20
300.144
 30
0.000000
  70
    32
  0
VERTEX
  8
0
  5
186B
 10
496.763
 20
300.112
 30
0.000000
  70
    32
  0
VERTEX
  8
0
  5
186C
 10
496.755
 20
300.079
 30
0.000000
  70
    32
  0
VERTEX
  8
0
  5
186D
 10
496.747
 20
300.047
 30
0.000000
  70
    32
  0
VERTEX
  8
0
  5
186E
 10
496.740
 20
300.015
 30
0.000000
  70
    32
  0
VERTEX
  8
0
  5
186F
 10
496.733
 20
299.983
 30
0.000000
  70
    32
  0
VERTEX
  8
0
  5
1870
 10
496.726
 20
299.951
 30
0.000000
  70
    32
  0
VERTEX
  8
0
  5
1871
 10
496.719
 20
299.919
 30
0.000000
  70
    32
  0
VERTEX
  8
0
  5
1872
 10
496.713
 20
299.886
 30
0.000000
  70
    32
  0
VERTEX
  8
0
  5
1873
 10
496.708
 20
299.854
 30
0.000000
  70
    32
  0
VERTEX
  8
0
  5
1874
 10
496.702
 20
299.822
 30
0.000000
  70
    32
  0
VERTEX
  8
0
  5
1875
 10
496.698
 20
299.790
 30
0.000000
  70
    32
  0
VERTEX
  8
0
  5
1876
 10
496.693
 20
299.757
 30
0.000000
  70
    32
  0
VERTEX
  8
0
  5
1877
 10
496.689
 20
299.725
 30
0.000000
  70
    32
  0
VERTEX
  8
0
  5
1878
 10
496.685
 20
299.693
 30
0.000000
  70
    32
  0
VERTEX
  8
0
  5
1879
 10
496.682
 20
299.661
 30
0.000000
  70
    32
  0
VERTEX
  8
0
  5
187A
 10
496.679
 20
299.628
 30
0.000000
  70
    32
  0
VERTEX
  8
0
  5
187B
 10
496.676
 20
299.596
 30
0.000000
  70
    32
  0
VERTEX
  8
0
  5
187C
 10
496.674
 20
299.564
 30
0.000000
  70
    32
  0
VERTEX
  8
0
  5
187D
 10
496.672
 20
299.531
 30
0.000000
  70
    32
  0
VERTEX
  8
0
  5
187E
 10
496.671
 20
299.499
 30
0.000000
  70
    32
  0
VERTEX
  8
0
  5
187F
 10
496.670
 20
299.467
 30
0.000000
  70
    32
  0
VERTEX
  8
0
  5
1880
 10
496.669
 20
299.434
 30
0.000000
  70
    32
  0
VERTEX
  8
0
  5
1881
 10
496.669
 20
299.402
 30
0.000000
  70
    32
  0
VERTEX
  8
0
  5
1882
 10
496.669
 20
299.370
 30
0.000000
  70
    32
  0
VERTEX
  8
0
  5
1883
 10
496.669
 20
299.337
 30
0.000000
  70
    32
  0
VERTEX
  8
0
  5
1884
 10
496.670
 20
299.305
 30
0.000000
  70
    32
  0
VERTEX
  8
0
  5
1885
 10
496.671
 20
299.273
 30
0.000000
  70
    32
  0
VERTEX
  8
0
  5
1886
 10
496.673
 20
299.241
 30
0.000000
  70
    32
  0
SEQEND
  8
0
  5
1887
  0
ARC
  5
13F5
  8
0
 10
537.53561617539083
 20
291.68800950624552
 30
0.0
 40
16.0
 50
164.0225319366626
 51
212.5247298491451
  0
ARC
  5
13F6
  8
0
 10
520.23095585530768
 20
296.64267712441529
 30
0.0
 40
2.0
 50
344.02253193666257
 51
0.0
  0
LINE
  5
13F7
  8
0
 10
522.23266261932849
 20
296.90008542245391
 30
0.0
 11
520.86240084205633
 21
309.12691636477427
 31
0.0
  0
LINE
  5
13F8
  8
0
 10
520.76199414996597
 20
309.46539221634163
 30
0.0
 11
520.86240084205622
 21
309.12691636477518
 31
0.0
  0
LINE
  5
13F9
  8
0
 10
520.15752175324155
 20
311.02243561757189
 30
0.0
 11
520.23105401754731
 21
309.56036922671092
 31
0.0
  0
ARC
  5
13FA
  8
0
 10
520.33092778575076
 20
309.56539221634159
 30
0.0
 40
0.1
 50
182.8791726428968
 51
270.0
  0
LINE
  5
13FB
  8
0
 10
503.10609755379681
 20
314.33526501251202
 30
0.0
 11
503.10609755379681
 21
296.64267712441529
 31
0.0
  0
LINE
  5
13FC
  8
0
 10
503.10439078977601
 20
296.90008542245391
 30
0.0
 11
504.47465256704822
 21
309.12691636477427
 31
0.0
  0
ARC
  5
13FD
  8
0
 10
487.80143723371373
 20
291.68800950624552
 30
0.0
 40
16.0
 50
327.4752701508549
 51
15.977468063337369
  0
ARC
  5
13FE
  8
0
 10
505.10609755379687
 20
296.64267712441529
 30
0.0
 40
2.0
 50
180.0
 51
195.97746806333731
  0
LINE
  5
13FF
  8
0
 10
505.179531655863
 20
311.02243561757189
 30
0.0
 11
505.10599939155708
 21
309.56036922671092
 31
0.0
  0
ARC
  5
1400
  8
0
 10
505.00612562335363
 20
309.56539221634159
 30
0.0
 40
0.1
 50
270.0
 51
357.12082735710311
  0
LINE
  5
1401
  8
0
 10
504.57505925913841
 20
309.46539221634163
 30
0.0
 11
504.47465256704828
 21
309.12691636477518
 31
0.0
  0
ARC
  5
1402
  8
0
 10
526.86032525334178
 20
308.3802123040137
 30
0.0
 40
18.0
 50
116.9726637604859
 51
134.80837889191491
  0
ARC
  5
1403
  8
0
 10
519.37649710552432
 20
323.08539221634157
 30
0.0
 40
1.5
 50
90.0
 51
116.9726637604859
  0
ARC
  5
1404
  8
0
 10
580.34575616287611
 20
364.65887357801648
 30
0.0
 40
80.0
 50
214.0362878740896
 51
219.4398401049931
  0
ARC
  5
1405
  8
0
 10
514.87977977146693
 20
320.44116292810321
 30
0.0
 40
1.0
 50
134.80837889191491
 51
214.0362878740896
  0
ARC
  5
1406
  8
0
 10
505.51082511740373
 20
304.5823767377791
 30
0.0
 40
16.0
 50
23.734790178187481
 51
35.341083939324157
  0
ARC
  5
1407
  8
0
 10
444.99129724622838
 20
364.65887357801648
 30
0.0
 40
80.0
 50
320.5601598950069
 51
325.96371212591038
  0
ARC
  5
1408
  8
0
 10
498.4767281557626
 20
308.3802123040137
 30
0.0
 40
18.0
 50
45.191621108085108
 51
63.027336239514078
  0
ARC
  5
1409
  8
0
 10
510.45727363763751
 20
320.44116292810321
 30
0.0
 40
1.0
 50
325.96371212591038
 51
45.191621108085108
  0
ARC
  5
140A
  8
0
 10
505.96055630358018
 20
323.08539221634157
 30
0.0
 40
1.5
 50
63.027336239514078
 51
90.0
  0
ARC
  5
140B
  8
0
 10
519.82622829170066
 20
304.5823767377791
 30
0.0
 40
16.0
 50
144.65891606067581
 51
156.2652098218125
  0
LINE
  5
1433
  8
0
 10
306.85058004447279
 20
171.5853922163414
 30
0.0
 11
294.85058004447291
 21
171.58539221634149
 31
0.0
  0
LINE
  5
1434
  8
0
 10
292.85058004447279
 20
251.5853922163416
 30
0.0
 11
292.85058004447268
 21
173.5853922163418
 31
0.0
  0
LINE
  5
1435
  8
3
 10
293.93308004447277
 20
231.5853922163416
 30
0.0
 11
293.93308004447277
 21
172.50289221634171
 31
0.0
  0
LINE
  5
1436
  8
3
 10
307.76808004447281
 20
231.5853922163416
 30
0.0
 11
307.76808004447281
 21
172.50289221634131
 31
0.0
  0
LINE
  5
1437
  8
0
 10
308.85058004447291
 20
251.5853922163416
 30
0.0
 11
308.85058004447302
 21
173.58539221634149
 31
0.0
  0
LINE
  5
1438
  8
0
 10
308.85058004447291
 20
173.5853922163414
 30
0.0
 11
306.85058004447279
 21
171.5853922163414
 31
0.0
  0
LINE
  5
1439
  8
0
 10
294.85058004447291
 20
171.58539221634149
 30
0.0
 11
292.85058004447279
 21
173.5853922163416
 31
0.0
  0
LINE
  5
143A
  8
0
 10
292.85058004447279
 20
173.5853922163416
 30
0.0
 11
308.85058004447291
 21
173.5853922163414
 31
0.0
  0
LINE
  5
143B
  8
0
 10
308.84058004447292
 20
231.5853922163416
 30
0.0
 11
292.8405800444728
 21
231.5853922163416
 31
0.0
  0
LINE
  5
143C
  8
3
 10
307.75808004447288
 20
231.5853922163416
 30
0.0
 11
308.84058004447292
 21
233.46033721553479
 31
0.0
  0
LINE
  5
143D
  8
3
 10
293.9230800444729
 20
231.5853922163416
 30
0.0
 11
292.84058004447297
 21
233.46033721553479
 31
0.0
  0
LINE
  5
1442
  8
3
 10
170.56106045388111
 20
231.5853922163416
 30
0.0
 11
170.56106045388111
 21
172.50289221634171
 31
0.0
  0
LINE
  5
1443
  8
3
 10
184.3960604538812
 20
231.5853922163416
 30
0.0
 11
184.3960604538812
 21
172.50289221634159
 31
0.0
  0
LINE
  5
1444
  8
0
 10
183.4785604538811
 20
171.5853922163414
 30
0.0
 11
171.47856045388119
 21
171.58539221634149
 31
0.0
  0
LINE
  5
1445
  8
0
 10
169.47856045388119
 20
173.5853922163416
 30
0.0
 11
185.4785604538811
 21
173.5853922163414
 31
0.0
  0
LINE
  5
1446
  8
0
 10
171.47856045388119
 20
171.58539221634149
 30
0.0
 11
169.47856045388119
 21
173.5853922163416
 31
0.0
  0
LINE
  5
1447
  8
0
 10
185.4785604538811
 20
173.5853922163414
 30
0.0
 11
183.4785604538811
 21
171.5853922163414
 31
0.0
  0
LINE
  5
1448
  8
0
 10
185.4685604538812
 20
231.5853922163416
 30
0.0
 11
169.4685604538812
 21
231.5853922163416
 31
0.0
  0
LINE
  5
1449
  8
3
 10
170.55106045388121
 20
231.5853922163416
 30
0.0
 11
169.46856045388131
 21
233.46033721553479
 31
0.0
  0
LINE
  5
144A
  8
3
 10
184.38606045388121
 20
231.5853922163416
 30
0.0
 11
185.4685604538812
 21
233.46033721553479
 31
0.0
  0
LINE
  5
144B
  8
0
 10
185.4785604538811
 20
251.5853922163416
 30
0.0
 11
185.4785604538811
 21
173.5853922163414
 31
0.0
  0
LINE
  5
144C
  8
0
 10
169.47856045388119
 20
251.5853922163416
 30
0.0
 11
169.4785604538811
 21
173.58539221634169
 31
0.0
  0
LINE
  5
144D
  8
3
 10
519.59602670455217
 20
231.5853922163416
 30
0.0
 11
519.59602670455217
 21
172.50289221634139
 31
0.0
  0
LINE
  5
144E
  8
0
 10
520.67852670455216
 20
251.5853922163416
 30
0.0
 11
520.67852670455216
 21
173.5853922163414
 31
0.0
  0
LINE
  5
144F
  8
0
 10
518.67852670455227
 20
171.5853922163414
 30
0.0
 11
506.67852670455221
 21
171.58539221634149
 31
0.0
  0
LINE
  5
1450
  8
0
 10
504.67852670455221
 20
173.5853922163416
 30
0.0
 11
520.67852670455216
 21
173.5853922163414
 31
0.0
  0
LINE
  5
1451
  8
0
 10
520.67852670455216
 20
173.5853922163414
 30
0.0
 11
518.67852670455227
 21
171.5853922163414
 31
0.0
  0
LINE
  5
1452
  8
0
 10
520.66852670455216
 20
231.5853922163416
 30
0.0
 11
504.66852670455222
 21
231.5853922163416
 31
0.0
  0
LINE
  5
1453
  8
3
 10
519.5860267045523
 20
231.5853922163416
 30
0.0
 11
520.66852670455216
 21
233.46033721553479
 31
0.0
  0
LINE
  5
1454
  8
3
 10
505.76102670455219
 20
231.5853922163416
 30
0.0
 11
505.76102670455219
 21
172.50289221634159
 31
0.0
  0
LINE
  5
1455
  8
0
 10
504.67852670455221
 20
251.5853922163416
 30
0.0
 11
504.67852670455221
 21
173.58539221634169
 31
0.0
  0
LINE
  5
1456
  8
3
 10
505.7510267045522
 20
231.5853922163416
 30
0.0
 11
504.66852670455222
 21
233.46033721553479
 31
0.0
  0
LINE
  5
1457
  8
0
 10
506.67852670455221
 20
171.58539221634149
 30
0.0
 11
504.67852670455221
 21
173.5853922163416
 31
0.0
  0
LINE
  5
1465
  8
1
 10
300.85058004447291
 20
444.39163800425382
 30
0.0
 11
300.85058004447291
 21
392.39163800425388
 31
0.0
  0
LINE
  5
1466
  8
1
 10
420.85058004447279
 20
418.39163800425382
 30
0.0
 11
274.85058004447279
 21
418.39163800425382
 31
0.0
  0
LINE
  5
1468
  8
1
 10
300.85058004447291
 20
106.54456502502261
 30
0.0
 11
300.85058004447291
 21
54.544565025022621
 31
0.0
  0
LINE
  5
1469
  8
1
 10
420.85058004447279
 20
80.544565025022621
 30
0.0
 11
274.85058004447279
 21
80.544565025022621
 31
0.0
  0
LINE
  5
14D5
  8
0
 10
297.05058004447289
 20
419.06663800425378
 30
0.0
 11
297.05058004447289
 21
417.71663800425381
 31
0.0
  0
LINE
  5
14D6
  8
0
 10
304.6505800444728
 20
419.06663800425378
 30
0.0
 11
304.6505800444728
 21
417.71663800425381
 31
0.0
  0
LINE
  5
14D7
  8
0
 10
302.6477019626775
 20
419.06663800425378
 30
0.0
 11
304.6505800444728
 21
419.06663800425378
 31
0.0
  0
LINE
  5
14D8
  8
0
 10
302.64770196267739
 20
417.71663800425381
 30
0.0
 11
304.6505800444728
 21
417.71663800425381
 31
0.0
  0
LINE
  5
14D9
  8
0
 10
297.05058004447289
 20
419.06663800425378
 30
0.0
 11
299.05345812626831
 21
419.06663800425378
 31
0.0
  0
LINE
  5
14DA
  8
0
 10
297.05058004447289
 20
417.71663800425381
 30
0.0
 11
299.05345812626842
 21
417.71663800425381
 31
0.0
  0
CIRCLE
  5
14DB
  8
0
 10
300.85058004447291
 20
418.39163800425382
 30
0.0
 40
3.999175415007485
  0
LINE
  5
14E7
  8
0
 10
184.21856045388111
 20
299.19295963283378
 30
0.0
 11
170.71856045388111
 21
299.19295963283372
 31
0.0
  0
ARC
  5
14E8
  8
0
 10
177.4685604538812
 20
289.27139221634161
 30
0.0
 40
12.0
 50
109.4670447595973
 51
124.2288663278118
  0
ARC
  5
14E9
  8
0
 10
177.4685604538812
 20
289.27139221634161
 30
0.0
 40
12.0
 50
55.771133672188213
 51
70.532955240402714
  0
LINE
  5
14EA
  8
0
 10
181.46773586888861
 20
300.58539221634157
 30
0.0
 11
173.46938503887381
 21
300.58539221634157
 31
0.0
  0
LINE
  5
14EB
  8
0
 10
170.71856045388111
 20
299.19295963283372
 30
0.0
 11
170.71856045388111
 21
297.65368625584449
 31
0.0
  0
LINE
  5
14EC
  8
0
 10
184.21856045388111
 20
299.19295963283378
 30
0.0
 11
184.21856045388111
 21
297.65368625584449
 31
0.0
  0
CIRCLE
  5
14ED
  8
0
 10
300.85058004447291
 20
418.39163800425382
 30
0.0
 40
6.75
  0
ARC
  5
14EE
  8
0
 10
303.21421946742498
 20
419.75628586136253
 30
0.0
 40
0.8925000000000011
 50
163.3417582272229
 51
230.59829508168929
  0
ARC
  5
14EF
  8
0
 10
303.21421946742498
 20
417.02699014714528
 30
0.0
 40
0.8925000000000002
 50
129.40170491832319
 51
196.65824177277699
  0
ARC
  5
14F0
  8
0
 10
301.87058004447277
 20
416.62494618053358
 30
0.0
 40
0.5099999999999997
 50
223.3417582272223
 51
16.658241772777039
  0
ARC
  5
14F1
  8
0
 10
300.85058004447291
 20
415.66234229003658
 30
0.0
 40
0.8925000000000002
 50
43.341758227222343
 51
136.65824177277651
  0
ARC
  5
14F2
  8
0
 10
299.83058004447292
 20
416.62494618053358
 30
0.0
 40
0.5100000000000002
 50
163.3417582272229
 51
316.65824177277773
  0
ARC
  5
14F3
  8
0
 10
298.48694062152077
 20
417.02699014714528
 30
0.0
 40
0.8925000000000011
 50
343.3417582272229
 51
50.598295081676767
  0
ARC
  5
14F4
  8
0
 10
301.87058004447277
 20
420.15832982797411
 30
0.0
 40
0.5100000000000003
 50
343.3417582272229
 51
136.65824177277759
  0
ARC
  5
14F5
  8
0
 10
300.85058004447291
 20
421.12093371847112
 30
0.0
 40
0.8924999999999984
 50
223.3417582272223
 51
316.65824177277773
  0
ARC
  5
14F6
  8
0
 10
299.83058004447292
 20
420.15832982797411
 30
0.0
 40
0.5099999999999997
 50
43.341758227222343
 51
196.65824177277699
  0
ARC
  5
14F7
  8
0
 10
298.48694062152077
 20
419.75628586136253
 30
0.0
 40
0.8925000000000004
 50
309.40170491831071
 51
16.658241772777039
  0
LINE
  5
14FD
  8
0
 10
294.09058004447292
 20
299.19295963283372
 30
0.0
 11
294.09058004447292
 21
296.72289311008581
 31
0.0
  0
LINE
  5
14FE
  8
0
 10
303.84086957268443
 20
300.58539221634157
 30
0.0
 11
296.8414046294655
 21
300.58539221634157
 31
0.0
  0
ARC
  5
14FF
  8
0
 10
300.84058004447292
 20
289.27139221634161
 30
0.0
 40
12.0
 50
109.4670447595973
 51
124.2288663278118
  0
LINE
  5
1500
  8
0
 10
300.23909473931133
 20
299.19295963283372
 30
0.0
 11
294.09058004447292
 21
299.19295963283372
 31
0.0
  0
TEXT
  5
15E9
  8
0
 62
     3
 10
0.0
 20
0.0
 30
0.0
 40
10.0
  1
FKR16X80-SV
  7
STANDARD1
  0
ENDSEC
  0
EOF
