  0
SECTION
  2
HEADER
  9
$ACADVER
  1
AC1009
  9
$INSBASE
 10
0.0
 20
0.0
 30
0.0
  9
$EXTMIN
 10
0.0
 20
-2.960436562073669
 30
0.0
  9
$EXTMAX
 10
518.66452092361521
 20
464.39163800425382
 30
0.0
  9
$LIMMIN
 10
0.0
 20
0.0
  9
$LIMMAX
 10
187.5
 20
135.0
  9
$ORTHOMODE
 70
     0
  9
$REGENMODE
 70
     1
  9
$FILLMODE
 70
     1
  9
$QTEXTMODE
 70
     0
  9
$MIRRTEXT
 70
     0
  9
$DRAGMODE
 70
     2
  9
$LTSCALE
 40
10.0
  9
$OSMODE
 70
    55
  9
$ATTMODE
 70
     1
  9
$TEXTSIZE
 40
4.0
  9
$TRACEWID
 40
0.05
  9
$TEXTSTYLE
  7
STANDARD
  9
$CLAYER
  8
0
  9
$CELTYPE
  6
BYLAYER
  9
$CECOLOR
 62
   256
  9
$DIMSCALE
 40
0.5
  9
$DIMASZ
 40
3.0
  9
$DIMEXO
 40
2.0
  9
$DIMDLI
 40
0.38
  9
$DIMRND
 40
0.0
  9
$DIMDLE
 40
0.0
  9
$DIMEXE
 40
2.0
  9
$DIMTP
 40
0.0
  9
$DIMTM
 40
0.0
  9
$DIMTXT
 40
3.0
  9
$DIMCEN
 40
0.0
  9
$DIMTSZ
 40
0.0
  9
$DIMTOL
 70
     0
  9
$DIMLIM
 70
     0
  9
$DIMTIH
 70
     0
  9
$DIMTOH
 70
     0
  9
$DIMSE1
 70
     0
  9
$DIMSE2
 70
     0
  9
$DIMTAD
 70
     1
  9
$DIMZIN
 70
     0
  9
$DIMBLK
  1

  9
$DIMASO
 70
     0
  9
$DIMSHO
 70
     0
  9
$DIMPOST
  1

  9
$DIMAPOST
  1

  9
$DIMALT
 70
     0
  9
$DIMALTD
 70
     2
  9
$DIMALTF
 40
25.399999999999999
  9
$DIMLFAC
 40
1.0
  9
$DIMTOFL
 70
     0
  9
$DIMTVP
 40
1.6000000000000001
  9
$DIMTIX
 70
     1
  9
$DIMSOXD
 70
     0
  9
$DIMSAH
 70
     0
  9
$DIMBLK1
  1

  9
$DIMBLK2
  1

  9
$DIMSTYLE
  2
STANDARD
  9
$DIMCLRD
 70
     0
  9
$DIMCLRE
 70
     0
  9
$DIMCLRT
 70
     0
  9
$DIMTFAC
 40
1.0
  9
$DIMGAP
 40
0.09
  9
$LUNITS
 70
     2
  9
$LUPREC
 70
     4
  9
$SKETCHINC
 40
0.1
  9
$FILLETRAD
 40
1.25
  9
$AUNITS
 70
     0
  9
$AUPREC
 70
     0
  9
$MENU
  1
E:\r13\win\SUPPORT\ACAD
  9
$ELEVATION
 40
0.0
  9
$PELEVATION
 40
0.0
  9
$THICKNESS
 40
0.0
  9
$LIMCHECK
 70
     0
  9
$BLIPMODE
 70
     0
  9
$CHAMFERA
 40
0.0
  9
$CHAMFERB
 40
0.0
  9
$SKPOLY
 70
     0
  9
$TDCREATE
 40
2449840.6143865739
  9
$TDUPDATE
 40
2456598.6610087152
  9
$TDINDWG
 40
0.3481356829
  9
$TDUSRTIMER
 40
0.3481356829
  9
$USRTIMER
 70
     1
  9
$ANGBASE
 50
0.0
  9
$ANGDIR
 70
     0
  9
$PDMODE
 70
     0
  9
$PDSIZE
 40
0.0
  9
$PLINEWID
 40
0.0
  9
$COORDS
 70
     1
  9
$SPLFRAME
 70
     0
  9
$SPLINETYPE
 70
     6
  9
$SPLINESEGS
 70
     8
  9
$ATTDIA
 70
     0
  9
$ATTREQ
 70
     1
  9
$HANDLING
 70
     1
  9
$HANDSEED
  5
1891
  9
$SURFTAB1
 70
     6
  9
$SURFTAB2
 70
     6
  9
$SURFTYPE
 70
     6
  9
$SURFU
 70
     6
  9
$SURFV
 70
     6
  9
$UCSNAME
  2

  9
$UCSORG
 10
0.0
 20
0.0
 30
0.0
  9
$UCSXDIR
 10
1.0
 20
0.0
 30
0.0
  9
$UCSYDIR
 10
0.0
 20
1.0
 30
0.0
  9
$PUCSNAME
  2

  9
$PUCSORG
 10
0.0
 20
0.0
 30
0.0
  9
$PUCSXDIR
 10
1.0
 20
0.0
 30
0.0
  9
$PUCSYDIR
 10
0.0
 20
1.0
 30
0.0
  9
$USERI1
 70
     0
  9
$USERI2
 70
     1
  9
$USERI3
 70
     1
  9
$USERI4
 70
     0
  9
$USERI5
 70
     0
  9
$USERR1
 40
0.0
  9
$USERR2
 40
0.0
  9
$USERR3
 40
0.0
  9
$USERR4
 40
0.0
  9
$USERR5
 40
0.0
  9
$WORLDVIEW
 70
     1
  9
$SHADEDGE
 70
     3
  9
$SHADEDIF
 70
    70
  9
$TILEMODE
 70
     1
  9
$MAXACTVP
 70
    16
  9
$PLIMCHECK
 70
     0
  9
$PEXTMIN
 10
1.0000000000000000E+020
 20
1.0000000000000000E+020
 30
1.0000000000000000E+020
  9
$PEXTMAX
 10
-1.0000000000000000E+020
 20
-1.0000000000000000E+020
 30
-1.0000000000000000E+020
  9
$PLIMMIN
 10
0.0
 20
0.0
  9
$PLIMMAX
 10
12.0
 20
9.0
  9
$UNITMODE
 70
     0
  9
$VISRETAIN
 70
     0
  9
$PLINEGEN
 70
     0
  9
$PSLTSCALE
 70
     0
  0
ENDSEC
  0
SECTION
  2
TABLES
  0
TABLE
  2
VPORT
 70
     1
  0
VPORT
  2
*ACTIVE
 70
     0
 10
0.0
 20
0.0
 11
1.0
 21
1.0
 12
259.33226166941762
 22
301.60113789908172
 13
0.0
 23
0.0
 14
5.0
 24
5.0
 15
5.0
 25
5.0
 16
0.0
 26
0.0
 36
1.0
 17
0.0
 27
0.0
 37
0.0
 40
614.55527251003969
 41
1.7807262569832401
 42
50.0
 43
0.0
 44
0.0
 50
0.0
 51
0.0
 71
     0
 72
   100
 73
     1
 74
     0
 75
     0
 76
     0
 77
     0
 78
     0
  0
ENDTAB
  0
TABLE
  2
LTYPE
 70
     3
  0
LTYPE
  2
CONTINUOUS
 70
     0
  3
Solid Line
 72
    65
 73
     0
 40
0.0
  0
LTYPE
  2
CENTER
 70
     0
  3
____ _ ____ _ ____ _ ____ _ ____ _ ____ _ ____
 72
    65
 73
     4
 40
2.0
 49
1.25
 49
-0.25
 49
0.25
 49
-0.25
  0
LTYPE
  2
PHANTOM2
 70
     0
  3
___ _ _ ___ _ _ ___ _ _ ___ _ _
 72
    65
 73
     6
 40
1.25
 49
0.625
 49
-0.125
 49
0.125
 49
-0.125
 49
0.125
 49
-0.125
  0
ENDTAB
  0
TABLE
  2
LAYER
 70
     3
  0
LAYER
  2
0
 70
     0
 62
     7
  6
CONTINUOUS
  0
LAYER
  2
1
 70
     0
 62
     1
  6
CENTER
  0
LAYER
  2
3
 70
     0
 62
     3
  6
CONTINUOUS
  0
ENDTAB
  0
TABLE
  2
STYLE
 70
     2
  0
STYLE
  2
STANDARD
 70
     0
 40
0.0
 41
1.0
 50
0.0
 71
     0
 42
4.0
  3
TXT
  4
BIGFONT
  0
STYLE
  2
STANDARD1
 70
     0
 40
0.0
 41
1.0
 50
0.0
 71
     0
 42
3.0
  3
txt
  4

  0
ENDTAB
  0
TABLE
  2
VIEW
 70
     1
  0
VIEW
  2
ALL
 70
     0
 40
179.66152299999999
 10
141.903918
 20
89.830760999999995
 41
0.0
 11
0.0
 21
0.0
 31
1.0
 12
0.0
 22
0.0
 32
0.0
 42
0.0
 43
0.0
 44
0.0
 50
0.0
 71
     0
  0
ENDTAB
  0
TABLE
  2
UCS
 70
     0
  0
ENDTAB
  0
TABLE
  2
APPID
 70
     4
  0
APPID
  2
ACAD
 70
     0
  0
APPID
  2
DCO15
 70
     0
  0
APPID
  2
ACAD_MLEADERVER
 70
     0
  0
APPID
  2
ACAD_NAV_VCDISPLAY
 70
     0
  0
ENDTAB
  0
TABLE
  2
DIMSTYLE
 70
     1
  0
DIMSTYLE
  2
STANDARD
 70
     0
  3

  4

  5

  6

  7

 40
1.0
 41
0.18
 42
0.0625
 43
0.38
 44
0.18
 45
0.0
 46
0.0
 47
0.0
 48
0.0
140
0.18
141
0.09
142
0.0
143
25.399999999999999
144
1.0
145
0.0
146
1.0
147
0.09
 71
     0
 72
     0
 73
     1
 74
     1
 75
     0
 76
     0
 77
     0
 78
     0
170
     0
171
     2
172
     0
173
     0
174
     0
175
     0
176
     0
177
     0
178
     0
  0
ENDTAB
  0
ENDSEC
  0
SECTION
  2
BLOCKS
  0
BLOCK
  8
0
  2
$MODEL_SPACE
 70
     0
 10
0.0
 20
0.0
 30
0.0
  3
$MODEL_SPACE
  1

  0
ENDBLK
  5
1BD
  8
0
  0
BLOCK
 67
     1
  8
0
  2
$PAPER_SPACE
 70
     0
 10
0.0
 20
0.0
 30
0.0
  3
$PAPER_SPACE
  1

  0
ENDBLK
  5
1BB
 67
     1
  8
0
  0
ENDSEC
  0
SECTION
  2
ENTITIES
  0
LINE
  5
1374
  8
0
 10
275.34058004447292
 20
308.40233473623169
 30
0.0
 11
275.34058004447292
 21
283.58539221634157
 31
0.0
  0
LINE
  5
1375
  8
0
 10
306.34058004447292
 20
283.58539221634157
 30
0.0
 11
306.34058004447292
 21
303.08539221634157
 31
0.0
  0
LINE
  5
1376
  8
0
 10
389.17227413584749
 20
329.46539221634163
 30
0.0
 11
377.41424125723381
 21
329.46539221634163
 31
0.0
  0
LINE
  5
1377
  8
0
 10
306.34058004447292
 20
283.58539221634157
 30
0.0
 11
275.34058004447292
 21
283.58539221634157
 31
0.0
  0
LINE
  5
1378
  8
1
 10
290.84058004447292
 20
330.58539221634157
 30
0.0
 11
290.84058004447292
 21
171.58539221634049
 31
0.0
  0
LINE
  5
137A
  8
0
 10
302.35058004447279
 20
271.58539221634157
 30
0.0
 11
302.35058004447279
 21
283.58539221634157
 31
0.0
  0
LINE
  5
137B
  8
0
 10
279.35058004447279
 20
283.58539221634157
 30
0.0
 11
279.35058004447279
 21
271.58539221634157
 31
0.0
  0
LINE
  5
137D
  8
0
 10
279.35058004447279
 20
271.58539221634157
 30
0.0
 11
302.35058004447279
 21
271.58539221634157
 31
0.0
  0
ARC
  5
138B
  8
0
 10
436.35937385466451
 20
-53.418630244708758
 30
0.0
 40
400.23809523809518
 50
96.056605662905923
 51
113.0583295739723
  0
LINE
  5
138C
  8
0
 10
394.12987013223932
 20
344.58539221634157
 30
0.0
 11
395.85058004447279
 21
344.58539221634157
 31
0.0
  0
LINE
  5
138D
  8
0
 10
400.85058004447279
 20
339.58539221634157
 30
0.0
 11
400.85058004447279
 21
339.46957298857438
 31
0.0
  0
ARC
  5
138E
  8
0
 10
395.85058004447279
 20
339.58539221634157
 30
0.0
 40
5.0
 50
0.0
 51
90.0
  0
ARC
  5
138F
  8
0
 10
282.3405800444728
 20
308.40233473623169
 30
0.0
 40
7.0
 50
113.0583295739723
 51
180.0
  0
ARC
  5
1390
  8
0
 10
478.87748738313439
 20
-35.753839095950532
 30
0.0
 40
380.2380952380953
 50
106.8398715328909
 51
116.985190501685
  0
ARC
  5
1391
  8
0
 10
377.41424125723381
 20
299.46539221634163
 30
0.0
 40
30.0
 50
90.0
 51
106.8398715328925
  0
ARC
  5
1392
  8
0
 10
389.01754634408633
 20
341.4643946461461
 30
0.0
 40
12.0
 50
269.26120874099649
 51
350.43100633373399
  0
LINE
  5
1393
  8
0
 10
275.34058004447292
 20
434.46227418806171
 30
0.0
 11
275.34058004447292
 21
442.32100182044599
 31
0.0
  0
CIRCLE
  5
13A2
  8
0
 10
292.157163435055
 20
438.39163800425382
 30
0.0
 40
9.0840310268199538
  0
ARC
  5
13A4
  8
0
 10
290.85058004447291
 20
438.39163800425382
 30
0.0
 40
16.0
 50
194.2164221332842
 51
301.31463182248172
  0
ARC
  5
13A5
  8
0
 10
393.35058004447291
 20
438.39163800425382
 30
0.0
 40
7.5
 50
270.0
 51
90.0
  0
ARC
  5
13A6
  8
0
 10
324.68413153116609
 20
517.24401494012318
 30
0.0
 40
70.0
 50
248.62076358023009
 51
277.71778895748702
  0
LINE
  5
13A7
  8
0
 10
335.7862759007038
 20
447.96225768603711
 30
0.0
 11
393.61955700151429
 21
445.886813212118
 31
0.0
  0
ARC
  5
13A8
  8
0
 10
335.42763995798191
 20
437.96869074221843
 30
0.0
 40
10.0
 50
87.944726668168812
 51
97.717788957488679
  0
ARC
  5
13A9
  8
0
 10
324.68413153116609
 20
359.53926106838452
 30
0.0
 40
70.0
 50
82.282211042512927
 51
111.3792364197699
  0
LINE
  5
13AA
  8
0
 10
335.7862759007038
 20
428.82101832247048
 30
0.0
 11
393.61955700151429
 21
430.8964627963897
 31
0.0
  0
ARC
  5
13AB
  8
0
 10
335.42763995798191
 20
438.81458526628933
 30
0.0
 40
10.0
 50
262.28221104251298
 51
272.05527333183119
  0
ARC
  5
13AC
  8
0
 10
290.85058004447291
 20
438.39163800425382
 30
0.0
 40
16.0
 50
58.685368177518342
 51
165.7835778667158
  0
ARC
  5
13AD
  8
0
 10
324.68413153116609
 20
169.39694196089201
 30
0.0
 40
70.0
 50
248.62076358023009
 51
277.71778895748702
  0
ARC
  5
13AE
  8
0
 10
324.68413153116609
 20
11.6921880891532
 30
0.0
 40
70.0
 50
82.282211042512927
 51
111.3792364197699
  0
LINE
  5
13B0
  8
0
 10
275.34058004447292
 20
86.615201208830456
 30
0.0
 11
275.34058004447292
 21
94.473928841214786
 31
0.0
  0
ARC
  5
13B1
  8
0
 10
290.85058004447291
 20
90.544565025022621
 30
0.0
 40
16.0
 50
194.2164221332842
 51
301.31463182248172
  0
ARC
  5
13B2
  8
0
 10
290.85058004447291
 20
90.544565025022621
 30
0.0
 40
16.0
 50
58.685368177518342
 51
165.7835778667158
  0
ARC
  5
13B4
  8
0
 10
393.35058004447291
 20
90.544565025022621
 30
0.0
 40
7.5
 50
270.0
 51
90.0
  0
ARC
  5
13B5
  8
0
 10
335.42763995798191
 20
90.121617762987114
 30
0.0
 40
10.0
 50
87.944726668168812
 51
97.717788957488679
  0
LINE
  5
13B6
  8
0
 10
335.7862759007038
 20
100.11518470680591
 30
0.0
 11
393.61955700151429
 21
98.039740232886743
 31
0.0
  0
LINE
  5
13B7
  8
0
 10
335.7862759007038
 20
80.973945343239336
 30
0.0
 11
393.61955700151429
 21
83.049389817158485
 31
0.0
  0
ARC
  5
13B8
  8
0
 10
335.42763995798191
 20
90.967512287058113
 30
0.0
 40
10.0
 50
262.28221104251298
 51
272.05527333183119
  0
CIRCLE
  5
13B9
  8
0
 10
290.85058004447291
 20
90.544565025022621
 30
0.0
 40
11.5
  0
CIRCLE
  5
13BA
  8
0
 10
290.85058004447291
 20
90.544565025022621
 30
0.0
 40
15.48999999999999
  0
CIRCLE
  5
13BB
  8
0
 10
290.85058004447291
 20
90.544565025022621
 30
0.0
 40
7.0
  0
CIRCLE
  5
13BC
  8
3
 10
290.85058004447291
 20
90.544565025022621
 30
0.0
 40
8.0
  0
LINE
  5
13BF
  8
0
 10
178.9685604538812
 20
271.58539221634157
 30
0.0
 11
178.9685604538812
 21
283.58539221634157
 31
0.0
  0
LINE
  5
13C0
  8
0
 10
155.9685604538812
 20
283.58539221634157
 30
0.0
 11
155.9685604538812
 21
271.58539221634157
 31
0.0
  0
LINE
  5
13C2
  8
0
 10
155.9685604538812
 20
271.58539221634157
 30
0.0
 11
178.9685604538812
 21
271.58539221634157
 31
0.0
  0
LINE
  5
13C3
  8
1
 10
167.4685604538812
 20
354.58539221634157
 30
0.0
 11
167.4685604538812
 21
171.58539221634061
 31
0.0
  0
LINE
  5
13C4
  8
0
 10
174.55954053841279
 20
344.58539221634157
 30
0.0
 11
160.37758036934949
 21
344.58539221634157
 31
0.0
  0
LINE
  5
13C5
  8
0
 10
182.9685604538812
 20
283.58539221634157
 30
0.0
 11
151.9685604538812
 21
283.58539221634157
 31
0.0
  0
LINE
  5
13C6
  8
0
 10
183.46455467294399
 20
319.2473793371164
 30
0.0
 11
182.9685604538812
 21
283.58539221634157
 31
0.0
  0
LINE
  5
13C7
  8
0
 10
179.1091192493796
 20
314.84308090385082
 30
0.0
 11
155.8280016583827
 21
314.84308090385082
 31
0.0
  0
POLYLINE
  5
13C8
  8
0
 10
179.10911924937969
 20
314.84308090385076
 30
0.0
 66
     1
 70
     8
  0
VERTEX
  8
0
  5
1689
 10
179.109
 20
314.843
 30
0.000000
  70
    32
  0
VERTEX
  8
0
  5
168A
 10
179.500
 20
315.021
 30
0.000000
  70
    32
  0
VERTEX
  8
0
  5
168B
 10
179.876
 20
315.205
 30
0.000000
  70
    32
  0
VERTEX
  8
0
  5
168C
 10
180.235
 20
315.395
 30
0.000000
  70
    32
  0
VERTEX
  8
0
  5
168D
 10
180.577
 20
315.590
 30
0.000000
  70
    32
  0
VERTEX
  8
0
  5
168E
 10
180.902
 20
315.790
 30
0.000000
  70
    32
  0
VERTEX
  8
0
  5
168F
 10
181.209
 20
315.995
 30
0.000000
  70
    32
  0
VERTEX
  8
0
  5
1690
 10
181.498
 20
316.204
 30
0.000000
  70
    32
  0
VERTEX
  8
0
  5
1691
 10
181.768
 20
316.417
 30
0.000000
  70
    32
  0
VERTEX
  8
0
  5
1692
 10
182.020
 20
316.634
 30
0.000000
  70
    32
  0
VERTEX
  8
0
  5
1693
 10
182.252
 20
316.855
 30
0.000000
  70
    32
  0
VERTEX
  8
0
  5
1694
 10
182.465
 20
317.080
 30
0.000000
  70
    32
  0
VERTEX
  8
0
  5
1695
 10
182.657
 20
317.307
 30
0.000000
  70
    32
  0
VERTEX
  8
0
  5
1696
 10
182.830
 20
317.537
 30
0.000000
  70
    32
  0
VERTEX
  8
0
  5
1697
 10
182.983
 20
317.770
 30
0.000000
  70
    32
  0
VERTEX
  8
0
  5
1698
 10
183.115
 20
318.004
 30
0.000000
  70
    32
  0
VERTEX
  8
0
  5
1699
 10
183.226
 20
318.241
 30
0.000000
  70
    32
  0
VERTEX
  8
0
  5
169A
 10
183.316
 20
318.479
 30
0.000000
  70
    32
  0
VERTEX
  8
0
  5
169B
 10
183.386
 20
318.718
 30
0.000000
  70
    32
  0
VERTEX
  8
0
  5
169C
 10
183.434
 20
318.958
 30
0.000000
  70
    32
  0
VERTEX
  8
0
  5
169D
 10
183.462
 20
319.199
 30
0.000000
  70
    32
  0
VERTEX
  8
0
  5
169E
 10
183.468
 20
319.440
 30
0.000000
  70
    32
  0
VERTEX
  8
0
  5
169F
 10
183.453
 20
319.681
 30
0.000000
  70
    32
  0
VERTEX
  8
0
  5
16A0
 10
183.417
 20
319.921
 30
0.000000
  70
    32
  0
VERTEX
  8
0
  5
16A1
 10
183.360
 20
320.161
 30
0.000000
  70
    32
  0
VERTEX
  8
0
  5
16A2
 10
183.282
 20
320.400
 30
0.000000
  70
    32
  0
VERTEX
  8
0
  5
16A3
 10
183.183
 20
320.637
 30
0.000000
  70
    32
  0
VERTEX
  8
0
  5
16A4
 10
183.063
 20
320.873
 30
0.000000
  70
    32
  0
VERTEX
  8
0
  5
16A5
 10
182.923
 20
321.107
 30
0.000000
  70
    32
  0
VERTEX
  8
0
  5
16A6
 10
182.762
 20
321.339
 30
0.000000
  70
    32
  0
VERTEX
  8
0
  5
16A7
 10
182.581
 20
321.568
 30
0.000000
  70
    32
  0
VERTEX
  8
0
  5
16A8
 10
182.380
 20
321.794
 30
0.000000
  70
    32
  0
VERTEX
  8
0
  5
16A9
 10
182.159
 20
322.017
 30
0.000000
  70
    32
  0
VERTEX
  8
0
  5
16AA
 10
181.919
 20
322.236
 30
0.000000
  70
    32
  0
VERTEX
  8
0
  5
16AB
 10
181.660
 20
322.452
 30
0.000000
  70
    32
  0
VERTEX
  8
0
  5
16AC
 10
181.382
 20
322.664
 30
0.000000
  70
    32
  0
VERTEX
  8
0
  5
16AD
 10
181.086
 20
322.871
 30
0.000000
  70
    32
  0
VERTEX
  8
0
  5
16AE
 10
180.771
 20
323.074
 30
0.000000
  70
    32
  0
VERTEX
  8
0
  5
16AF
 10
180.439
 20
323.272
 30
0.000000
  70
    32
  0
VERTEX
  8
0
  5
16B0
 10
180.090
 20
323.464
 30
0.000000
  70
    32
  0
VERTEX
  8
0
  5
16B1
 10
179.724
 20
323.652
 30
0.000000
  70
    32
  0
VERTEX
  8
0
  5
16B2
 10
179.342
 20
323.833
 30
0.000000
  70
    32
  0
VERTEX
  8
0
  5
16B3
 10
178.945
 20
324.009
 30
0.000000
  70
    32
  0
VERTEX
  8
0
  5
16B4
 10
178.532
 20
324.179
 30
0.000000
  70
    32
  0
VERTEX
  8
0
  5
16B5
 10
178.104
 20
324.342
 30
0.000000
  70
    32
  0
VERTEX
  8
0
  5
16B6
 10
177.663
 20
324.499
 30
0.000000
  70
    32
  0
VERTEX
  8
0
  5
16B7
 10
177.208
 20
324.650
 30
0.000000
  70
    32
  0
VERTEX
  8
0
  5
16B8
 10
176.740
 20
324.793
 30
0.000000
  70
    32
  0
VERTEX
  8
0
  5
16B9
 10
176.260
 20
324.929
 30
0.000000
  70
    32
  0
VERTEX
  8
0
  5
16BA
 10
175.768
 20
325.057
 30
0.000000
  70
    32
  0
VERTEX
  8
0
  5
16BB
 10
175.265
 20
325.179
 30
0.000000
  70
    32
  0
VERTEX
  8
0
  5
16BC
 10
174.752
 20
325.292
 30
0.000000
  70
    32
  0
VERTEX
  8
0
  5
16BD
 10
174.230
 20
325.398
 30
0.000000
  70
    32
  0
VERTEX
  8
0
  5
16BE
 10
173.698
 20
325.496
 30
0.000000
  70
    32
  0
VERTEX
  8
0
  5
16BF
 10
173.158
 20
325.586
 30
0.000000
  70
    32
  0
VERTEX
  8
0
  5
16C0
 10
172.611
 20
325.667
 30
0.000000
  70
    32
  0
VERTEX
  8
0
  5
16C1
 10
172.057
 20
325.741
 30
0.000000
  70
    32
  0
VERTEX
  8
0
  5
16C2
 10
171.497
 20
325.805
 30
0.000000
  70
    32
  0
VERTEX
  8
0
  5
16C3
 10
170.931
 20
325.862
 30
0.000000
  70
    32
  0
VERTEX
  8
0
  5
16C4
 10
170.361
 20
325.910
 30
0.000000
  70
    32
  0
VERTEX
  8
0
  5
16C5
 10
169.787
 20
325.949
 30
0.000000
  70
    32
  0
VERTEX
  8
0
  5
16C6
 10
169.210
 20
325.980
 30
0.000000
  70
    32
  0
VERTEX
  8
0
  5
16C7
 10
168.631
 20
326.001
 30
0.000000
  70
    32
  0
VERTEX
  8
0
  5
16C8
 10
168.050
 20
326.015
 30
0.000000
  70
    32
  0
VERTEX
  8
0
  5
16C9
 10
167.469
 20
326.019
 30
0.000000
  70
    32
  0
VERTEX
  8
0
  5
16CA
 10
166.887
 20
326.015
 30
0.000000
  70
    32
  0
VERTEX
  8
0
  5
16CB
 10
166.306
 20
326.001
 30
0.000000
  70
    32
  0
VERTEX
  8
0
  5
16CC
 10
165.727
 20
325.980
 30
0.000000
  70
    32
  0
VERTEX
  8
0
  5
16CD
 10
165.150
 20
325.949
 30
0.000000
  70
    32
  0
VERTEX
  8
0
  5
16CE
 10
164.576
 20
325.910
 30
0.000000
  70
    32
  0
VERTEX
  8
0
  5
16CF
 10
164.006
 20
325.862
 30
0.000000
  70
    32
  0
VERTEX
  8
0
  5
16D0
 10
163.440
 20
325.805
 30
0.000000
  70
    32
  0
VERTEX
  8
0
  5
16D1
 10
162.880
 20
325.741
 30
0.000000
  70
    32
  0
VERTEX
  8
0
  5
16D2
 10
162.326
 20
325.667
 30
0.000000
  70
    32
  0
VERTEX
  8
0
  5
16D3
 10
161.779
 20
325.586
 30
0.000000
  70
    32
  0
VERTEX
  8
0
  5
16D4
 10
161.239
 20
325.496
 30
0.000000
  70
    32
  0
VERTEX
  8
0
  5
16D5
 10
160.707
 20
325.398
 30
0.000000
  70
    32
  0
VERTEX
  8
0
  5
16D6
 10
160.185
 20
325.292
 30
0.000000
  70
    32
  0
VERTEX
  8
0
  5
16D7
 10
159.672
 20
325.179
 30
0.000000
  70
    32
  0
VERTEX
  8
0
  5
16D8
 10
159.169
 20
325.057
 30
0.000000
  70
    32
  0
VERTEX
  8
0
  5
16D9
 10
158.677
 20
324.929
 30
0.000000
  70
    32
  0
VERTEX
  8
0
  5
16DA
 10
158.197
 20
324.793
 30
0.000000
  70
    32
  0
VERTEX
  8
0
  5
16DB
 10
157.729
 20
324.650
 30
0.000000
  70
    32
  0
VERTEX
  8
0
  5
16DC
 10
157.274
 20
324.499
 30
0.000000
  70
    32
  0
VERTEX
  8
0
  5
16DD
 10
156.833
 20
324.342
 30
0.000000
  70
    32
  0
VERTEX
  8
0
  5
16DE
 10
156.405
 20
324.179
 30
0.000000
  70
    32
  0
VERTEX
  8
0
  5
16DF
 10
155.992
 20
324.009
 30
0.000000
  70
    32
  0
VERTEX
  8
0
  5
16E0
 10
155.595
 20
323.833
 30
0.000000
  70
    32
  0
VERTEX
  8
0
  5
16E1
 10
155.213
 20
323.652
 30
0.000000
  70
    32
  0
VERTEX
  8
0
  5
16E2
 10
154.847
 20
323.464
 30
0.000000
  70
    32
  0
VERTEX
  8
0
  5
16E3
 10
154.498
 20
323.272
 30
0.000000
  70
    32
  0
VERTEX
  8
0
  5
16E4
 10
154.166
 20
323.074
 30
0.000000
  70
    32
  0
VERTEX
  8
0
  5
16E5
 10
153.852
 20
322.871
 30
0.000000
  70
    32
  0
VERTEX
  8
0
  5
16E6
 10
153.555
 20
322.664
 30
0.000000
  70
    32
  0
VERTEX
  8
0
  5
16E7
 10
153.277
 20
322.452
 30
0.000000
  70
    32
  0
VERTEX
  8
0
  5
16E8
 10
153.018
 20
322.236
 30
0.000000
  70
    32
  0
VERTEX
  8
0
  5
16E9
 10
152.778
 20
322.017
 30
0.000000
  70
    32
  0
VERTEX
  8
0
  5
16EA
 10
152.557
 20
321.794
 30
0.000000
  70
    32
  0
VERTEX
  8
0
  5
16EB
 10
152.356
 20
321.568
 30
0.000000
  70
    32
  0
VERTEX
  8
0
  5
16EC
 10
152.175
 20
321.339
 30
0.000000
  70
    32
  0
VERTEX
  8
0
  5
16ED
 10
152.014
 20
321.107
 30
0.000000
  70
    32
  0
VERTEX
  8
0
  5
16EE
 10
151.874
 20
320.873
 30
0.000000
  70
    32
  0
VERTEX
  8
0
  5
16EF
 10
151.754
 20
320.637
 30
0.000000
  70
    32
  0
VERTEX
  8
0
  5
16F0
 10
151.655
 20
320.400
 30
0.000000
  70
    32
  0
VERTEX
  8
0
  5
16F1
 10
151.577
 20
320.161
 30
0.000000
  70
    32
  0
VERTEX
  8
0
  5
16F2
 10
151.520
 20
319.921
 30
0.000000
  70
    32
  0
VERTEX
  8
0
  5
16F3
 10
151.484
 20
319.681
 30
0.000000
  70
    32
  0
VERTEX
  8
0
  5
16F4
 10
151.469
 20
319.440
 30
0.000000
  70
    32
  0
VERTEX
  8
0
  5
16F5
 10
151.475
 20
319.199
 30
0.000000
  70
    32
  0
VERTEX
  8
0
  5
16F6
 10
151.503
 20
318.958
 30
0.000000
  70
    32
  0
VERTEX
  8
0
  5
16F7
 10
151.551
 20
318.718
 30
0.000000
  70
    32
  0
VERTEX
  8
0
  5
16F8
 10
151.621
 20
318.479
 30
0.000000
  70
    32
  0
VERTEX
  8
0
  5
16F9
 10
151.711
 20
318.241
 30
0.000000
  70
    32
  0
VERTEX
  8
0
  5
16FA
 10
151.822
 20
318.004
 30
0.000000
  70
    32
  0
VERTEX
  8
0
  5
16FB
 10
151.954
 20
317.770
 30
0.000000
  70
    32
  0
VERTEX
  8
0
  5
16FC
 10
152.107
 20
317.537
 30
0.000000
  70
    32
  0
VERTEX
  8
0
  5
16FD
 10
152.280
 20
317.307
 30
0.000000
  70
    32
  0
VERTEX
  8
0
  5
16FE
 10
152.473
 20
317.080
 30
0.000000
  70
    32
  0
VERTEX
  8
0
  5
16FF
 10
152.685
 20
316.855
 30
0.000000
  70
    32
  0
VERTEX
  8
0
  5
1700
 10
152.918
 20
316.634
 30
0.000000
  70
    32
  0
VERTEX
  8
0
  5
1701
 10
153.169
 20
316.417
 30
0.000000
  70
    32
  0
VERTEX
  8
0
  5
1702
 10
153.439
 20
316.204
 30
0.000000
  70
    32
  0
VERTEX
  8
0
  5
1703
 10
153.728
 20
315.995
 30
0.000000
  70
    32
  0
VERTEX
  8
0
  5
1704
 10
154.035
 20
315.790
 30
0.000000
  70
    32
  0
VERTEX
  8
0
  5
1705
 10
154.360
 20
315.590
 30
0.000000
  70
    32
  0
VERTEX
  8
0
  5
1706
 10
154.702
 20
315.395
 30
0.000000
  70
    32
  0
VERTEX
  8
0
  5
1707
 10
155.061
 20
315.205
 30
0.000000
  70
    32
  0
VERTEX
  8
0
  5
1708
 10
155.437
 20
315.021
 30
0.000000
  70
    32
  0
VERTEX
  8
0
  5
1709
 10
155.828
 20
314.843
 30
0.000000
  70
    32
  0
SEQEND
  8
0
  5
170A
  0
POLYLINE
  5
13C9
  8
0
 10
169.09466716010431
 20
316.56221460031298
 30
0.0
 66
     1
 70
     8
  0
VERTEX
  8
0
  5
170B
 10
169.095
 20
316.562
 30
0.000000
  70
    32
  0
VERTEX
  8
0
  5
170C
 10
169.504
 20
316.594
 30
0.000000
  70
    32
  0
VERTEX
  8
0
  5
170D
 10
169.909
 20
316.634
 30
0.000000
  70
    32
  0
VERTEX
  8
0
  5
170E
 10
170.309
 20
316.680
 30
0.000000
  70
    32
  0
VERTEX
  8
0
  5
170F
 10
170.703
 20
316.733
 30
0.000000
  70
    32
  0
VERTEX
  8
0
  5
1710
 10
171.090
 20
316.793
 30
0.000000
  70
    32
  0
VERTEX
  8
0
  5
1711
 10
171.469
 20
316.860
 30
0.000000
  70
    32
  0
VERTEX
  8
0
  5
1712
 10
171.840
 20
316.934
 30
0.000000
  70
    32
  0
VERTEX
  8
0
  5
1713
 10
172.201
 20
317.013
 30
0.000000
  70
    32
  0
VERTEX
  8
0
  5
1714
 10
172.552
 20
317.099
 30
0.000000
  70
    32
  0
VERTEX
  8
0
  5
1715
 10
172.892
 20
317.192
 30
0.000000
  70
    32
  0
VERTEX
  8
0
  5
1716
 10
173.221
 20
317.290
 30
0.000000
  70
    32
  0
VERTEX
  8
0
  5
1717
 10
173.537
 20
317.393
 30
0.000000
  70
    32
  0
VERTEX
  8
0
  5
1718
 10
173.840
 20
317.502
 30
0.000000
  70
    32
  0
VERTEX
  8
0
  5
1719
 10
174.130
 20
317.617
 30
0.000000
  70
    32
  0
VERTEX
  8
0
  5
171A
 10
174.406
 20
317.736
 30
0.000000
  70
    32
  0
VERTEX
  8
0
  5
171B
 10
174.666
 20
317.860
 30
0.000000
  70
    32
  0
VERTEX
  8
0
  5
171C
 10
174.911
 20
317.988
 30
0.000000
  70
    32
  0
VERTEX
  8
0
  5
171D
 10
175.141
 20
318.121
 30
0.000000
  70
    32
  0
VERTEX
  8
0
  5
171E
 10
175.353
 20
318.257
 30
0.000000
  70
    32
  0
VERTEX
  8
0
  5
171F
 10
175.549
 20
318.397
 30
0.000000
  70
    32
  0
VERTEX
  8
0
  5
1720
 10
175.728
 20
318.540
 30
0.000000
  70
    32
  0
VERTEX
  8
0
  5
1721
 10
175.889
 20
318.687
 30
0.000000
  70
    32
  0
VERTEX
  8
0
  5
1722
 10
176.032
 20
318.836
 30
0.000000
  70
    32
  0
VERTEX
  8
0
  5
1723
 10
176.157
 20
318.987
 30
0.000000
  70
    32
  0
VERTEX
  8
0
  5
1724
 10
176.263
 20
319.140
 30
0.000000
  70
    32
  0
VERTEX
  8
0
  5
1725
 10
176.350
 20
319.295
 30
0.000000
  70
    32
  0
VERTEX
  8
0
  5
1726
 10
176.418
 20
319.452
 30
0.000000
  70
    32
  0
VERTEX
  8
0
  5
1727
 10
176.468
 20
319.609
 30
0.000000
  70
    32
  0
VERTEX
  8
0
  5
1728
 10
176.497
 20
319.767
 30
0.000000
  70
    32
  0
VERTEX
  8
0
  5
1729
 10
176.508
 20
319.925
 30
0.000000
  70
    32
  0
VERTEX
  8
0
  5
172A
 10
176.499
 20
320.084
 30
0.000000
  70
    32
  0
VERTEX
  8
0
  5
172B
 10
176.471
 20
320.242
 30
0.000000
  70
    32
  0
VERTEX
  8
0
  5
172C
 10
176.424
 20
320.400
 30
0.000000
  70
    32
  0
VERTEX
  8
0
  5
172D
 10
176.357
 20
320.556
 30
0.000000
  70
    32
  0
VERTEX
  8
0
  5
172E
 10
176.272
 20
320.711
 30
0.000000
  70
    32
  0
VERTEX
  8
0
  5
172F
 10
176.167
 20
320.865
 30
0.000000
  70
    32
  0
VERTEX
  8
0
  5
1730
 10
176.044
 20
321.016
 30
0.000000
  70
    32
  0
VERTEX
  8
0
  5
1731
 10
175.903
 20
321.165
 30
0.000000
  70
    32
  0
VERTEX
  8
0
  5
1732
 10
175.743
 20
321.312
 30
0.000000
  70
    32
  0
VERTEX
  8
0
  5
1733
 10
175.566
 20
321.455
 30
0.000000
  70
    32
  0
VERTEX
  8
0
  5
1734
 10
175.372
 20
321.596
 30
0.000000
  70
    32
  0
VERTEX
  8
0
  5
1735
 10
175.160
 20
321.732
 30
0.000000
  70
    32
  0
VERTEX
  8
0
  5
1736
 10
174.933
 20
321.865
 30
0.000000
  70
    32
  0
VERTEX
  8
0
  5
1737
 10
174.689
 20
321.994
 30
0.000000
  70
    32
  0
VERTEX
  8
0
  5
1738
 10
174.430
 20
322.118
 30
0.000000
  70
    32
  0
VERTEX
  8
0
  5
1739
 10
174.156
 20
322.238
 30
0.000000
  70
    32
  0
VERTEX
  8
0
  5
173A
 10
173.867
 20
322.353
 30
0.000000
  70
    32
  0
VERTEX
  8
0
  5
173B
 10
173.565
 20
322.462
 30
0.000000
  70
    32
  0
VERTEX
  8
0
  5
173C
 10
173.250
 20
322.567
 30
0.000000
  70
    32
  0
VERTEX
  8
0
  5
173D
 10
172.922
 20
322.665
 30
0.000000
  70
    32
  0
VERTEX
  8
0
  5
173E
 10
172.583
 20
322.758
 30
0.000000
  70
    32
  0
VERTEX
  8
0
  5
173F
 10
172.233
 20
322.844
 30
0.000000
  70
    32
  0
VERTEX
  8
0
  5
1740
 10
171.873
 20
322.925
 30
0.000000
  70
    32
  0
VERTEX
  8
0
  5
1741
 10
171.503
 20
322.999
 30
0.000000
  70
    32
  0
VERTEX
  8
0
  5
1742
 10
171.124
 20
323.066
 30
0.000000
  70
    32
  0
VERTEX
  8
0
  5
1743
 10
170.738
 20
323.127
 30
0.000000
  70
    32
  0
VERTEX
  8
0
  5
1744
 10
170.345
 20
323.181
 30
0.000000
  70
    32
  0
VERTEX
  8
0
  5
1745
 10
169.946
 20
323.228
 30
0.000000
  70
    32
  0
VERTEX
  8
0
  5
1746
 10
169.541
 20
323.268
 30
0.000000
  70
    32
  0
VERTEX
  8
0
  5
1747
 10
169.132
 20
323.300
 30
0.000000
  70
    32
  0
VERTEX
  8
0
  5
1748
 10
168.719
 20
323.326
 30
0.000000
  70
    32
  0
VERTEX
  8
0
  5
1749
 10
168.304
 20
323.344
 30
0.000000
  70
    32
  0
VERTEX
  8
0
  5
174A
 10
167.887
 20
323.355
 30
0.000000
  70
    32
  0
VERTEX
  8
0
  5
174B
 10
167.469
 20
323.359
 30
0.000000
  70
    32
  0
VERTEX
  8
0
  5
174C
 10
167.051
 20
323.355
 30
0.000000
  70
    32
  0
VERTEX
  8
0
  5
174D
 10
166.633
 20
323.344
 30
0.000000
  70
    32
  0
VERTEX
  8
0
  5
174E
 10
166.218
 20
323.326
 30
0.000000
  70
    32
  0
VERTEX
  8
0
  5
174F
 10
165.805
 20
323.300
 30
0.000000
  70
    32
  0
VERTEX
  8
0
  5
1750
 10
165.396
 20
323.268
 30
0.000000
  70
    32
  0
VERTEX
  8
0
  5
1751
 10
164.992
 20
323.228
 30
0.000000
  70
    32
  0
VERTEX
  8
0
  5
1752
 10
164.592
 20
323.181
 30
0.000000
  70
    32
  0
VERTEX
  8
0
  5
1753
 10
164.199
 20
323.127
 30
0.000000
  70
    32
  0
VERTEX
  8
0
  5
1754
 10
163.813
 20
323.066
 30
0.000000
  70
    32
  0
VERTEX
  8
0
  5
1755
 10
163.434
 20
322.999
 30
0.000000
  70
    32
  0
VERTEX
  8
0
  5
1756
 10
163.065
 20
322.925
 30
0.000000
  70
    32
  0
VERTEX
  8
0
  5
1757
 10
162.704
 20
322.844
 30
0.000000
  70
    32
  0
VERTEX
  8
0
  5
1758
 10
162.354
 20
322.758
 30
0.000000
  70
    32
  0
VERTEX
  8
0
  5
1759
 10
162.015
 20
322.665
 30
0.000000
  70
    32
  0
VERTEX
  8
0
  5
175A
 10
161.687
 20
322.567
 30
0.000000
  70
    32
  0
VERTEX
  8
0
  5
175B
 10
161.372
 20
322.462
 30
0.000000
  70
    32
  0
VERTEX
  8
0
  5
175C
 10
161.070
 20
322.353
 30
0.000000
  70
    32
  0
VERTEX
  8
0
  5
175D
 10
160.782
 20
322.238
 30
0.000000
  70
    32
  0
VERTEX
  8
0
  5
175E
 10
160.507
 20
322.118
 30
0.000000
  70
    32
  0
VERTEX
  8
0
  5
175F
 10
160.248
 20
321.994
 30
0.000000
  70
    32
  0
VERTEX
  8
0
  5
1760
 10
160.004
 20
321.865
 30
0.000000
  70
    32
  0
VERTEX
  8
0
  5
1761
 10
159.777
 20
321.732
 30
0.000000
  70
    32
  0
VERTEX
  8
0
  5
1762
 10
159.565
 20
321.596
 30
0.000000
  70
    32
  0
VERTEX
  8
0
  5
1763
 10
159.371
 20
321.455
 30
0.000000
  70
    32
  0
VERTEX
  8
0
  5
1764
 10
159.194
 20
321.312
 30
0.000000
  70
    32
  0
VERTEX
  8
0
  5
1765
 10
159.034
 20
321.165
 30
0.000000
  70
    32
  0
VERTEX
  8
0
  5
1766
 10
158.893
 20
321.016
 30
0.000000
  70
    32
  0
VERTEX
  8
0
  5
1767
 10
158.770
 20
320.865
 30
0.000000
  70
    32
  0
VERTEX
  8
0
  5
1768
 10
158.666
 20
320.711
 30
0.000000
  70
    32
  0
VERTEX
  8
0
  5
1769
 10
158.580
 20
320.556
 30
0.000000
  70
    32
  0
VERTEX
  8
0
  5
176A
 10
158.513
 20
320.400
 30
0.000000
  70
    32
  0
VERTEX
  8
0
  5
176B
 10
158.466
 20
320.242
 30
0.000000
  70
    32
  0
VERTEX
  8
0
  5
176C
 10
158.438
 20
320.084
 30
0.000000
  70
    32
  0
VERTEX
  8
0
  5
176D
 10
158.429
 20
319.925
 30
0.000000
  70
    32
  0
VERTEX
  8
0
  5
176E
 10
158.440
 20
319.767
 30
0.000000
  70
    32
  0
VERTEX
  8
0
  5
176F
 10
158.470
 20
319.609
 30
0.000000
  70
    32
  0
VERTEX
  8
0
  5
1770
 10
158.519
 20
319.452
 30
0.000000
  70
    32
  0
VERTEX
  8
0
  5
1771
 10
158.587
 20
319.295
 30
0.000000
  70
    32
  0
VERTEX
  8
0
  5
1772
 10
158.674
 20
319.140
 30
0.000000
  70
    32
  0
VERTEX
  8
0
  5
1773
 10
158.780
 20
318.987
 30
0.000000
  70
    32
  0
VERTEX
  8
0
  5
1774
 10
158.905
 20
318.836
 30
0.000000
  70
    32
  0
VERTEX
  8
0
  5
1775
 10
159.048
 20
318.687
 30
0.000000
  70
    32
  0
VERTEX
  8
0
  5
1776
 10
159.209
 20
318.540
 30
0.000000
  70
    32
  0
VERTEX
  8
0
  5
1777
 10
159.388
 20
318.397
 30
0.000000
  70
    32
  0
VERTEX
  8
0
  5
1778
 10
159.584
 20
318.257
 30
0.000000
  70
    32
  0
VERTEX
  8
0
  5
1779
 10
159.797
 20
318.121
 30
0.000000
  70
    32
  0
VERTEX
  8
0
  5
177A
 10
160.026
 20
317.988
 30
0.000000
  70
    32
  0
VERTEX
  8
0
  5
177B
 10
160.271
 20
317.860
 30
0.000000
  70
    32
  0
VERTEX
  8
0
  5
177C
 10
160.532
 20
317.736
 30
0.000000
  70
    32
  0
VERTEX
  8
0
  5
177D
 10
160.807
 20
317.617
 30
0.000000
  70
    32
  0
VERTEX
  8
0
  5
177E
 10
161.097
 20
317.502
 30
0.000000
  70
    32
  0
VERTEX
  8
0
  5
177F
 10
161.400
 20
317.393
 30
0.000000
  70
    32
  0
VERTEX
  8
0
  5
1780
 10
161.716
 20
317.290
 30
0.000000
  70
    32
  0
VERTEX
  8
0
  5
1781
 10
162.045
 20
317.192
 30
0.000000
  70
    32
  0
VERTEX
  8
0
  5
1782
 10
162.385
 20
317.099
 30
0.000000
  70
    32
  0
VERTEX
  8
0
  5
1783
 10
162.736
 20
317.013
 30
0.000000
  70
    32
  0
VERTEX
  8
0
  5
1784
 10
163.098
 20
316.934
 30
0.000000
  70
    32
  0
VERTEX
  8
0
  5
1785
 10
163.468
 20
316.860
 30
0.000000
  70
    32
  0
VERTEX
  8
0
  5
1786
 10
163.847
 20
316.793
 30
0.000000
  70
    32
  0
VERTEX
  8
0
  5
1787
 10
164.234
 20
316.733
 30
0.000000
  70
    32
  0
VERTEX
  8
0
  5
1788
 10
164.628
 20
316.680
 30
0.000000
  70
    32
  0
VERTEX
  8
0
  5
1789
 10
165.028
 20
316.634
 30
0.000000
  70
    32
  0
VERTEX
  8
0
  5
178A
 10
165.433
 20
316.594
 30
0.000000
  70
    32
  0
VERTEX
  8
0
  5
178B
 10
165.842
 20
316.562
 30
0.000000
  70
    32
  0
SEQEND
  8
0
  5
178C
  0
LINE
  5
13CA
  8
0
 10
169.09466716010431
 20
316.56221460031293
 30
0.0
 11
165.84245374765811
 21
316.56221460031293
 31
0.0
  0
LINE
  5
13CB
  8
0
 10
177.02107176434021
 20
334.4343582854429
 30
0.0
 11
175.04962269811659
 21
344.18448548927262
 31
0.0
  0
ARC
  5
13CC
  8
0
 10
174.55954053841279
 20
344.08539221634157
 30
0.0
 40
0.5
 50
11.43093316767178
 51
90.0
  0
ARC
  5
13CD
  8
0
 10
183.3012036826934
 20
331.10816084045899
 30
0.0
 40
7.0
 50
154.5146337365355
 51
197.21129352201169
  0
ARC
  5
13CE
  8
0
 10
176.53098960463649
 20
334.33526501251202
 30
0.0
 40
0.5
 50
334.51463373653547
 51
11.43093316767178
  0
LINE
  5
13CF
  8
0
 10
177.03098960463649
 20
334.33526501251202
 30
0.0
 11
177.03098960463649
 21
328.04318888945937
 31
0.0
  0
ARC
  5
13D0
  8
0
 10
190.6487313733939
 20
334.33263315103301
 30
0.0
 40
15.0
 50
200.67396706917449
 51
228.2567813213013
  0
LINE
  5
13D1
  8
0
 10
157.90613130312579
 20
334.33526501251202
 30
0.0
 11
157.90613130312579
 21
328.04318888945937
 31
0.0
  0
ARC
  5
13D2
  8
0
 10
151.63591722506899
 20
331.10816084045899
 30
0.0
 40
7.0
 50
342.78870647798823
 51
25.485366263464481
  0
ARC
  5
13D3
  8
0
 10
144.28838953436841
 20
334.33263315103301
 30
0.0
 40
15.0
 50
311.74321867869872
 51
339.32603293082548
  0
LINE
  5
13D4
  8
0
 10
157.9160491434221
 20
334.4343582854429
 30
0.0
 11
159.8874982096458
 21
344.18448548927262
 31
0.0
  0
ARC
  5
13D5
  8
0
 10
158.40613130312579
 20
334.33526501251202
 30
0.0
 40
0.5
 50
168.56906683232819
 51
205.48536626346441
  0
ARC
  5
13D6
  8
0
 10
160.37758036934949
 20
344.08539221634157
 30
0.0
 40
0.5
 50
90.0
 51
168.56906683232819
  0
LINE
  5
13D7
  8
0
 10
501.27122840424153
 20
339.95686770165838
 30
0.0
 11
504.00487512886701
 21
339.95686770165838
 31
0.0
  0
LINE
  5
13D8
  8
0
 10
500.97723762316463
 20
339.45941435790741
 30
0.0
 11
504.338113528029
 21
339.45941435790741
 31
0.0
  0
LINE
  5
13D9
  8
0
 10
494.47465256704828
 20
329.12691636477518
 30
0.0
 11
510.8624008420561
 21
329.12691636477518
 31
0.0
  0
LINE
  5
13DA
  8
0
 10
495.17953165586289
 20
331.02243561757189
 30
0.0
 11
510.1575217532415
 21
331.02243561757189
 31
0.0
  0
LINE
  5
13DB
  8
0
 10
495.14163645378841
 20
330.26895275054579
 30
0.0
 11
510.19541695531598
 21
330.26895275054579
 31
0.0
  0
LINE
  5
13DC
  8
0
 10
510.76199414996609
 20
329.46539221634163
 30
0.0
 11
494.57505925913858
 21
329.46539221634163
 31
0.0
  0
POLYLINE
  5
13DD
  8
0
 66
     1
 10
0.0
 20
0.0
 30
0.0
  0
VERTEX
  5
164B
  8
0
 10
495.7695936812504
 20
344.57147952754173
 30
0.0
  0
VERTEX
  5
164C
  8
0
 10
495.79435259028128
 20
344.5758050345321
 30
0.0
  0
VERTEX
  5
164D
  8
0
 10
495.84507086603799
 20
344.58199639676991
 30
0.0
  0
VERTEX
  5
164E
  8
0
 10
495.89726863651589
 20
344.58502136497628
 30
0.0
  0
VERTEX
  5
164F
  8
0
 10
495.92387360250422
 20
344.58539221634157
 30
0.0
  0
SEQEND
  5
1650
  8
0
  0
LINE
  5
13DE
  8
0
 10
495.16852670455222
 20
344.31711349020009
 30
0.0
 11
495.16852670455222
 21
330.88630514295261
 31
0.0
  0
LINE
  5
13DF
  8
0
 10
510.16852670455228
 20
344.31711349020009
 30
0.0
 11
510.16852670455228
 21
330.80362052196199
 31
0.0
  0
LINE
  5
13E0
  8
0
 10
518.16852670455216
 20
283.58539221634157
 30
0.0
 11
487.16852670455222
 21
283.58539221634157
 31
0.0
  0
LINE
  5
13E1
  8
1
 10
502.66852670455228
 20
332.58539221634157
 30
0.0
 11
502.66852670455228
 21
282.58539221634157
 31
0.0
  0
LINE
  5
13E2
  8
0
 10
514.16852670455228
 20
271.58539221634157
 30
0.0
 11
514.16852670455228
 21
283.58539221634157
 31
0.0
  0
LINE
  5
13E3
  8
0
 10
491.16852670455222
 20
283.58539221634157
 30
0.0
 11
491.16852670455222
 21
271.58539221634157
 31
0.0
  0
LINE
  5
13E4
  8
0
 10
491.16852670455222
 20
271.58539221634157
 30
0.0
 11
514.16852670455228
 21
271.58539221634157
 31
0.0
  0
LINE
  5
13E5
  8
1
 10
502.66852670455211
 20
354.58539221634152
 30
0.0
 11
502.66852670455211
 21
171.58539221634061
 31
0.0
  0
LINE
  5
13E6
  8
0
 10
512.23095585530768
 20
334.33526501251202
 30
0.0
 11
512.23095585530768
 21
316.64267712441529
 31
0.0
  0
ARC
  5
13E7
  8
0
 10
525.84869762406504
 20
334.33263315103301
 30
0.0
 40
15.0
 50
204.7901669365643
 51
228.2567813213013
  0
LINE
  5
13E8
  8
0
 10
509.75950678908401
 20
344.58539221634157
 30
0.0
 11
495.5775466200206
 21
344.58539221634157
 31
0.0
  0
LINE
  5
13E9
  8
0
 10
512.22103801501135
 20
334.4343582854429
 30
0.0
 11
510.24958894878768
 21
344.18448548927262
 31
0.0
  0
ARC
  5
13EA
  8
0
 10
511.73095585530768
 20
334.33526501251202
 30
0.0
 40
0.5
 50
0.0
 51
11.43093316767178
  0
ARC
  5
13EB
  8
0
 10
509.75950678908401
 20
344.08539221634157
 30
0.0
 40
0.5
 50
11.43093316767178
 51
90.0
  0
ARC
  5
13EC
  8
0
 10
479.48835578503957
 20
334.33263315103301
 30
0.0
 40
15.0
 50
311.74321867869872
 51
335.20983306343572
  0
ARC
  5
13ED
  8
0
 10
495.5775466200206
 20
344.08539221634157
 30
0.0
 40
0.5
 50
90.0
 51
168.56906683232819
  0
ARC
  5
13EE
  8
0
 10
493.60609755379687
 20
334.33526501251202
 30
0.0
 40
0.5
 50
168.56906683232819
 51
180.0
  0
LINE
  5
13EF
  8
0
 10
493.11601539409321
 20
334.4343582854429
 30
0.0
 11
495.08746446031688
 21
344.18448548927262
 31
0.0
  0
POLYLINE
  5
13F0
  8
0
 10
518.66442598958554
 20
319.24055357985605
 30
0.0
 66
     1
 70
     8
  0
VERTEX
  8
0
  5
178D
 10
518.664
 20
319.241
 30
0.000000
  70
    32
  0
VERTEX
  8
0
  5
178E
 10
518.666
 20
319.273
 30
0.000000
  70
    32
  0
VERTEX
  8
0
  5
178F
 10
518.667
 20
319.305
 30
0.000000
  70
    32
  0
VERTEX
  8
0
  5
1790
 10
518.668
 20
319.337
 30
0.000000
  70
    32
  0
VERTEX
  8
0
  5
1791
 10
518.668
 20
319.370
 30
0.000000
  70
    32
  0
VERTEX
  8
0
  5
1792
 10
518.669
 20
319.402
 30
0.000000
  70
    32
  0
VERTEX
  8
0
  5
1793
 10
518.668
 20
319.434
 30
0.000000
  70
    32
  0
VERTEX
  8
0
  5
1794
 10
518.667
 20
319.467
 30
0.000000
  70
    32
  0
VERTEX
  8
0
  5
1795
 10
518.666
 20
319.499
 30
0.000000
  70
    32
  0
VERTEX
  8
0
  5
1796
 10
518.665
 20
319.531
 30
0.000000
  70
    32
  0
VERTEX
  8
0
  5
1797
 10
518.663
 20
319.564
 30
0.000000
  70
    32
  0
VERTEX
  8
0
  5
1798
 10
518.661
 20
319.596
 30
0.000000
  70
    32
  0
VERTEX
  8
0
  5
1799
 10
518.658
 20
319.628
 30
0.000000
  70
    32
  0
VERTEX
  8
0
  5
179A
 10
518.655
 20
319.661
 30
0.000000
  70
    32
  0
VERTEX
  8
0
  5
179B
 10
518.652
 20
319.693
 30
0.000000
  70
    32
  0
VERTEX
  8
0
  5
179C
 10
518.648
 20
319.725
 30
0.000000
  70
    32
  0
VERTEX
  8
0
  5
179D
 10
518.644
 20
319.757
 30
0.000000
  70
    32
  0
VERTEX
  8
0
  5
179E
 10
518.640
 20
319.790
 30
0.000000
  70
    32
  0
VERTEX
  8
0
  5
179F
 10
518.635
 20
319.822
 30
0.000000
  70
    32
  0
VERTEX
  8
0
  5
17A0
 10
518.629
 20
319.854
 30
0.000000
  70
    32
  0
VERTEX
  8
0
  5
17A1
 10
518.624
 20
319.886
 30
0.000000
  70
    32
  0
VERTEX
  8
0
  5
17A2
 10
518.618
 20
319.919
 30
0.000000
  70
    32
  0
VERTEX
  8
0
  5
17A3
 10
518.611
 20
319.951
 30
0.000000
  70
    32
  0
VERTEX
  8
0
  5
17A4
 10
518.605
 20
319.983
 30
0.000000
  70
    32
  0
VERTEX
  8
0
  5
17A5
 10
518.597
 20
320.015
 30
0.000000
  70
    32
  0
VERTEX
  8
0
  5
17A6
 10
518.590
 20
320.047
 30
0.000000
  70
    32
  0
VERTEX
  8
0
  5
17A7
 10
518.582
 20
320.079
 30
0.000000
  70
    32
  0
VERTEX
  8
0
  5
17A8
 10
518.574
 20
320.112
 30
0.000000
  70
    32
  0
VERTEX
  8
0
  5
17A9
 10
518.565
 20
320.144
 30
0.000000
  70
    32
  0
VERTEX
  8
0
  5
17AA
 10
518.556
 20
320.176
 30
0.000000
  70
    32
  0
VERTEX
  8
0
  5
17AB
 10
518.546
 20
320.208
 30
0.000000
  70
    32
  0
VERTEX
  8
0
  5
17AC
 10
518.537
 20
320.240
 30
0.000000
  70
    32
  0
VERTEX
  8
0
  5
17AD
 10
518.526
 20
320.272
 30
0.000000
  70
    32
  0
VERTEX
  8
0
  5
17AE
 10
518.516
 20
320.304
 30
0.000000
  70
    32
  0
VERTEX
  8
0
  5
17AF
 10
518.505
 20
320.336
 30
0.000000
  70
    32
  0
VERTEX
  8
0
  5
17B0
 10
518.494
 20
320.368
 30
0.000000
  70
    32
  0
VERTEX
  8
0
  5
17B1
 10
518.482
 20
320.400
 30
0.000000
  70
    32
  0
VERTEX
  8
0
  5
17B2
 10
518.470
 20
320.432
 30
0.000000
  70
    32
  0
VERTEX
  8
0
  5
17B3
 10
518.457
 20
320.464
 30
0.000000
  70
    32
  0
VERTEX
  8
0
  5
17B4
 10
518.445
 20
320.496
 30
0.000000
  70
    32
  0
VERTEX
  8
0
  5
17B5
 10
518.431
 20
320.527
 30
0.000000
  70
    32
  0
VERTEX
  8
0
  5
17B6
 10
518.418
 20
320.559
 30
0.000000
  70
    32
  0
VERTEX
  8
0
  5
17B7
 10
518.404
 20
320.591
 30
0.000000
  70
    32
  0
VERTEX
  8
0
  5
17B8
 10
518.390
 20
320.623
 30
0.000000
  70
    32
  0
VERTEX
  8
0
  5
17B9
 10
518.375
 20
320.654
 30
0.000000
  70
    32
  0
VERTEX
  8
0
  5
17BA
 10
518.360
 20
320.686
 30
0.000000
  70
    32
  0
VERTEX
  8
0
  5
17BB
 10
518.344
 20
320.718
 30
0.000000
  70
    32
  0
VERTEX
  8
0
  5
17BC
 10
518.329
 20
320.750
 30
0.000000
  70
    32
  0
VERTEX
  8
0
  5
17BD
 10
518.313
 20
320.781
 30
0.000000
  70
    32
  0
VERTEX
  8
0
  5
17BE
 10
518.296
 20
320.813
 30
0.000000
  70
    32
  0
VERTEX
  8
0
  5
17BF
 10
518.279
 20
320.844
 30
0.000000
  70
    32
  0
VERTEX
  8
0
  5
17C0
 10
518.262
 20
320.876
 30
0.000000
  70
    32
  0
VERTEX
  8
0
  5
17C1
 10
518.244
 20
320.907
 30
0.000000
  70
    32
  0
VERTEX
  8
0
  5
17C2
 10
518.226
 20
320.939
 30
0.000000
  70
    32
  0
VERTEX
  8
0
  5
17C3
 10
518.208
 20
320.970
 30
0.000000
  70
    32
  0
VERTEX
  8
0
  5
17C4
 10
518.189
 20
321.001
 30
0.000000
  70
    32
  0
VERTEX
  8
0
  5
17C5
 10
518.170
 20
321.033
 30
0.000000
  70
    32
  0
VERTEX
  8
0
  5
17C6
 10
518.150
 20
321.064
 30
0.000000
  70
    32
  0
VERTEX
  8
0
  5
17C7
 10
518.130
 20
321.095
 30
0.000000
  70
    32
  0
VERTEX
  8
0
  5
17C8
 10
518.110
 20
321.126
 30
0.000000
  70
    32
  0
VERTEX
  8
0
  5
17C9
 10
518.090
 20
321.158
 30
0.000000
  70
    32
  0
VERTEX
  8
0
  5
17CA
 10
518.069
 20
321.189
 30
0.000000
  70
    32
  0
VERTEX
  8
0
  5
17CB
 10
518.047
 20
321.220
 30
0.000000
  70
    32
  0
VERTEX
  8
0
  5
17CC
 10
518.025
 20
321.251
 30
0.000000
  70
    32
  0
VERTEX
  8
0
  5
17CD
 10
518.003
 20
321.282
 30
0.000000
  70
    32
  0
VERTEX
  8
0
  5
17CE
 10
517.981
 20
321.313
 30
0.000000
  70
    32
  0
VERTEX
  8
0
  5
17CF
 10
517.958
 20
321.344
 30
0.000000
  70
    32
  0
VERTEX
  8
0
  5
17D0
 10
517.935
 20
321.375
 30
0.000000
  70
    32
  0
VERTEX
  8
0
  5
17D1
 10
517.911
 20
321.405
 30
0.000000
  70
    32
  0
VERTEX
  8
0
  5
17D2
 10
517.888
 20
321.436
 30
0.000000
  70
    32
  0
VERTEX
  8
0
  5
17D3
 10
517.863
 20
321.467
 30
0.000000
  70
    32
  0
VERTEX
  8
0
  5
17D4
 10
517.839
 20
321.498
 30
0.000000
  70
    32
  0
VERTEX
  8
0
  5
17D5
 10
517.814
 20
321.528
 30
0.000000
  70
    32
  0
VERTEX
  8
0
  5
17D6
 10
517.788
 20
321.559
 30
0.000000
  70
    32
  0
VERTEX
  8
0
  5
17D7
 10
517.763
 20
321.589
 30
0.000000
  70
    32
  0
VERTEX
  8
0
  5
17D8
 10
517.737
 20
321.620
 30
0.000000
  70
    32
  0
VERTEX
  8
0
  5
17D9
 10
517.710
 20
321.650
 30
0.000000
  70
    32
  0
VERTEX
  8
0
  5
17DA
 10
517.684
 20
321.680
 30
0.000000
  70
    32
  0
VERTEX
  8
0
  5
17DB
 10
517.656
 20
321.711
 30
0.000000
  70
    32
  0
VERTEX
  8
0
  5
17DC
 10
517.629
 20
321.741
 30
0.000000
  70
    32
  0
VERTEX
  8
0
  5
17DD
 10
517.601
 20
321.771
 30
0.000000
  70
    32
  0
VERTEX
  8
0
  5
17DE
 10
517.573
 20
321.801
 30
0.000000
  70
    32
  0
VERTEX
  8
0
  5
17DF
 10
517.544
 20
321.831
 30
0.000000
  70
    32
  0
VERTEX
  8
0
  5
17E0
 10
517.515
 20
321.861
 30
0.000000
  70
    32
  0
VERTEX
  8
0
  5
17E1
 10
517.486
 20
321.891
 30
0.000000
  70
    32
  0
VERTEX
  8
0
  5
17E2
 10
517.457
 20
321.921
 30
0.000000
  70
    32
  0
VERTEX
  8
0
  5
17E3
 10
517.427
 20
321.951
 30
0.000000
  70
    32
  0
VERTEX
  8
0
  5
17E4
 10
517.396
 20
321.981
 30
0.000000
  70
    32
  0
VERTEX
  8
0
  5
17E5
 10
517.366
 20
322.011
 30
0.000000
  70
    32
  0
VERTEX
  8
0
  5
17E6
 10
517.335
 20
322.040
 30
0.000000
  70
    32
  0
VERTEX
  8
0
  5
17E7
 10
517.303
 20
322.070
 30
0.000000
  70
    32
  0
VERTEX
  8
0
  5
17E8
 10
517.272
 20
322.099
 30
0.000000
  70
    32
  0
VERTEX
  8
0
  5
17E9
 10
517.240
 20
322.129
 30
0.000000
  70
    32
  0
VERTEX
  8
0
  5
17EA
 10
517.207
 20
322.158
 30
0.000000
  70
    32
  0
VERTEX
  8
0
  5
17EB
 10
517.174
 20
322.187
 30
0.000000
  70
    32
  0
VERTEX
  8
0
  5
17EC
 10
517.141
 20
322.217
 30
0.000000
  70
    32
  0
VERTEX
  8
0
  5
17ED
 10
517.108
 20
322.246
 30
0.000000
  70
    32
  0
VERTEX
  8
0
  5
17EE
 10
517.074
 20
322.275
 30
0.000000
  70
    32
  0
VERTEX
  8
0
  5
17EF
 10
517.040
 20
322.304
 30
0.000000
  70
    32
  0
VERTEX
  8
0
  5
17F0
 10
517.006
 20
322.333
 30
0.000000
  70
    32
  0
VERTEX
  8
0
  5
17F1
 10
516.971
 20
322.362
 30
0.000000
  70
    32
  0
VERTEX
  8
0
  5
17F2
 10
516.936
 20
322.391
 30
0.000000
  70
    32
  0
VERTEX
  8
0
  5
17F3
 10
516.900
 20
322.420
 30
0.000000
  70
    32
  0
VERTEX
  8
0
  5
17F4
 10
516.864
 20
322.448
 30
0.000000
  70
    32
  0
VERTEX
  8
0
  5
17F5
 10
516.828
 20
322.477
 30
0.000000
  70
    32
  0
VERTEX
  8
0
  5
17F6
 10
516.792
 20
322.506
 30
0.000000
  70
    32
  0
VERTEX
  8
0
  5
17F7
 10
516.755
 20
322.534
 30
0.000000
  70
    32
  0
VERTEX
  8
0
  5
17F8
 10
516.718
 20
322.562
 30
0.000000
  70
    32
  0
VERTEX
  8
0
  5
17F9
 10
516.680
 20
322.591
 30
0.000000
  70
    32
  0
VERTEX
  8
0
  5
17FA
 10
516.642
 20
322.619
 30
0.000000
  70
    32
  0
VERTEX
  8
0
  5
17FB
 10
516.604
 20
322.647
 30
0.000000
  70
    32
  0
VERTEX
  8
0
  5
17FC
 10
516.566
 20
322.675
 30
0.000000
  70
    32
  0
VERTEX
  8
0
  5
17FD
 10
516.527
 20
322.703
 30
0.000000
  70
    32
  0
VERTEX
  8
0
  5
17FE
 10
516.488
 20
322.731
 30
0.000000
  70
    32
  0
VERTEX
  8
0
  5
17FF
 10
516.448
 20
322.759
 30
0.000000
  70
    32
  0
VERTEX
  8
0
  5
1800
 10
516.409
 20
322.787
 30
0.000000
  70
    32
  0
VERTEX
  8
0
  5
1801
 10
516.368
 20
322.815
 30
0.000000
  70
    32
  0
VERTEX
  8
0
  5
1802
 10
516.328
 20
322.842
 30
0.000000
  70
    32
  0
VERTEX
  8
0
  5
1803
 10
516.287
 20
322.870
 30
0.000000
  70
    32
  0
VERTEX
  8
0
  5
1804
 10
516.246
 20
322.897
 30
0.000000
  70
    32
  0
VERTEX
  8
0
  5
1805
 10
516.205
 20
322.925
 30
0.000000
  70
    32
  0
VERTEX
  8
0
  5
1806
 10
516.163
 20
322.952
 30
0.000000
  70
    32
  0
VERTEX
  8
0
  5
1807
 10
516.121
 20
322.979
 30
0.000000
  70
    32
  0
VERTEX
  8
0
  5
1808
 10
516.078
 20
323.006
 30
0.000000
  70
    32
  0
VERTEX
  8
0
  5
1809
 10
516.036
 20
323.033
 30
0.000000
  70
    32
  0
VERTEX
  8
0
  5
180A
 10
515.993
 20
323.060
 30
0.000000
  70
    32
  0
VERTEX
  8
0
  5
180B
 10
515.949
 20
323.087
 30
0.000000
  70
    32
  0
VERTEX
  8
0
  5
180C
 10
515.906
 20
323.114
 30
0.000000
  70
    32
  0
VERTEX
  8
0
  5
180D
 10
515.862
 20
323.141
 30
0.000000
  70
    32
  0
SEQEND
  8
0
  5
180E
  0
LINE
  5
13F1
  8
0
 10
518.66452092361521
 20
319.2473793371164
 30
0.0
 11
518.16852670455216
 21
283.58539221634157
 31
0.0
  0
LINE
  5
13F2
  8
0
 10
151.47256623481829
 20
319.2473793371164
 30
0.0
 11
151.9685604538812
 21
283.58539221634157
 31
0.0
  0
LINE
  5
13F3
  8
0
 10
486.67253248548928
 20
319.2473793371164
 30
0.0
 11
487.16852670455222
 21
283.58539221634157
 31
0.0
  0
POLYLINE
  5
13F4
  8
0
 10
489.47525619529523
 20
323.14059043329655
 30
0.0
 66
     1
 70
     8
  0
VERTEX
  8
0
  5
180F
 10
489.475
 20
323.141
 30
0.000000
  70
    32
  0
VERTEX
  8
0
  5
1810
 10
489.431
 20
323.114
 30
0.000000
  70
    32
  0
VERTEX
  8
0
  5
1811
 10
489.388
 20
323.087
 30
0.000000
  70
    32
  0
VERTEX
  8
0
  5
1812
 10
489.344
 20
323.060
 30
0.000000
  70
    32
  0
VERTEX
  8
0
  5
1813
 10
489.301
 20
323.033
 30
0.000000
  70
    32
  0
VERTEX
  8
0
  5
1814
 10
489.259
 20
323.006
 30
0.000000
  70
    32
  0
VERTEX
  8
0
  5
1815
 10
489.216
 20
322.979
 30
0.000000
  70
    32
  0
VERTEX
  8
0
  5
1816
 10
489.174
 20
322.952
 30
0.000000
  70
    32
  0
VERTEX
  8
0
  5
1817
 10
489.132
 20
322.925
 30
0.000000
  70
    32
  0
VERTEX
  8
0
  5
1818
 10
489.091
 20
322.897
 30
0.000000
  70
    32
  0
VERTEX
  8
0
  5
1819
 10
489.050
 20
322.870
 30
0.000000
  70
    32
  0
VERTEX
  8
0
  5
181A
 10
489.009
 20
322.842
 30
0.000000
  70
    32
  0
VERTEX
  8
0
  5
181B
 10
488.969
 20
322.815
 30
0.000000
  70
    32
  0
VERTEX
  8
0
  5
181C
 10
488.928
 20
322.787
 30
0.000000
  70
    32
  0
VERTEX
  8
0
  5
181D
 10
488.889
 20
322.759
 30
0.000000
  70
    32
  0
VERTEX
  8
0
  5
181E
 10
488.849
 20
322.731
 30
0.000000
  70
    32
  0
VERTEX
  8
0
  5
181F
 10
488.810
 20
322.703
 30
0.000000
  70
    32
  0
VERTEX
  8
0
  5
1820
 10
488.771
 20
322.675
 30
0.000000
  70
    32
  0
VERTEX
  8
0
  5
1821
 10
488.733
 20
322.647
 30
0.000000
  70
    32
  0
VERTEX
  8
0
  5
1822
 10
488.695
 20
322.619
 30
0.000000
  70
    32
  0
VERTEX
  8
0
  5
1823
 10
488.657
 20
322.591
 30
0.000000
  70
    32
  0
VERTEX
  8
0
  5
1824
 10
488.619
 20
322.562
 30
0.000000
  70
    32
  0
VERTEX
  8
0
  5
1825
 10
488.582
 20
322.534
 30
0.000000
  70
    32
  0
VERTEX
  8
0
  5
1826
 10
488.545
 20
322.506
 30
0.000000
  70
    32
  0
VERTEX
  8
0
  5
1827
 10
488.509
 20
322.477
 30
0.000000
  70
    32
  0
VERTEX
  8
0
  5
1828
 10
488.473
 20
322.448
 30
0.000000
  70
    32
  0
VERTEX
  8
0
  5
1829
 10
488.437
 20
322.420
 30
0.000000
  70
    32
  0
VERTEX
  8
0
  5
182A
 10
488.401
 20
322.391
 30
0.000000
  70
    32
  0
VERTEX
  8
0
  5
182B
 10
488.366
 20
322.362
 30
0.000000
  70
    32
  0
VERTEX
  8
0
  5
182C
 10
488.331
 20
322.333
 30
0.000000
  70
    32
  0
VERTEX
  8
0
  5
182D
 10
488.297
 20
322.304
 30
0.000000
  70
    32
  0
VERTEX
  8
0
  5
182E
 10
488.263
 20
322.275
 30
0.000000
  70
    32
  0
VERTEX
  8
0
  5
182F
 10
488.229
 20
322.246
 30
0.000000
  70
    32
  0
VERTEX
  8
0
  5
1830
 10
488.196
 20
322.217
 30
0.000000
  70
    32
  0
VERTEX
  8
0
  5
1831
 10
488.163
 20
322.187
 30
0.000000
  70
    32
  0
VERTEX
  8
0
  5
1832
 10
488.130
 20
322.158
 30
0.000000
  70
    32
  0
VERTEX
  8
0
  5
1833
 10
488.097
 20
322.129
 30
0.000000
  70
    32
  0
VERTEX
  8
0
  5
1834
 10
488.065
 20
322.099
 30
0.000000
  70
    32
  0
VERTEX
  8
0
  5
1835
 10
488.034
 20
322.070
 30
0.000000
  70
    32
  0
VERTEX
  8
0
  5
1836
 10
488.002
 20
322.040
 30
0.000000
  70
    32
  0
VERTEX
  8
0
  5
1837
 10
487.971
 20
322.011
 30
0.000000
  70
    32
  0
VERTEX
  8
0
  5
1838
 10
487.941
 20
321.981
 30
0.000000
  70
    32
  0
VERTEX
  8
0
  5
1839
 10
487.910
 20
321.951
 30
0.000000
  70
    32
  0
VERTEX
  8
0
  5
183A
 10
487.880
 20
321.921
 30
0.000000
  70
    32
  0
VERTEX
  8
0
  5
183B
 10
487.851
 20
321.891
 30
0.000000
  70
    32
  0
VERTEX
  8
0
  5
183C
 10
487.822
 20
321.861
 30
0.000000
  70
    32
  0
VERTEX
  8
0
  5
183D
 10
487.793
 20
321.831
 30
0.000000
  70
    32
  0
VERTEX
  8
0
  5
183E
 10
487.764
 20
321.801
 30
0.000000
  70
    32
  0
VERTEX
  8
0
  5
183F
 10
487.736
 20
321.771
 30
0.000000
  70
    32
  0
VERTEX
  8
0
  5
1840
 10
487.708
 20
321.741
 30
0.000000
  70
    32
  0
VERTEX
  8
0
  5
1841
 10
487.681
 20
321.711
 30
0.000000
  70
    32
  0
VERTEX
  8
0
  5
1842
 10
487.654
 20
321.680
 30
0.000000
  70
    32
  0
VERTEX
  8
0
  5
1843
 10
487.627
 20
321.650
 30
0.000000
  70
    32
  0
VERTEX
  8
0
  5
1844
 10
487.600
 20
321.620
 30
0.000000
  70
    32
  0
VERTEX
  8
0
  5
1845
 10
487.574
 20
321.589
 30
0.000000
  70
    32
  0
VERTEX
  8
0
  5
1846
 10
487.549
 20
321.559
 30
0.000000
  70
    32
  0
VERTEX
  8
0
  5
1847
 10
487.523
 20
321.528
 30
0.000000
  70
    32
  0
VERTEX
  8
0
  5
1848
 10
487.498
 20
321.498
 30
0.000000
  70
    32
  0
VERTEX
  8
0
  5
1849
 10
487.474
 20
321.467
 30
0.000000
  70
    32
  0
VERTEX
  8
0
  5
184A
 10
487.449
 20
321.436
 30
0.000000
  70
    32
  0
VERTEX
  8
0
  5
184B
 10
487.426
 20
321.405
 30
0.000000
  70
    32
  0
VERTEX
  8
0
  5
184C
 10
487.402
 20
321.375
 30
0.000000
  70
    32
  0
VERTEX
  8
0
  5
184D
 10
487.379
 20
321.344
 30
0.000000
  70
    32
  0
VERTEX
  8
0
  5
184E
 10
487.356
 20
321.313
 30
0.000000
  70
    32
  0
VERTEX
  8
0
  5
184F
 10
487.334
 20
321.282
 30
0.000000
  70
    32
  0
VERTEX
  8
0
  5
1850
 10
487.312
 20
321.251
 30
0.000000
  70
    32
  0
VERTEX
  8
0
  5
1851
 10
487.290
 20
321.220
 30
0.000000
  70
    32
  0
VERTEX
  8
0
  5
1852
 10
487.269
 20
321.189
 30
0.000000
  70
    32
  0
VERTEX
  8
0
  5
1853
 10
487.248
 20
321.158
 30
0.000000
  70
    32
  0
VERTEX
  8
0
  5
1854
 10
487.227
 20
321.126
 30
0.000000
  70
    32
  0
VERTEX
  8
0
  5
1855
 10
487.207
 20
321.095
 30
0.000000
  70
    32
  0
VERTEX
  8
0
  5
1856
 10
487.187
 20
321.064
 30
0.000000
  70
    32
  0
VERTEX
  8
0
  5
1857
 10
487.167
 20
321.033
 30
0.000000
  70
    32
  0
VERTEX
  8
0
  5
1858
 10
487.148
 20
321.001
 30
0.000000
  70
    32
  0
VERTEX
  8
0
  5
1859
 10
487.129
 20
320.970
 30
0.000000
  70
    32
  0
VERTEX
  8
0
  5
185A
 10
487.111
 20
320.939
 30
0.000000
  70
    32
  0
VERTEX
  8
0
  5
185B
 10
487.093
 20
320.907
 30
0.000000
  70
    32
  0
VERTEX
  8
0
  5
185C
 10
487.075
 20
320.876
 30
0.000000
  70
    32
  0
VERTEX
  8
0
  5
185D
 10
487.058
 20
320.844
 30
0.000000
  70
    32
  0
VERTEX
  8
0
  5
185E
 10
487.041
 20
320.813
 30
0.000000
  70
    32
  0
VERTEX
  8
0
  5
185F
 10
487.025
 20
320.781
 30
0.000000
  70
    32
  0
VERTEX
  8
0
  5
1860
 10
487.008
 20
320.750
 30
0.000000
  70
    32
  0
VERTEX
  8
0
  5
1861
 10
486.993
 20
320.718
 30
0.000000
  70
    32
  0
VERTEX
  8
0
  5
1862
 10
486.977
 20
320.686
 30
0.000000
  70
    32
  0
VERTEX
  8
0
  5
1863
 10
486.962
 20
320.654
 30
0.000000
  70
    32
  0
VERTEX
  8
0
  5
1864
 10
486.947
 20
320.623
 30
0.000000
  70
    32
  0
VERTEX
  8
0
  5
1865
 10
486.933
 20
320.591
 30
0.000000
  70
    32
  0
VERTEX
  8
0
  5
1866
 10
486.919
 20
320.559
 30
0.000000
  70
    32
  0
VERTEX
  8
0
  5
1867
 10
486.906
 20
320.527
 30
0.000000
  70
    32
  0
VERTEX
  8
0
  5
1868
 10
486.892
 20
320.496
 30
0.000000
  70
    32
  0
VERTEX
  8
0
  5
1869
 10
486.880
 20
320.464
 30
0.000000
  70
    32
  0
VERTEX
  8
0
  5
186A
 10
486.867
 20
320.432
 30
0.000000
  70
    32
  0
VERTEX
  8
0
  5
186B
 10
486.855
 20
320.400
 30
0.000000
  70
    32
  0
VERTEX
  8
0
  5
186C
 10
486.843
 20
320.368
 30
0.000000
  70
    32
  0
VERTEX
  8
0
  5
186D
 10
486.832
 20
320.336
 30
0.000000
  70
    32
  0
VERTEX
  8
0
  5
186E
 10
486.821
 20
320.304
 30
0.000000
  70
    32
  0
VERTEX
  8
0
  5
186F
 10
486.811
 20
320.272
 30
0.000000
  70
    32
  0
VERTEX
  8
0
  5
1870
 10
486.800
 20
320.240
 30
0.000000
  70
    32
  0
VERTEX
  8
0
  5
1871
 10
486.791
 20
320.208
 30
0.000000
  70
    32
  0
VERTEX
  8
0
  5
1872
 10
486.781
 20
320.176
 30
0.000000
  70
    32
  0
VERTEX
  8
0
  5
1873
 10
486.772
 20
320.144
 30
0.000000
  70
    32
  0
VERTEX
  8
0
  5
1874
 10
486.763
 20
320.112
 30
0.000000
  70
    32
  0
VERTEX
  8
0
  5
1875
 10
486.755
 20
320.079
 30
0.000000
  70
    32
  0
VERTEX
  8
0
  5
1876
 10
486.747
 20
320.047
 30
0.000000
  70
    32
  0
VERTEX
  8
0
  5
1877
 10
486.740
 20
320.015
 30
0.000000
  70
    32
  0
VERTEX
  8
0
  5
1878
 10
486.733
 20
319.983
 30
0.000000
  70
    32
  0
VERTEX
  8
0
  5
1879
 10
486.726
 20
319.951
 30
0.000000
  70
    32
  0
VERTEX
  8
0
  5
187A
 10
486.719
 20
319.919
 30
0.000000
  70
    32
  0
VERTEX
  8
0
  5
187B
 10
486.713
 20
319.886
 30
0.000000
  70
    32
  0
VERTEX
  8
0
  5
187C
 10
486.708
 20
319.854
 30
0.000000
  70
    32
  0
VERTEX
  8
0
  5
187D
 10
486.702
 20
319.822
 30
0.000000
  70
    32
  0
VERTEX
  8
0
  5
187E
 10
486.698
 20
319.790
 30
0.000000
  70
    32
  0
VERTEX
  8
0
  5
187F
 10
486.693
 20
319.757
 30
0.000000
  70
    32
  0
VERTEX
  8
0
  5
1880
 10
486.689
 20
319.725
 30
0.000000
  70
    32
  0
VERTEX
  8
0
  5
1881
 10
486.685
 20
319.693
 30
0.000000
  70
    32
  0
VERTEX
  8
0
  5
1882
 10
486.682
 20
319.661
 30
0.000000
  70
    32
  0
VERTEX
  8
0
  5
1883
 10
486.679
 20
319.628
 30
0.000000
  70
    32
  0
VERTEX
  8
0
  5
1884
 10
486.676
 20
319.596
 30
0.000000
  70
    32
  0
VERTEX
  8
0
  5
1885
 10
486.674
 20
319.564
 30
0.000000
  70
    32
  0
VERTEX
  8
0
  5
1886
 10
486.672
 20
319.531
 30
0.000000
  70
    32
  0
VERTEX
  8
0
  5
1887
 10
486.671
 20
319.499
 30
0.000000
  70
    32
  0
VERTEX
  8
0
  5
1888
 10
486.670
 20
319.467
 30
0.000000
  70
    32
  0
VERTEX
  8
0
  5
1889
 10
486.669
 20
319.434
 30
0.000000
  70
    32
  0
VERTEX
  8
0
  5
188A
 10
486.669
 20
319.402
 30
0.000000
  70
    32
  0
VERTEX
  8
0
  5
188B
 10
486.669
 20
319.370
 30
0.000000
  70
    32
  0
VERTEX
  8
0
  5
188C
 10
486.669
 20
319.337
 30
0.000000
  70
    32
  0
VERTEX
  8
0
  5
188D
 10
486.670
 20
319.305
 30
0.000000
  70
    32
  0
VERTEX
  8
0
  5
188E
 10
486.671
 20
319.273
 30
0.000000
  70
    32
  0
VERTEX
  8
0
  5
188F
 10
486.673
 20
319.241
 30
0.000000
  70
    32
  0
SEQEND
  8
0
  5
1890
  0
ARC
  5
13F5
  8
0
 10
527.53561617539083
 20
311.68800950624552
 30
0.0
 40
16.0
 50
164.0225319366626
 51
212.5247298491451
  0
ARC
  5
13F6
  8
0
 10
510.23095585530763
 20
316.64267712441529
 30
0.0
 40
2.0
 50
344.02253193666257
 51
0.0
  0
LINE
  5
13F7
  8
0
 10
512.23266261932838
 20
316.90008542245391
 30
0.0
 11
510.86240084205627
 21
329.12691636477439
 31
0.0
  0
LINE
  5
13F8
  8
0
 10
510.76199414996609
 20
329.46539221634163
 30
0.0
 11
510.8624008420561
 21
329.12691636477518
 31
0.0
  0
LINE
  5
13F9
  8
0
 10
510.1575217532415
 20
331.02243561757189
 30
0.0
 11
510.23105401754742
 21
329.56036922671092
 31
0.0
  0
ARC
  5
13FA
  8
0
 10
510.33092778575082
 20
329.56539221634159
 30
0.0
 40
0.1
 50
182.8791726428968
 51
270.0
  0
LINE
  5
13FB
  8
0
 10
493.10609755379687
 20
334.33526501251202
 30
0.0
 11
493.10609755379687
 21
316.64267712441529
 31
0.0
  0
LINE
  5
13FC
  8
0
 10
493.10439078977601
 20
316.90008542245391
 30
0.0
 11
494.47465256704822
 21
329.12691636477439
 31
0.0
  0
ARC
  5
13FD
  8
0
 10
477.80143723371373
 20
311.68800950624552
 30
0.0
 40
16.0
 50
327.4752701508549
 51
15.977468063337369
  0
ARC
  5
13FE
  8
0
 10
495.10609755379681
 20
316.64267712441529
 30
0.0
 40
2.0
 50
180.0
 51
195.97746806333731
  0
LINE
  5
13FF
  8
0
 10
495.17953165586289
 20
331.02243561757189
 30
0.0
 11
495.10599939155708
 21
329.56036922671092
 31
0.0
  0
ARC
  5
1400
  8
0
 10
495.00612562335368
 20
329.56539221634159
 30
0.0
 40
0.1
 50
270.0
 51
357.12082735710311
  0
LINE
  5
1401
  8
0
 10
494.57505925913853
 20
329.46539221634163
 30
0.0
 11
494.47465256704828
 21
329.12691636477518
 31
0.0
  0
ARC
  5
1402
  8
0
 10
516.8603252533419
 20
328.38021230401358
 30
0.0
 40
18.0
 50
116.9726637604859
 51
134.80837889191491
  0
ARC
  5
1403
  8
0
 10
509.37649710552432
 20
343.08539221634157
 30
0.0
 40
1.5
 50
90.0
 51
116.9726637604859
  0
ARC
  5
1404
  8
0
 10
570.34575616287611
 20
384.65887357801648
 30
0.0
 40
80.0
 50
214.0362878740896
 51
219.4398401049931
  0
ARC
  5
1405
  8
0
 10
504.87977977146681
 20
340.44116292810321
 30
0.0
 40
1.0
 50
134.80837889191491
 51
214.0362878740896
  0
ARC
  5
1406
  8
0
 10
495.51082511740378
 20
324.5823767377791
 30
0.0
 40
16.0
 50
23.734790178187481
 51
35.341083939324157
  0
ARC
  5
1407
  8
0
 10
434.99129724622838
 20
384.65887357801648
 30
0.0
 40
80.0
 50
320.5601598950069
 51
325.96371212591038
  0
ARC
  5
1408
  8
0
 10
488.47672815576271
 20
328.38021230401358
 30
0.0
 40
18.0
 50
45.191621108085108
 51
63.027336239514078
  0
ARC
  5
1409
  8
0
 10
500.45727363763763
 20
340.44116292810321
 30
0.0
 40
1.0
 50
325.96371212591038
 51
45.191621108085108
  0
ARC
  5
140A
  8
0
 10
495.96055630358018
 20
343.08539221634157
 30
0.0
 40
1.5
 50
63.027336239514078
 51
90.0
  0
ARC
  5
140B
  8
0
 10
509.82622829170077
 20
324.5823767377791
 30
0.0
 40
16.0
 50
144.65891606067581
 51
156.2652098218125
  0
LINE
  5
1433
  8
0
 10
296.85058004447279
 20
181.5853922163414
 30
0.0
 11
284.85058004447279
 21
181.5853922163416
 31
0.0
  0
LINE
  5
1434
  8
0
 10
282.85058004447279
 20
271.58539221634157
 30
0.0
 11
282.85058004447268
 21
183.5853922163418
 31
0.0
  0
LINE
  5
1435
  8
3
 10
283.93308004447277
 20
241.5853922163416
 30
0.0
 11
283.93308004447277
 21
182.50289221634171
 31
0.0
  0
LINE
  5
1436
  8
3
 10
297.76808004447281
 20
241.5853922163416
 30
0.0
 11
297.76808004447281
 21
182.50289221634131
 31
0.0
  0
LINE
  5
1437
  8
0
 10
298.85058004447291
 20
271.58539221634157
 30
0.0
 11
298.85058004447308
 21
183.58539221634169
 31
0.0
  0
LINE
  5
1438
  8
0
 10
298.85058004447291
 20
183.5853922163414
 30
0.0
 11
296.85058004447279
 21
181.5853922163414
 31
0.0
  0
LINE
  5
1439
  8
0
 10
284.85058004447279
 20
181.5853922163416
 30
0.0
 11
282.85058004447279
 21
183.5853922163416
 31
0.0
  0
LINE
  5
143A
  8
0
 10
282.85058004447279
 20
183.5853922163416
 30
0.0
 11
298.85058004447291
 21
183.5853922163414
 31
0.0
  0
LINE
  5
143B
  8
0
 10
298.84058004447292
 20
241.5853922163416
 30
0.0
 11
282.84058004447292
 21
241.5853922163416
 31
0.0
  0
LINE
  5
143C
  8
3
 10
297.75808004447288
 20
241.5853922163416
 30
0.0
 11
298.84058004447292
 21
243.46033721553471
 31
0.0
  0
LINE
  5
143D
  8
3
 10
283.92308004447278
 20
241.5853922163416
 30
0.0
 11
282.84058004447292
 21
243.46033721553471
 31
0.0
  0
LINE
  5
1442
  8
3
 10
160.56106045388111
 20
241.5853922163416
 30
0.0
 11
160.561060453881
 21
182.50289221634171
 31
0.0
  0
LINE
  5
1443
  8
3
 10
174.3960604538812
 20
241.5853922163416
 30
0.0
 11
174.3960604538812
 21
182.50289221634159
 31
0.0
  0
LINE
  5
1444
  8
0
 10
173.4785604538811
 20
181.5853922163414
 30
0.0
 11
161.47856045388119
 21
181.5853922163416
 31
0.0
  0
LINE
  5
1445
  8
0
 10
159.4785604538811
 20
183.5853922163416
 30
0.0
 11
175.47856045388119
 21
183.5853922163414
 31
0.0
  0
LINE
  5
1446
  8
0
 10
161.47856045388119
 20
181.5853922163416
 30
0.0
 11
159.4785604538811
 21
183.5853922163416
 31
0.0
  0
LINE
  5
1447
  8
0
 10
175.47856045388119
 20
183.5853922163414
 30
0.0
 11
173.4785604538811
 21
181.5853922163414
 31
0.0
  0
LINE
  5
1448
  8
0
 10
175.4685604538812
 20
241.5853922163416
 30
0.0
 11
159.4685604538812
 21
241.5853922163416
 31
0.0
  0
LINE
  5
1449
  8
3
 10
160.55106045388121
 20
241.5853922163416
 30
0.0
 11
159.4685604538812
 21
243.46033721553471
 31
0.0
  0
LINE
  5
144A
  8
3
 10
174.38606045388121
 20
241.5853922163416
 30
0.0
 11
175.4685604538812
 21
243.46033721553471
 31
0.0
  0
LINE
  5
144B
  8
0
 10
175.47856045388119
 20
271.58539221634157
 30
0.0
 11
175.4785604538811
 21
183.5853922163414
 31
0.0
  0
LINE
  5
144C
  8
0
 10
159.4785604538811
 20
271.58539221634157
 30
0.0
 11
159.4785604538811
 21
183.58539221634169
 31
0.0
  0
LINE
  5
144D
  8
3
 10
509.59602670455229
 20
241.5853922163416
 30
0.0
 11
509.59602670455229
 21
182.50289221634151
 31
0.0
  0
LINE
  5
144E
  8
0
 10
510.67852670455221
 20
271.58539221634157
 30
0.0
 11
510.67852670455221
 21
183.5853922163414
 31
0.0
  0
LINE
  5
144F
  8
0
 10
508.67852670455221
 20
181.5853922163414
 30
0.0
 11
496.67852670455221
 21
181.5853922163416
 31
0.0
  0
LINE
  5
1450
  8
0
 10
494.67852670455221
 20
183.5853922163416
 30
0.0
 11
510.67852670455221
 21
183.5853922163414
 31
0.0
  0
LINE
  5
1451
  8
0
 10
510.67852670455221
 20
183.5853922163414
 30
0.0
 11
508.67852670455221
 21
181.5853922163414
 31
0.0
  0
LINE
  5
1452
  8
0
 10
510.66852670455228
 20
241.5853922163416
 30
0.0
 11
494.66852670455228
 21
241.5853922163416
 31
0.0
  0
LINE
  5
1453
  8
3
 10
509.58602670455218
 20
241.5853922163416
 30
0.0
 11
510.66852670455228
 21
243.46033721553471
 31
0.0
  0
LINE
  5
1454
  8
3
 10
495.76102670455231
 20
241.5853922163416
 30
0.0
 11
495.76102670455219
 21
182.50289221634171
 31
0.0
  0
LINE
  5
1455
  8
0
 10
494.67852670455221
 20
271.58539221634157
 30
0.0
 11
494.67852670455221
 21
183.5853922163416
 31
0.0
  0
LINE
  5
1456
  8
3
 10
495.7510267045522
 20
241.5853922163416
 30
0.0
 11
494.66852670455228
 21
243.46033721553471
 31
0.0
  0
LINE
  5
1457
  8
0
 10
496.67852670455221
 20
181.5853922163416
 30
0.0
 11
494.67852670455221
 21
183.5853922163416
 31
0.0
  0
LINE
  5
1465
  8
1
 10
290.85058004447291
 20
464.39163800425382
 30
0.0
 11
290.85058004447291
 21
412.39163800425388
 31
0.0
  0
LINE
  5
1466
  8
1
 10
410.85058004447279
 20
438.39163800425382
 30
0.0
 11
264.85058004447279
 21
438.39163800425382
 31
0.0
  0
LINE
  5
1468
  8
1
 10
290.85058004447291
 20
116.54456502502261
 30
0.0
 11
290.85058004447291
 21
64.544565025022621
 31
0.0
  0
LINE
  5
1469
  8
1
 10
410.85058004447279
 20
90.544565025022621
 30
0.0
 11
264.85058004447279
 21
90.544565025022621
 31
0.0
  0
LINE
  5
14D8
  8
0
 10
287.05058004447289
 20
439.06663800425389
 30
0.0
 11
287.05058004447289
 21
437.71663800425381
 31
0.0
  0
LINE
  5
14D9
  8
0
 10
294.65058004447292
 20
439.06663800425389
 30
0.0
 11
294.65058004447292
 21
437.71663800425381
 31
0.0
  0
LINE
  5
14DA
  8
0
 10
292.6477019626775
 20
439.06663800425389
 30
0.0
 11
294.65058004447292
 21
439.06663800425389
 31
0.0
  0
LINE
  5
14DB
  8
0
 10
292.64770196267739
 20
437.71663800425381
 30
0.0
 11
294.65058004447292
 21
437.71663800425381
 31
0.0
  0
LINE
  5
14DC
  8
0
 10
287.05058004447289
 20
439.06663800425389
 30
0.0
 11
289.05345812626831
 21
439.06663800425389
 31
0.0
  0
LINE
  5
14DD
  8
0
 10
287.05058004447289
 20
437.71663800425381
 30
0.0
 11
289.05345812626842
 21
437.71663800425381
 31
0.0
  0
CIRCLE
  5
14DE
  8
0
 10
290.85058004447291
 20
438.39163800425382
 30
0.0
 40
3.999175415007485
  0
CIRCLE
  5
14F0
  8
0
 10
290.85058004447291
 20
438.39163800425382
 30
0.0
 40
6.75
  0
ARC
  5
14F1
  8
0
 10
293.21421946742498
 20
439.75628586136258
 30
0.0
 40
0.8925000000000011
 50
163.3417582272229
 51
230.59829508168929
  0
ARC
  5
14F2
  8
0
 10
293.21421946742498
 20
437.02699014714523
 30
0.0
 40
0.8925000000000002
 50
129.40170491832319
 51
196.65824177277699
  0
ARC
  5
14F3
  8
0
 10
291.87058004447277
 20
436.62494618053358
 30
0.0
 40
0.5099999999999997
 50
223.3417582272223
 51
16.658241772777039
  0
ARC
  5
14F4
  8
0
 10
290.85058004447291
 20
435.66234229003658
 30
0.0
 40
0.8925000000000002
 50
43.341758227222343
 51
136.65824177277651
  0
ARC
  5
14F5
  8
0
 10
289.83058004447292
 20
436.62494618053358
 30
0.0
 40
0.5100000000000002
 50
163.3417582272229
 51
316.65824177277773
  0
ARC
  5
14F6
  8
0
 10
288.48694062152077
 20
437.02699014714523
 30
0.0
 40
0.8925000000000011
 50
343.3417582272229
 51
50.598295081676767
  0
ARC
  5
14F7
  8
0
 10
291.87058004447277
 20
440.15832982797411
 30
0.0
 40
0.5100000000000003
 50
343.3417582272229
 51
136.65824177277759
  0
ARC
  5
14F8
  8
0
 10
290.85058004447291
 20
441.12093371847112
 30
0.0
 40
0.8924999999999984
 50
223.3417582272223
 51
316.65824177277773
  0
ARC
  5
14F9
  8
0
 10
289.83058004447292
 20
440.15832982797411
 30
0.0
 40
0.5099999999999997
 50
43.341758227222343
 51
196.65824177277699
  0
ARC
  5
14FA
  8
0
 10
288.48694062152077
 20
439.75628586136258
 30
0.0
 40
0.8925000000000004
 50
309.40170491831071
 51
16.658241772777039
  0
LINE
  5
1500
  8
0
 10
284.0905800444728
 20
319.19295963283372
 30
0.0
 11
284.0905800444728
 21
316.72289311008581
 31
0.0
  0
LINE
  5
1501
  8
0
 10
293.84086957268443
 20
320.58539221634157
 30
0.0
 11
286.8414046294655
 21
320.58539221634157
 31
0.0
  0
ARC
  5
1502
  8
0
 10
290.84058004447292
 20
309.27139221634161
 30
0.0
 40
12.0
 50
109.4670447595973
 51
124.2288663278118
  0
LINE
  5
1503
  8
0
 10
290.23909473931133
 20
319.19295963283372
 30
0.0
 11
284.0905800444728
 21
319.19295963283372
 31
0.0
  0
LINE
  5
1505
  8
0
 10
174.2185604538812
 20
319.19295963283378
 30
0.0
 11
174.2185604538812
 21
317.6536862558446
 31
0.0
  0
LINE
  5
1506
  8
0
 10
171.46773586888861
 20
320.58539221634157
 30
0.0
 11
163.46938503887381
 21
320.58539221634157
 31
0.0
  0
ARC
  5
1507
  8
0
 10
167.4685604538812
 20
309.27139221634161
 30
0.0
 40
12.0
 50
55.771133672188213
 51
70.532955240402714
  0
LINE
  5
1508
  8
0
 10
174.2185604538812
 20
319.19295963283378
 30
0.0
 11
160.7185604538812
 21
319.19295963283372
 31
0.0
  0
LINE
  5
1509
  8
0
 10
160.7185604538812
 20
319.19295963283372
 30
0.0
 11
160.7185604538812
 21
317.6536862558446
 31
0.0
  0
ARC
  5
150A
  8
0
 10
167.4685604538812
 20
309.27139221634161
 30
0.0
 40
12.0
 50
109.4670447595973
 51
124.2288663278118
  0
TEXT
  5
15F2
  8
0
 62
     3
 10
0.0
 20
0.0
 30
0.0
 40
10.0
  1
FKR16X90-OG
  7
STANDARD1
  0
ENDSEC
  0
EOF
