  0
SECTION
  2
HEADER
  9
$ACADVER
  1
AC1009
  9
$INSBASE
 10
0.0
 20
0.0
 30
0.0
  9
$EXTMIN
 10
0.0
 20
-2.960436562073669
 30
0.0
  9
$EXTMAX
 10
237.359634178335
 20
212.73502202255119
 30
0.0
  9
$LIMMIN
 10
0.0
 20
0.0
  9
$LIMMAX
 10
187.5
 20
135.0
  9
$ORTHOMODE
 70
     1
  9
$REGENMODE
 70
     1
  9
$FILLMODE
 70
     1
  9
$QTEXTMODE
 70
     0
  9
$MIRRTEXT
 70
     0
  9
$DRAGMODE
 70
     2
  9
$LTSCALE
 40
5.0
  9
$OSMODE
 70
    55
  9
$ATTMODE
 70
     1
  9
$TEXTSIZE
 40
4.0
  9
$TRACEWID
 40
0.05
  9
$TEXTSTYLE
  7
STANDARD
  9
$CLAYER
  8
0
  9
$CELTYPE
  6
BYLAYER
  9
$CECOLOR
 62
   256
  9
$DIMSCALE
 40
0.5
  9
$DIMASZ
 40
3.0
  9
$DIMEXO
 40
2.0
  9
$DIMDLI
 40
0.38
  9
$DIMRND
 40
0.0
  9
$DIMDLE
 40
0.0
  9
$DIMEXE
 40
2.0
  9
$DIMTP
 40
0.0
  9
$DIMTM
 40
0.0
  9
$DIMTXT
 40
3.0
  9
$DIMCEN
 40
0.0
  9
$DIMTSZ
 40
0.0
  9
$DIMTOL
 70
     0
  9
$DIMLIM
 70
     0
  9
$DIMTIH
 70
     0
  9
$DIMTOH
 70
     0
  9
$DIMSE1
 70
     0
  9
$DIMSE2
 70
     0
  9
$DIMTAD
 70
     1
  9
$DIMZIN
 70
     0
  9
$DIMBLK
  1

  9
$DIMASO
 70
     0
  9
$DIMSHO
 70
     0
  9
$DIMPOST
  1

  9
$DIMAPOST
  1

  9
$DIMALT
 70
     0
  9
$DIMALTD
 70
     2
  9
$DIMALTF
 40
25.399999999999999
  9
$DIMLFAC
 40
1.0
  9
$DIMTOFL
 70
     0
  9
$DIMTVP
 40
1.6000000000000001
  9
$DIMTIX
 70
     1
  9
$DIMSOXD
 70
     0
  9
$DIMSAH
 70
     0
  9
$DIMBLK1
  1

  9
$DIMBLK2
  1

  9
$DIMSTYLE
  2
STANDARD
  9
$DIMCLRD
 70
     0
  9
$DIMCLRE
 70
     0
  9
$DIMCLRT
 70
     0
  9
$DIMTFAC
 40
1.0
  9
$DIMGAP
 40
0.09
  9
$LUNITS
 70
     2
  9
$LUPREC
 70
     4
  9
$SKETCHINC
 40
0.1
  9
$FILLETRAD
 40
1.25
  9
$AUNITS
 70
     0
  9
$AUPREC
 70
     0
  9
$MENU
  1
E:\r13\win\SUPPORT\ACAD
  9
$ELEVATION
 40
0.0
  9
$PELEVATION
 40
0.0
  9
$THICKNESS
 40
0.0
  9
$LIMCHECK
 70
     0
  9
$BLIPMODE
 70
     0
  9
$CHAMFERA
 40
0.0
  9
$CHAMFERB
 40
0.0
  9
$SKPOLY
 70
     0
  9
$TDCREATE
 40
2449840.6143865739
  9
$TDUPDATE
 40
2456598.6510530901
  9
$TDINDWG
 40
0.3185705556
  9
$TDUSRTIMER
 40
0.3185705556
  9
$USRTIMER
 70
     1
  9
$ANGBASE
 50
0.0
  9
$ANGDIR
 70
     0
  9
$PDMODE
 70
     0
  9
$PDSIZE
 40
0.0
  9
$PLINEWID
 40
0.0
  9
$COORDS
 70
     1
  9
$SPLFRAME
 70
     0
  9
$SPLINETYPE
 70
     6
  9
$SPLINESEGS
 70
     8
  9
$ATTDIA
 70
     0
  9
$ATTREQ
 70
     1
  9
$HANDLING
 70
     1
  9
$HANDSEED
  5
F9A
  9
$SURFTAB1
 70
     6
  9
$SURFTAB2
 70
     6
  9
$SURFTYPE
 70
     6
  9
$SURFU
 70
     6
  9
$SURFV
 70
     6
  9
$UCSNAME
  2

  9
$UCSORG
 10
0.0
 20
0.0
 30
0.0
  9
$UCSXDIR
 10
1.0
 20
0.0
 30
0.0
  9
$UCSYDIR
 10
0.0
 20
1.0
 30
0.0
  9
$PUCSNAME
  2

  9
$PUCSORG
 10
0.0
 20
0.0
 30
0.0
  9
$PUCSXDIR
 10
1.0
 20
0.0
 30
0.0
  9
$PUCSYDIR
 10
0.0
 20
1.0
 30
0.0
  9
$USERI1
 70
     0
  9
$USERI2
 70
     1
  9
$USERI3
 70
     1
  9
$USERI4
 70
     0
  9
$USERI5
 70
     0
  9
$USERR1
 40
0.0
  9
$USERR2
 40
0.0
  9
$USERR3
 40
0.0
  9
$USERR4
 40
0.0
  9
$USERR5
 40
0.0
  9
$WORLDVIEW
 70
     1
  9
$SHADEDGE
 70
     3
  9
$SHADEDIF
 70
    70
  9
$TILEMODE
 70
     1
  9
$MAXACTVP
 70
    16
  9
$PLIMCHECK
 70
     0
  9
$PEXTMIN
 10
1.0000000000000000E+020
 20
1.0000000000000000E+020
 30
1.0000000000000000E+020
  9
$PEXTMAX
 10
-1.0000000000000000E+020
 20
-1.0000000000000000E+020
 30
-1.0000000000000000E+020
  9
$PLIMMIN
 10
0.0
 20
0.0
  9
$PLIMMAX
 10
12.0
 20
9.0
  9
$UNITMODE
 70
     0
  9
$VISRETAIN
 70
     0
  9
$PLINEGEN
 70
     0
  9
$PSLTSCALE
 70
     0
  0
ENDSEC
  0
SECTION
  2
TABLES
  0
TABLE
  2
VPORT
 70
     1
  0
VPORT
  2
*ACTIVE
 70
     0
 10
0.0
 20
0.0
 11
1.0
 21
1.0
 12
118.6798176418135
 22
137.60198298404171
 13
0.0
 23
0.0
 14
5.0
 24
5.0
 15
5.0
 25
5.0
 16
0.0
 26
0.0
 36
1.0
 17
0.0
 27
0.0
 37
0.0
 40
283.63679273135898
 41
1.7807262569832401
 42
50.0
 43
0.0
 44
0.0
 50
0.0
 51
0.0
 71
     0
 72
   100
 73
     1
 74
     0
 75
     0
 76
     0
 77
     0
 78
     0
  0
ENDTAB
  0
TABLE
  2
LTYPE
 70
     3
  0
LTYPE
  2
CONTINUOUS
 70
     0
  3
Solid Line
 72
    65
 73
     0
 40
0.0
  0
LTYPE
  2
CENTER
 70
     0
  3
____ _ ____ _ ____ _ ____ _ ____ _ ____ _ ____
 72
    65
 73
     4
 40
2.0
 49
1.25
 49
-0.25
 49
0.25
 49
-0.25
  0
LTYPE
  2
PHANTOM2
 70
     0
  3
___ _ _ ___ _ _ ___ _ _ ___ _ _
 72
    65
 73
     6
 40
1.25
 49
0.625
 49
-0.125
 49
0.125
 49
-0.125
 49
0.125
 49
-0.125
  0
ENDTAB
  0
TABLE
  2
LAYER
 70
     3
  0
LAYER
  2
0
 70
     0
 62
     7
  6
CONTINUOUS
  0
LAYER
  2
1
 70
     0
 62
     1
  6
CENTER
  0
LAYER
  2
3
 70
     0
 62
     3
  6
CONTINUOUS
  0
ENDTAB
  0
TABLE
  2
STYLE
 70
     2
  0
STYLE
  2
STANDARD
 70
     0
 40
0.0
 41
1.0
 50
0.0
 71
     0
 42
4.0
  3
TXT
  4
BIGFONT
  0
STYLE
  2
STANDARD1
 70
     0
 40
0.0
 41
1.0
 50
0.0
 71
     0
 42
3.0
  3
txt
  4

  0
ENDTAB
  0
TABLE
  2
VIEW
 70
     1
  0
VIEW
  2
ALL
 70
     0
 40
179.66152299999999
 10
141.903918
 20
89.830760999999995
 41
0.0
 11
0.0
 21
0.0
 31
1.0
 12
0.0
 22
0.0
 32
0.0
 42
0.0
 43
0.0
 44
0.0
 50
0.0
 71
     0
  0
ENDTAB
  0
TABLE
  2
UCS
 70
     0
  0
ENDTAB
  0
TABLE
  2
APPID
 70
     4
  0
APPID
  2
ACAD
 70
     0
  0
APPID
  2
DCO15
 70
     0
  0
APPID
  2
ACAD_MLEADERVER
 70
     0
  0
APPID
  2
ACAD_NAV_VCDISPLAY
 70
     0
  0
ENDTAB
  0
TABLE
  2
DIMSTYLE
 70
     1
  0
DIMSTYLE
  2
STANDARD
 70
     0
  3

  4

  5

  6

  7

 40
1.0
 41
0.18
 42
0.0625
 43
0.38
 44
0.18
 45
0.0
 46
0.0
 47
0.0
 48
0.0
140
0.18
141
0.09
142
0.0
143
25.399999999999999
144
1.0
145
0.0
146
1.0
147
0.09
 71
     0
 72
     0
 73
     1
 74
     1
 75
     0
 76
     0
 77
     0
 78
     0
170
     0
171
     2
172
     0
173
     0
174
     0
175
     0
176
     0
177
     0
178
     0
  0
ENDTAB
  0
ENDSEC
  0
SECTION
  2
BLOCKS
  0
BLOCK
  8
0
  2
$MODEL_SPACE
 70
     0
 10
0.0
 20
0.0
 30
0.0
  3
$MODEL_SPACE
  1

  0
ENDBLK
  5
1BD
  8
0
  0
BLOCK
 67
     1
  8
0
  2
$PAPER_SPACE
 70
     0
 10
0.0
 20
0.0
 30
0.0
  3
$PAPER_SPACE
  1

  0
ENDBLK
  5
1BB
 67
     1
  8
0
  0
ENDSEC
  0
SECTION
  2
ENTITIES
  0
LINE
  5
502
  8
0
 10
81.661858812319863
 20
126.6711037069193
 30
0.0
 11
81.661858812319863
 21
130.6711037069193
 31
0.0
  0
LINE
  5
503
  8
0
 10
71.661858812319878
 20
130.6711037069193
 30
0.0
 11
71.661858812319878
 21
126.6711037069193
 31
0.0
  0
LINE
  5
50B
  8
0
 10
71.661858812319878
 20
126.6711037069193
 30
0.0
 11
81.661858812319863
 21
126.6711037069193
 31
0.0
  0
LINE
  5
511
  8
1
 10
76.661858812319878
 20
162.53814512593539
 30
0.0
 11
76.661858812319849
 21
96.671103706919354
 31
0.0
  0
LINE
  5
512
  8
0
 10
80.006918919194419
 20
157.6711037069193
 30
0.0
 11
73.316798705445336
 21
157.6711037069193
 31
0.0
  0
LINE
  5
52F
  8
0
 10
83.161858812319863
 20
130.6711037069193
 30
0.0
 11
70.161858812319863
 21
130.6711037069193
 31
0.0
  0
LINE
  5
535
  8
0
 10
143.22641264403339
 20
126.6711037069193
 30
0.0
 11
143.22641264403339
 21
130.6711037069193
 31
0.0
  0
LINE
  5
536
  8
0
 10
133.22641264403339
 20
130.6711037069193
 30
0.0
 11
133.22641264403339
 21
126.6711037069193
 31
0.0
  0
LINE
  5
53E
  8
0
 10
133.22641264403339
 20
126.6711037069193
 30
0.0
 11
143.22641264403339
 21
126.6711037069193
 31
0.0
  0
LINE
  5
544
  8
0
 10
178.22641264403339
 20
154.29578104123891
 30
0.0
 11
178.22641264403339
 21
155.16800624022869
 31
0.0
  0
LINE
  5
545
  8
0
 10
131.7164126440334
 20
145.50276042909539
 30
0.0
 11
131.7164126440334
 21
130.6711037069193
 31
0.0
  0
LINE
  5
546
  8
0
 10
144.7164126440334
 20
130.6711037069193
 30
0.0
 11
144.7164126440334
 21
141.135427234139
 31
0.0
  0
LINE
  5
549
  8
0
 10
173.53041999757599
 20
148.78422785312509
 30
0.0
 11
163.86406030531421
 21
146.04892377162651
 31
0.0
  0
LINE
  5
554
  8
0
 10
161.1412578349084
 20
145.6711037069193
 30
0.0
 11
156.1756339449509
 21
145.6711037069193
 31
0.0
  0
LINE
  5
555
  8
0
 10
144.7164126440334
 20
130.6711037069193
 30
0.0
 11
131.7164126440334
 21
130.6711037069193
 31
0.0
  0
LINE
  5
55A
  8
1
 10
138.22641264403339
 20
156.8511037069193
 30
0.0
 11
138.22641264403339
 21
96.671103706919354
 31
0.0
  0
LINE
  5
55E
  8
0
 10
234.3054687191169
 20
145.7146180476559
 30
0.0
 11
233.89537638175179
 21
148.8494396516528
 31
0.0
  0
LINE
  5
55F
  8
0
 10
234.4411472094626
 20
155.76165462913309
 30
0.0
 11
234.4411472094626
 21
145.6711037069193
 31
0.0
  0
LINE
  5
561
  8
0
 10
226.2781211472074
 20
155.76165462913309
 30
0.0
 11
226.2781211472074
 21
145.6711037069193
 31
0.0
  0
LINE
  5
563
  8
1
 10
230.359634178335
 20
162.53814512593539
 30
0.0
 11
230.359634178335
 21
96.671103706919354
 31
0.0
  0
LINE
  5
564
  8
0
 10
235.359634178335
 20
126.6711037069193
 30
0.0
 11
235.359634178335
 21
130.6711037069193
 31
0.0
  0
LINE
  5
565
  8
0
 10
225.359634178335
 20
130.6711037069193
 30
0.0
 11
225.359634178335
 21
126.6711037069193
 31
0.0
  0
LINE
  5
56A
  8
0
 10
225.359634178335
 20
126.6711037069193
 30
0.0
 11
235.359634178335
 21
126.6711037069193
 31
0.0
  0
LINE
  5
574
  8
0
 10
236.859634178335
 20
130.6711037069193
 30
0.0
 11
223.859634178335
 21
130.6711037069193
 31
0.0
  0
LINE
  5
575
  8
0
 10
226.45283752404879
 20
146.01303086547929
 30
0.0
 11
234.26643083262121
 21
146.01303086547929
 31
0.0
  0
LINE
  5
576
  8
0
 10
234.4445695003175
 20
145.6711037069193
 30
0.0
 11
226.2781211472074
 21
145.67110370691799
 31
0.0
  0
LINE
  5
583
  8
0
 10
233.70469428520951
 20
157.6711037069193
 30
0.0
 11
226.9955820404962
 21
157.6711037069193
 31
0.0
  0
LINE
  5
586
  8
0
 10
226.82389197491821
 20
148.8494396516528
 30
0.0
 11
233.89537638175179
 21
148.8494396516528
 31
0.0
  0
LINE
  5
587
  8
0
 10
226.859634178335
 20
157.48673745390681
 30
0.0
 11
226.859634178335
 21
149.21272738759239
 31
0.0
  0
LINE
  5
591
  8
0
 10
233.859634178335
 20
157.48673745390681
 30
0.0
 11
233.859634178335
 21
149.21272738759239
 31
0.0
  0
LINE
  5
59A
  8
0
 10
131.72641264403339
 20
198.1621053896227
 30
0.0
 11
131.72641264403339
 21
203.30793865547969
 31
0.0
  0
CIRCLE
  5
5B6
  8
0
 10
138.22641264403339
 20
53.683167254352128
 30
0.0
 40
6.5000000000000027
  0
LINE
  5
5C6
  8
1
 10
138.23641264403341
 20
212.73502202255119
 30
0.0
 11
138.23641264403341
 21
188.73502202255119
 31
0.0
  0
LINE
  5
5C7
  8
1
 10
183.2364156607787
 20
200.73502202255119
 30
0.0
 11
126.7264126440334
 21
200.73502202255119
 31
0.0
  0
LINE
  5
5CB
  8
1
 10
138.23641264403341
 20
65.682666357113817
 30
0.0
 11
138.23641264403341
 21
41.683668151590439
 31
0.0
  0
CIRCLE
  5
5CD
  8
0
 10
138.23641264403341
 20
53.683167254352128
 30
0.0
 40
4.989999999999994
  0
CIRCLE
  5
5E2
  8
0
 10
138.23641264403341
 20
53.683167254352128
 30
0.0
 40
2.5
  0
CIRCLE
  5
5E3
  8
3
 10
138.23641264403341
 20
53.683167254352128
 30
0.0
 40
2.1000000000000001
  0
LINE
  5
5E5
  8
1
 10
126.7264126440334
 20
53.683167254352128
 30
0.0
 11
183.2364156607787
 21
53.683167254352128
 31
0.0
  0
ARC
  5
62F
  8
0
 10
138.23641264403341
 20
200.73502202255119
 30
0.0
 40
7.0
 50
201.56518501524261
 51
308.53132429037919
  0
ARC
  5
630
  8
0
 10
138.23641264403341
 20
200.73502202255119
 30
0.0
 40
7.0
 50
51.468675709620783
 51
158.43481498475739
  0
ARC
  5
633
  8
0
 10
174.73641264403341
 20
200.73502202255119
 30
0.0
 40
3.5
 50
270.0
 51
90.0
  0
LINE
  5
636
  8
0
 10
159.02743340000649
 20
204.81653505367871
 30
0.0
 11
174.86535785450101
 21
204.23264594926161
 31
0.0
  0
LINE
  5
637
  8
0
 10
159.02743340000649
 20
196.65350899142371
 30
0.0
 11
174.73641264403341
 21
197.23502202255111
 31
0.0
  0
CIRCLE
  5
642
  8
0
 10
138.51879051646861
 20
200.73502202255119
 30
0.0
 40
4.6971000970094821
  0
ARC
  5
6CE
  8
0
 10
153.27214577173211
 20
234.24732698212159
 30
0.0
 40
30.0
 50
249.1551953734386
 51
281.16030063920113
  0
ARC
  5
6D0
  8
0
 10
153.27214577173211
 20
167.22271706298079
 30
0.0
 40
30.0
 50
78.839699360798974
 51
110.8448046265614
  0
LINE
  5
6E7
  8
0
 10
159.02743340000649
 20
57.764680285479642
 30
0.0
 11
174.86535785450101
 21
57.180791181062567
 31
0.0
  0
ARC
  5
6E8
  8
0
 10
174.73641264403341
 20
53.683167254352099
 30
0.0
 40
3.5
 50
270.0
 51
90.0
  0
ARC
  5
6E9
  8
0
 10
153.27214577173211
 20
87.195472213922471
 30
0.0
 40
30.0
 50
249.1551953734386
 51
281.16030063920113
  0
LINE
  5
6EA
  8
0
 10
159.02743340000649
 20
49.601654223224607
 30
0.0
 11
174.73641264403341
 21
50.183167254352099
 31
0.0
  0
ARC
  5
6EB
  8
0
 10
153.27214577173211
 20
20.170862294781791
 30
0.0
 40
30.0
 50
78.839699360798974
 51
110.8448046265614
  0
ARC
  5
6EC
  8
0
 10
138.23641264403341
 20
53.683167254352128
 30
0.0
 40
7.0
 50
201.56518501524261
 51
308.53132429037919
  0
ARC
  5
6ED
  8
0
 10
138.23641264403341
 20
53.683167254352128
 30
0.0
 40
7.0
 50
51.468675709620783
 51
158.43481498475739
  0
LINE
  5
6EE
  8
0
 10
131.72641264403339
 20
51.11025062142366
 30
0.0
 11
131.72641264403339
 21
56.256083887280617
 31
0.0
  0
ARC
  5
6F3
  8
0
 10
185.7994063268543
 20
8.0123580364786449
 30
0.0
 40
150.0
 50
93.915861512303536
 51
110.1986696099367
  0
ARC
  5
701
  8
0
 10
175.72641264403339
 20
155.16800624022869
 30
0.0
 40
2.5
 50
0.0
 51
93.915861512302882
  0
ARC
  5
702
  8
0
 10
135.2164126440334
 20
145.50276042909539
 30
0.0
 40
3.5
 50
110.198669609936
 51
180.0
  0
LINE
  5
703
  8
0
 10
82.146327046848683
 20
148.7875140698747
 30
0.0
 11
78.426391264531247
 21
148.7875140698747
 31
0.0
  0
LINE
  5
713
  8
0
 10
71.177390577791073
 20
148.7875140698747
 30
0.0
 11
74.897326360108508
 21
148.7875140698747
 31
0.0
  0
LINE
  5
716
  8
0
 10
80.746794134302348
 20
155.72884716488599
 30
0.0
 11
80.746794134302348
 21
153.25769383438751
 31
0.0
  0
ARC
  5
719
  8
0
 10
172.2375121166927
 20
154.64327122312591
 30
0.0
 40
6.0
 50
282.44396201272468
 51
356.51437909834618
  0
ARC
  5
71E
  8
0
 10
161.1412578349084
 20
155.6711037069193
 30
0.0
 40
10.0
 50
270.0
 51
285.80000000000001
  0
ARC
  5
726
  8
0
 10
175.06364569632279
 20
89.375931041942323
 30
0.0
 40
60.0
 50
112.1950152906777
 51
120.38362357021521
  0
ARC
  5
728
  8
0
 10
156.1756339449509
 20
135.6711037069193
 30
0.0
 40
10.0
 50
90.0
 51
112.1950152906778
  0
LINE
  5
72C
  8
0
 10
83.161858812319863
 20
130.6711037069193
 30
0.0
 11
83.661858812319878
 21
150.2685012150925
 31
0.0
  0
POLYLINE
  5
72D
  8
0
 10
82.146327046848697
 20
148.78751406987479
 30
0.0
 66
     1
 70
     8
  0
VERTEX
  8
0
  5
D10
 10
82.1463
 20
148.788
 30
0.000000
  70
    32
  0
VERTEX
  8
0
  5
D11
 10
82.1906
 20
148.807
 30
0.000000
  70
    32
  0
VERTEX
  8
0
  5
D12
 10
82.2342
 20
148.826
 30
0.000000
  70
    32
  0
VERTEX
  8
0
  5
D13
 10
82.2773
 20
148.846
 30
0.000000
  70
    32
  0
VERTEX
  8
0
  5
D14
 10
82.3198
 20
148.865
 30
0.000000
  70
    32
  0
VERTEX
  8
0
  5
D15
 10
82.3616
 20
148.885
 30
0.000000
  70
    32
  0
VERTEX
  8
0
  5
D16
 10
82.4029
 20
148.905
 30
0.000000
  70
    32
  0
VERTEX
  8
0
  5
D17
 10
82.4436
 20
148.925
 30
0.000000
  70
    32
  0
VERTEX
  8
0
  5
D18
 10
82.4837
 20
148.945
 30
0.000000
  70
    32
  0
VERTEX
  8
0
  5
D19
 10
82.5232
 20
148.966
 30
0.000000
  70
    32
  0
VERTEX
  8
0
  5
D1A
 10
82.5620
 20
148.986
 30
0.000000
  70
    32
  0
VERTEX
  8
0
  5
D1B
 10
82.6003
 20
149.007
 30
0.000000
  70
    32
  0
VERTEX
  8
0
  5
D1C
 10
82.6379
 20
149.027
 30
0.000000
  70
    32
  0
VERTEX
  8
0
  5
D1D
 10
82.6749
 20
149.048
 30
0.000000
  70
    32
  0
VERTEX
  8
0
  5
D1E
 10
82.7113
 20
149.069
 30
0.000000
  70
    32
  0
VERTEX
  8
0
  5
D1F
 10
82.7470
 20
149.090
 30
0.000000
  70
    32
  0
VERTEX
  8
0
  5
D20
 10
82.7821
 20
149.112
 30
0.000000
  70
    32
  0
VERTEX
  8
0
  5
D21
 10
82.8165
 20
149.133
 30
0.000000
  70
    32
  0
VERTEX
  8
0
  5
D22
 10
82.8503
 20
149.155
 30
0.000000
  70
    32
  0
VERTEX
  8
0
  5
D23
 10
82.8835
 20
149.176
 30
0.000000
  70
    32
  0
VERTEX
  8
0
  5
D24
 10
82.9160
 20
149.198
 30
0.000000
  70
    32
  0
VERTEX
  8
0
  5
D25
 10
82.9479
 20
149.220
 30
0.000000
  70
    32
  0
VERTEX
  8
0
  5
D26
 10
82.9790
 20
149.242
 30
0.000000
  70
    32
  0
VERTEX
  8
0
  5
D27
 10
83.0096
 20
149.264
 30
0.000000
  70
    32
  0
VERTEX
  8
0
  5
D28
 10
83.0394
 20
149.286
 30
0.000000
  70
    32
  0
VERTEX
  8
0
  5
D29
 10
83.0686
 20
149.308
 30
0.000000
  70
    32
  0
VERTEX
  8
0
  5
D2A
 10
83.0972
 20
149.331
 30
0.000000
  70
    32
  0
VERTEX
  8
0
  5
D2B
 10
83.1250
 20
149.353
 30
0.000000
  70
    32
  0
VERTEX
  8
0
  5
D2C
 10
83.1522
 20
149.376
 30
0.000000
  70
    32
  0
VERTEX
  8
0
  5
D2D
 10
83.1787
 20
149.398
 30
0.000000
  70
    32
  0
VERTEX
  8
0
  5
D2E
 10
83.2045
 20
149.421
 30
0.000000
  70
    32
  0
VERTEX
  8
0
  5
D2F
 10
83.2296
 20
149.444
 30
0.000000
  70
    32
  0
VERTEX
  8
0
  5
D30
 10
83.2541
 20
149.467
 30
0.000000
  70
    32
  0
VERTEX
  8
0
  5
D31
 10
83.2778
 20
149.490
 30
0.000000
  70
    32
  0
VERTEX
  8
0
  5
D32
 10
83.3009
 20
149.513
 30
0.000000
  70
    32
  0
VERTEX
  8
0
  5
D33
 10
83.3232
 20
149.536
 30
0.000000
  70
    32
  0
VERTEX
  8
0
  5
D34
 10
83.3449
 20
149.559
 30
0.000000
  70
    32
  0
VERTEX
  8
0
  5
D35
 10
83.3659
 20
149.583
 30
0.000000
  70
    32
  0
VERTEX
  8
0
  5
D36
 10
83.3861
 20
149.606
 30
0.000000
  70
    32
  0
VERTEX
  8
0
  5
D37
 10
83.4057
 20
149.630
 30
0.000000
  70
    32
  0
VERTEX
  8
0
  5
D38
 10
83.4245
 20
149.653
 30
0.000000
  70
    32
  0
VERTEX
  8
0
  5
D39
 10
83.4427
 20
149.677
 30
0.000000
  70
    32
  0
VERTEX
  8
0
  5
D3A
 10
83.4601
 20
149.700
 30
0.000000
  70
    32
  0
VERTEX
  8
0
  5
D3B
 10
83.4768
 20
149.724
 30
0.000000
  70
    32
  0
VERTEX
  8
0
  5
D3C
 10
83.4928
 20
149.748
 30
0.000000
  70
    32
  0
VERTEX
  8
0
  5
D3D
 10
83.5081
 20
149.772
 30
0.000000
  70
    32
  0
VERTEX
  8
0
  5
D3E
 10
83.5227
 20
149.796
 30
0.000000
  70
    32
  0
VERTEX
  8
0
  5
D3F
 10
83.5366
 20
149.820
 30
0.000000
  70
    32
  0
VERTEX
  8
0
  5
D40
 10
83.5497
 20
149.844
 30
0.000000
  70
    32
  0
VERTEX
  8
0
  5
D41
 10
83.5621
 20
149.868
 30
0.000000
  70
    32
  0
VERTEX
  8
0
  5
D42
 10
83.5738
 20
149.892
 30
0.000000
  70
    32
  0
VERTEX
  8
0
  5
D43
 10
83.5848
 20
149.916
 30
0.000000
  70
    32
  0
VERTEX
  8
0
  5
D44
 10
83.5950
 20
149.940
 30
0.000000
  70
    32
  0
VERTEX
  8
0
  5
D45
 10
83.6045
 20
149.964
 30
0.000000
  70
    32
  0
VERTEX
  8
0
  5
D46
 10
83.6133
 20
149.988
 30
0.000000
  70
    32
  0
VERTEX
  8
0
  5
D47
 10
83.6214
 20
150.013
 30
0.000000
  70
    32
  0
VERTEX
  8
0
  5
D48
 10
83.6287
 20
150.037
 30
0.000000
  70
    32
  0
VERTEX
  8
0
  5
D49
 10
83.6353
 20
150.061
 30
0.000000
  70
    32
  0
VERTEX
  8
0
  5
D4A
 10
83.6412
 20
150.085
 30
0.000000
  70
    32
  0
VERTEX
  8
0
  5
D4B
 10
83.6463
 20
150.110
 30
0.000000
  70
    32
  0
VERTEX
  8
0
  5
D4C
 10
83.6507
 20
150.134
 30
0.000000
  70
    32
  0
VERTEX
  8
0
  5
D4D
 10
83.6544
 20
150.158
 30
0.000000
  70
    32
  0
VERTEX
  8
0
  5
D4E
 10
83.6573
 20
150.183
 30
0.000000
  70
    32
  0
VERTEX
  8
0
  5
D4F
 10
83.6595
 20
150.207
 30
0.000000
  70
    32
  0
VERTEX
  8
0
  5
D50
 10
83.6610
 20
150.232
 30
0.000000
  70
    32
  0
VERTEX
  8
0
  5
D51
 10
83.6618
 20
150.256
 30
0.000000
  70
    32
  0
VERTEX
  8
0
  5
D52
 10
83.6618
 20
150.280
 30
0.000000
  70
    32
  0
VERTEX
  8
0
  5
D53
 10
83.6610
 20
150.305
 30
0.000000
  70
    32
  0
VERTEX
  8
0
  5
D54
 10
83.6596
 20
150.329
 30
0.000000
  70
    32
  0
VERTEX
  8
0
  5
D55
 10
83.6574
 20
150.354
 30
0.000000
  70
    32
  0
VERTEX
  8
0
  5
D56
 10
83.6545
 20
150.378
 30
0.000000
  70
    32
  0
VERTEX
  8
0
  5
D57
 10
83.6508
 20
150.402
 30
0.000000
  70
    32
  0
VERTEX
  8
0
  5
D58
 10
83.6464
 20
150.427
 30
0.000000
  70
    32
  0
VERTEX
  8
0
  5
D59
 10
83.6413
 20
150.451
 30
0.000000
  70
    32
  0
VERTEX
  8
0
  5
D5A
 10
83.6355
 20
150.475
 30
0.000000
  70
    32
  0
VERTEX
  8
0
  5
D5B
 10
83.6289
 20
150.500
 30
0.000000
  70
    32
  0
VERTEX
  8
0
  5
D5C
 10
83.6216
 20
150.524
 30
0.000000
  70
    32
  0
VERTEX
  8
0
  5
D5D
 10
83.6136
 20
150.548
 30
0.000000
  70
    32
  0
VERTEX
  8
0
  5
D5E
 10
83.6048
 20
150.572
 30
0.000000
  70
    32
  0
VERTEX
  8
0
  5
D5F
 10
83.5953
 20
150.596
 30
0.000000
  70
    32
  0
VERTEX
  8
0
  5
D60
 10
83.5851
 20
150.621
 30
0.000000
  70
    32
  0
VERTEX
  8
0
  5
D61
 10
83.5741
 20
150.645
 30
0.000000
  70
    32
  0
VERTEX
  8
0
  5
D62
 10
83.5625
 20
150.669
 30
0.000000
  70
    32
  0
VERTEX
  8
0
  5
D63
 10
83.5501
 20
150.693
 30
0.000000
  70
    32
  0
VERTEX
  8
0
  5
D64
 10
83.5370
 20
150.717
 30
0.000000
  70
    32
  0
VERTEX
  8
0
  5
D65
 10
83.5231
 20
150.741
 30
0.000000
  70
    32
  0
VERTEX
  8
0
  5
D66
 10
83.5086
 20
150.765
 30
0.000000
  70
    32
  0
VERTEX
  8
0
  5
D67
 10
83.4933
 20
150.788
 30
0.000000
  70
    32
  0
VERTEX
  8
0
  5
D68
 10
83.4773
 20
150.812
 30
0.000000
  70
    32
  0
VERTEX
  8
0
  5
D69
 10
83.4606
 20
150.836
 30
0.000000
  70
    32
  0
VERTEX
  8
0
  5
D6A
 10
83.4432
 20
150.860
 30
0.000000
  70
    32
  0
VERTEX
  8
0
  5
D6B
 10
83.4251
 20
150.883
 30
0.000000
  70
    32
  0
VERTEX
  8
0
  5
D6C
 10
83.4062
 20
150.907
 30
0.000000
  70
    32
  0
VERTEX
  8
0
  5
D6D
 10
83.3867
 20
150.930
 30
0.000000
  70
    32
  0
VERTEX
  8
0
  5
D6E
 10
83.3665
 20
150.954
 30
0.000000
  70
    32
  0
VERTEX
  8
0
  5
D6F
 10
83.3455
 20
150.977
 30
0.000000
  70
    32
  0
VERTEX
  8
0
  5
D70
 10
83.3239
 20
151.000
 30
0.000000
  70
    32
  0
VERTEX
  8
0
  5
D71
 10
83.3015
 20
151.023
 30
0.000000
  70
    32
  0
VERTEX
  8
0
  5
D72
 10
83.2785
 20
151.046
 30
0.000000
  70
    32
  0
VERTEX
  8
0
  5
D73
 10
83.2548
 20
151.069
 30
0.000000
  70
    32
  0
VERTEX
  8
0
  5
D74
 10
83.2304
 20
151.092
 30
0.000000
  70
    32
  0
VERTEX
  8
0
  5
D75
 10
83.2052
 20
151.115
 30
0.000000
  70
    32
  0
VERTEX
  8
0
  5
D76
 10
83.1795
 20
151.138
 30
0.000000
  70
    32
  0
VERTEX
  8
0
  5
D77
 10
83.1530
 20
151.161
 30
0.000000
  70
    32
  0
VERTEX
  8
0
  5
D78
 10
83.1258
 20
151.183
 30
0.000000
  70
    32
  0
VERTEX
  8
0
  5
D79
 10
83.0980
 20
151.206
 30
0.000000
  70
    32
  0
VERTEX
  8
0
  5
D7A
 10
83.0695
 20
151.228
 30
0.000000
  70
    32
  0
VERTEX
  8
0
  5
D7B
 10
83.0403
 20
151.250
 30
0.000000
  70
    32
  0
VERTEX
  8
0
  5
D7C
 10
83.0105
 20
151.272
 30
0.000000
  70
    32
  0
VERTEX
  8
0
  5
D7D
 10
82.9799
 20
151.295
 30
0.000000
  70
    32
  0
VERTEX
  8
0
  5
D7E
 10
82.9488
 20
151.317
 30
0.000000
  70
    32
  0
VERTEX
  8
0
  5
D7F
 10
82.9169
 20
151.338
 30
0.000000
  70
    32
  0
VERTEX
  8
0
  5
D80
 10
82.8844
 20
151.360
 30
0.000000
  70
    32
  0
VERTEX
  8
0
  5
D81
 10
82.8513
 20
151.382
 30
0.000000
  70
    32
  0
VERTEX
  8
0
  5
D82
 10
82.8175
 20
151.403
 30
0.000000
  70
    32
  0
VERTEX
  8
0
  5
D83
 10
82.7831
 20
151.425
 30
0.000000
  70
    32
  0
VERTEX
  8
0
  5
D84
 10
82.7480
 20
151.446
 30
0.000000
  70
    32
  0
VERTEX
  8
0
  5
D85
 10
82.7123
 20
151.467
 30
0.000000
  70
    32
  0
VERTEX
  8
0
  5
D86
 10
82.6760
 20
151.488
 30
0.000000
  70
    32
  0
VERTEX
  8
0
  5
D87
 10
82.6390
 20
151.509
 30
0.000000
  70
    32
  0
VERTEX
  8
0
  5
D88
 10
82.6014
 20
151.530
 30
0.000000
  70
    32
  0
VERTEX
  8
0
  5
D89
 10
82.5632
 20
151.550
 30
0.000000
  70
    32
  0
VERTEX
  8
0
  5
D8A
 10
82.5243
 20
151.571
 30
0.000000
  70
    32
  0
VERTEX
  8
0
  5
D8B
 10
82.4849
 20
151.591
 30
0.000000
  70
    32
  0
VERTEX
  8
0
  5
D8C
 10
82.4448
 20
151.611
 30
0.000000
  70
    32
  0
VERTEX
  8
0
  5
D8D
 10
82.4041
 20
151.632
 30
0.000000
  70
    32
  0
VERTEX
  8
0
  5
D8E
 10
82.3629
 20
151.651
 30
0.000000
  70
    32
  0
VERTEX
  8
0
  5
D8F
 10
82.3210
 20
151.671
 30
0.000000
  70
    32
  0
VERTEX
  8
0
  5
D90
 10
82.2785
 20
151.691
 30
0.000000
  70
    32
  0
SEQEND
  8
0
  5
D91
  0
LINE
  5
72F
  8
0
 10
70.161858812319863
 20
130.6711037069193
 30
0.0
 11
69.661858812319878
 21
150.2685012150925
 31
0.0
  0
ARC
  5
734
  8
0
 10
81.761543457872392
 20
154.5356209448251
 30
0.0
 40
1.5
 50
135.62248582632071
 51
194.54190412830249
  0
ARC
  5
76A
  8
0
 10
87.860896601261032
 20
158.7504334451186
 30
0.0
 40
9.0
 50
219.44968032693691
 51
231.6645676099084
  0
ARC
  5
76B
  8
0
 10
84.985220140791796
 20
155.93058393639691
 30
0.0
 40
5.0
 50
200.75171325611291
 51
215.43300582698109
  0
LINE
  5
771
  8
0
 10
80.191704261872957
 20
157.54761760847441
 30
0.0
 11
80.453598085465387
 21
156.91512940758079
 31
0.0
  0
LINE
  5
772
  8
0
 10
80.453598085465387
 20
156.91512940758079
 30
0.0
 11
80.740445980211348
 21
155.77330133403649
 31
0.0
  0
ARC
  5
775
  8
0
 10
80.546473203124606
 20
155.72457185887771
 30
0.0
 40
0.2
 50
315.62248582632043
 51
14.10191193147306
  0
ARC
  5
776
  8
0
 10
80.006918919194419
 20
157.47110370691931
 30
0.0
 40
0.2
 50
22.492934975536091
 51
90.0
  0
LINE
  5
786
  8
0
 10
72.870119539174368
 20
156.91512940758079
 30
0.0
 11
72.583271644428407
 21
155.77330133403649
 31
0.0
  0
ARC
  5
787
  8
0
 10
68.338497483847959
 20
155.93058393639691
 30
0.0
 40
5.0
 50
324.56699417301888
 51
339.24828674388721
  0
LINE
  5
788
  8
0
 10
72.576923490337407
 20
155.72884716488599
 30
0.0
 11
72.576923490337407
 21
153.25769383438751
 31
0.0
  0
ARC
  5
789
  8
0
 10
72.777244421515149
 20
155.72457185887771
 30
0.0
 40
0.2
 50
165.8980880685269
 51
224.37751417367971
  0
ARC
  5
78A
  8
0
 10
71.562174166767363
 20
154.5356209448251
 30
0.0
 40
1.5
 50
345.45809587169748
 51
44.377514173679231
  0
LINE
  5
78B
  8
0
 10
73.132013362766799
 20
157.54761760847441
 30
0.0
 11
72.870119539174368
 21
156.91512940758079
 31
0.0
  0
ARC
  5
78C
  8
0
 10
73.316798705445336
 20
157.47110370691931
 30
0.0
 40
0.2
 50
90.0
 51
157.50706502446391
  0
ARC
  5
78D
  8
0
 10
65.462821023378723
 20
158.7504334451186
 30
0.0
 40
9.0
 50
308.33543239009163
 51
320.55031967306309
  0
POLYLINE
  5
78E
  8
0
 10
71.177390577791058
 20
148.78751406987479
 30
0.0
 66
     1
 70
     8
  0
VERTEX
  8
0
  5
D92
 10
71.1774
 20
148.788
 30
0.000000
  70
    32
  0
VERTEX
  8
0
  5
D93
 10
71.1332
 20
148.807
 30
0.000000
  70
    32
  0
VERTEX
  8
0
  5
D94
 10
71.0895
 20
148.826
 30
0.000000
  70
    32
  0
VERTEX
  8
0
  5
D95
 10
71.0464
 20
148.846
 30
0.000000
  70
    32
  0
VERTEX
  8
0
  5
D96
 10
71.0040
 20
148.865
 30
0.000000
  70
    32
  0
VERTEX
  8
0
  5
D97
 10
70.9621
 20
148.885
 30
0.000000
  70
    32
  0
VERTEX
  8
0
  5
D98
 10
70.9208
 20
148.905
 30
0.000000
  70
    32
  0
VERTEX
  8
0
  5
D99
 10
70.8801
 20
148.925
 30
0.000000
  70
    32
  0
VERTEX
  8
0
  5
D9A
 10
70.8400
 20
148.945
 30
0.000000
  70
    32
  0
VERTEX
  8
0
  5
D9B
 10
70.8005
 20
148.966
 30
0.000000
  70
    32
  0
VERTEX
  8
0
  5
D9C
 10
70.7617
 20
148.986
 30
0.000000
  70
    32
  0
VERTEX
  8
0
  5
D9D
 10
70.7234
 20
149.007
 30
0.000000
  70
    32
  0
VERTEX
  8
0
  5
D9E
 10
70.6858
 20
149.027
 30
0.000000
  70
    32
  0
VERTEX
  8
0
  5
D9F
 10
70.6488
 20
149.048
 30
0.000000
  70
    32
  0
VERTEX
  8
0
  5
DA0
 10
70.6125
 20
149.069
 30
0.000000
  70
    32
  0
VERTEX
  8
0
  5
DA1
 10
70.5767
 20
149.090
 30
0.000000
  70
    32
  0
VERTEX
  8
0
  5
DA2
 10
70.5416
 20
149.112
 30
0.000000
  70
    32
  0
VERTEX
  8
0
  5
DA3
 10
70.5072
 20
149.133
 30
0.000000
  70
    32
  0
VERTEX
  8
0
  5
DA4
 10
70.4734
 20
149.155
 30
0.000000
  70
    32
  0
VERTEX
  8
0
  5
DA5
 10
70.4402
 20
149.176
 30
0.000000
  70
    32
  0
VERTEX
  8
0
  5
DA6
 10
70.4077
 20
149.198
 30
0.000000
  70
    32
  0
VERTEX
  8
0
  5
DA7
 10
70.3759
 20
149.220
 30
0.000000
  70
    32
  0
VERTEX
  8
0
  5
DA8
 10
70.3447
 20
149.242
 30
0.000000
  70
    32
  0
VERTEX
  8
0
  5
DA9
 10
70.3141
 20
149.264
 30
0.000000
  70
    32
  0
VERTEX
  8
0
  5
DAA
 10
70.2843
 20
149.286
 30
0.000000
  70
    32
  0
VERTEX
  8
0
  5
DAB
 10
70.2551
 20
149.308
 30
0.000000
  70
    32
  0
VERTEX
  8
0
  5
DAC
 10
70.2265
 20
149.331
 30
0.000000
  70
    32
  0
VERTEX
  8
0
  5
DAD
 10
70.1987
 20
149.353
 30
0.000000
  70
    32
  0
VERTEX
  8
0
  5
DAE
 10
70.1715
 20
149.376
 30
0.000000
  70
    32
  0
VERTEX
  8
0
  5
DAF
 10
70.1450
 20
149.398
 30
0.000000
  70
    32
  0
VERTEX
  8
0
  5
DB0
 10
70.1192
 20
149.421
 30
0.000000
  70
    32
  0
VERTEX
  8
0
  5
DB1
 10
70.0941
 20
149.444
 30
0.000000
  70
    32
  0
VERTEX
  8
0
  5
DB2
 10
70.0696
 20
149.467
 30
0.000000
  70
    32
  0
VERTEX
  8
0
  5
DB3
 10
70.0459
 20
149.490
 30
0.000000
  70
    32
  0
VERTEX
  8
0
  5
DB4
 10
70.0228
 20
149.513
 30
0.000000
  70
    32
  0
VERTEX
  8
0
  5
DB5
 10
70.0005
 20
149.536
 30
0.000000
  70
    32
  0
VERTEX
  8
0
  5
DB6
 10
69.9788
 20
149.559
 30
0.000000
  70
    32
  0
VERTEX
  8
0
  5
DB7
 10
69.9578
 20
149.583
 30
0.000000
  70
    32
  0
VERTEX
  8
0
  5
DB8
 10
69.9376
 20
149.606
 30
0.000000
  70
    32
  0
VERTEX
  8
0
  5
DB9
 10
69.9180
 20
149.630
 30
0.000000
  70
    32
  0
VERTEX
  8
0
  5
DBA
 10
69.8992
 20
149.653
 30
0.000000
  70
    32
  0
VERTEX
  8
0
  5
DBB
 10
69.8810
 20
149.677
 30
0.000000
  70
    32
  0
VERTEX
  8
0
  5
DBC
 10
69.8636
 20
149.700
 30
0.000000
  70
    32
  0
VERTEX
  8
0
  5
DBD
 10
69.8469
 20
149.724
 30
0.000000
  70
    32
  0
VERTEX
  8
0
  5
DBE
 10
69.8309
 20
149.748
 30
0.000000
  70
    32
  0
VERTEX
  8
0
  5
DBF
 10
69.8156
 20
149.772
 30
0.000000
  70
    32
  0
VERTEX
  8
0
  5
DC0
 10
69.8010
 20
149.796
 30
0.000000
  70
    32
  0
VERTEX
  8
0
  5
DC1
 10
69.7872
 20
149.820
 30
0.000000
  70
    32
  0
VERTEX
  8
0
  5
DC2
 10
69.7740
 20
149.844
 30
0.000000
  70
    32
  0
VERTEX
  8
0
  5
DC3
 10
69.7616
 20
149.868
 30
0.000000
  70
    32
  0
VERTEX
  8
0
  5
DC4
 10
69.7499
 20
149.892
 30
0.000000
  70
    32
  0
VERTEX
  8
0
  5
DC5
 10
69.7390
 20
149.916
 30
0.000000
  70
    32
  0
VERTEX
  8
0
  5
DC6
 10
69.7287
 20
149.940
 30
0.000000
  70
    32
  0
VERTEX
  8
0
  5
DC7
 10
69.7192
 20
149.964
 30
0.000000
  70
    32
  0
VERTEX
  8
0
  5
DC8
 10
69.7104
 20
149.988
 30
0.000000
  70
    32
  0
VERTEX
  8
0
  5
DC9
 10
69.7024
 20
150.013
 30
0.000000
  70
    32
  0
VERTEX
  8
0
  5
DCA
 10
69.6950
 20
150.037
 30
0.000000
  70
    32
  0
VERTEX
  8
0
  5
DCB
 10
69.6884
 20
150.061
 30
0.000000
  70
    32
  0
VERTEX
  8
0
  5
DCC
 10
69.6826
 20
150.085
 30
0.000000
  70
    32
  0
VERTEX
  8
0
  5
DCD
 10
69.6774
 20
150.110
 30
0.000000
  70
    32
  0
VERTEX
  8
0
  5
DCE
 10
69.6730
 20
150.134
 30
0.000000
  70
    32
  0
VERTEX
  8
0
  5
DCF
 10
69.6693
 20
150.158
 30
0.000000
  70
    32
  0
VERTEX
  8
0
  5
DD0
 10
69.6664
 20
150.183
 30
0.000000
  70
    32
  0
VERTEX
  8
0
  5
DD1
 10
69.6642
 20
150.207
 30
0.000000
  70
    32
  0
VERTEX
  8
0
  5
DD2
 10
69.6627
 20
150.232
 30
0.000000
  70
    32
  0
VERTEX
  8
0
  5
DD3
 10
69.6620
 20
150.256
 30
0.000000
  70
    32
  0
VERTEX
  8
0
  5
DD4
 10
69.6619
 20
150.280
 30
0.000000
  70
    32
  0
VERTEX
  8
0
  5
DD5
 10
69.6627
 20
150.305
 30
0.000000
  70
    32
  0
VERTEX
  8
0
  5
DD6
 10
69.6641
 20
150.329
 30
0.000000
  70
    32
  0
VERTEX
  8
0
  5
DD7
 10
69.6663
 20
150.354
 30
0.000000
  70
    32
  0
VERTEX
  8
0
  5
DD8
 10
69.6692
 20
150.378
 30
0.000000
  70
    32
  0
VERTEX
  8
0
  5
DD9
 10
69.6729
 20
150.402
 30
0.000000
  70
    32
  0
VERTEX
  8
0
  5
DDA
 10
69.6773
 20
150.427
 30
0.000000
  70
    32
  0
VERTEX
  8
0
  5
DDB
 10
69.6824
 20
150.451
 30
0.000000
  70
    32
  0
VERTEX
  8
0
  5
DDC
 10
69.6882
 20
150.475
 30
0.000000
  70
    32
  0
VERTEX
  8
0
  5
DDD
 10
69.6948
 20
150.500
 30
0.000000
  70
    32
  0
VERTEX
  8
0
  5
DDE
 10
69.7021
 20
150.524
 30
0.000000
  70
    32
  0
VERTEX
  8
0
  5
DDF
 10
69.7102
 20
150.548
 30
0.000000
  70
    32
  0
VERTEX
  8
0
  5
DE0
 10
69.7189
 20
150.572
 30
0.000000
  70
    32
  0
VERTEX
  8
0
  5
DE1
 10
69.7284
 20
150.596
 30
0.000000
  70
    32
  0
VERTEX
  8
0
  5
DE2
 10
69.7386
 20
150.621
 30
0.000000
  70
    32
  0
VERTEX
  8
0
  5
DE3
 10
69.7496
 20
150.645
 30
0.000000
  70
    32
  0
VERTEX
  8
0
  5
DE4
 10
69.7613
 20
150.669
 30
0.000000
  70
    32
  0
VERTEX
  8
0
  5
DE5
 10
69.7737
 20
150.693
 30
0.000000
  70
    32
  0
VERTEX
  8
0
  5
DE6
 10
69.7868
 20
150.717
 30
0.000000
  70
    32
  0
VERTEX
  8
0
  5
DE7
 10
69.8006
 20
150.741
 30
0.000000
  70
    32
  0
VERTEX
  8
0
  5
DE8
 10
69.8152
 20
150.765
 30
0.000000
  70
    32
  0
VERTEX
  8
0
  5
DE9
 10
69.8304
 20
150.788
 30
0.000000
  70
    32
  0
VERTEX
  8
0
  5
DEA
 10
69.8464
 20
150.812
 30
0.000000
  70
    32
  0
VERTEX
  8
0
  5
DEB
 10
69.8631
 20
150.836
 30
0.000000
  70
    32
  0
VERTEX
  8
0
  5
DEC
 10
69.8805
 20
150.860
 30
0.000000
  70
    32
  0
VERTEX
  8
0
  5
DED
 10
69.8986
 20
150.883
 30
0.000000
  70
    32
  0
VERTEX
  8
0
  5
DEE
 10
69.9175
 20
150.907
 30
0.000000
  70
    32
  0
VERTEX
  8
0
  5
DEF
 10
69.9370
 20
150.930
 30
0.000000
  70
    32
  0
VERTEX
  8
0
  5
DF0
 10
69.9572
 20
150.954
 30
0.000000
  70
    32
  0
VERTEX
  8
0
  5
DF1
 10
69.9782
 20
150.977
 30
0.000000
  70
    32
  0
VERTEX
  8
0
  5
DF2
 10
69.9998
 20
151.000
 30
0.000000
  70
    32
  0
VERTEX
  8
0
  5
DF3
 10
70.0222
 20
151.023
 30
0.000000
  70
    32
  0
VERTEX
  8
0
  5
DF4
 10
70.0452
 20
151.046
 30
0.000000
  70
    32
  0
VERTEX
  8
0
  5
DF5
 10
70.0689
 20
151.069
 30
0.000000
  70
    32
  0
VERTEX
  8
0
  5
DF6
 10
70.0934
 20
151.092
 30
0.000000
  70
    32
  0
VERTEX
  8
0
  5
DF7
 10
70.1185
 20
151.115
 30
0.000000
  70
    32
  0
VERTEX
  8
0
  5
DF8
 10
70.1443
 20
151.138
 30
0.000000
  70
    32
  0
VERTEX
  8
0
  5
DF9
 10
70.1707
 20
151.161
 30
0.000000
  70
    32
  0
VERTEX
  8
0
  5
DFA
 10
70.1979
 20
151.183
 30
0.000000
  70
    32
  0
VERTEX
  8
0
  5
DFB
 10
70.2257
 20
151.206
 30
0.000000
  70
    32
  0
VERTEX
  8
0
  5
DFC
 10
70.2542
 20
151.228
 30
0.000000
  70
    32
  0
VERTEX
  8
0
  5
DFD
 10
70.2834
 20
151.250
 30
0.000000
  70
    32
  0
VERTEX
  8
0
  5
DFE
 10
70.3133
 20
151.272
 30
0.000000
  70
    32
  0
VERTEX
  8
0
  5
DFF
 10
70.3438
 20
151.295
 30
0.000000
  70
    32
  0
VERTEX
  8
0
  5
E00
 10
70.3749
 20
151.317
 30
0.000000
  70
    32
  0
VERTEX
  8
0
  5
E01
 10
70.4068
 20
151.338
 30
0.000000
  70
    32
  0
VERTEX
  8
0
  5
E02
 10
70.4393
 20
151.360
 30
0.000000
  70
    32
  0
VERTEX
  8
0
  5
E03
 10
70.4724
 20
151.382
 30
0.000000
  70
    32
  0
VERTEX
  8
0
  5
E04
 10
70.5062
 20
151.403
 30
0.000000
  70
    32
  0
VERTEX
  8
0
  5
E05
 10
70.5406
 20
151.425
 30
0.000000
  70
    32
  0
VERTEX
  8
0
  5
E06
 10
70.5757
 20
151.446
 30
0.000000
  70
    32
  0
VERTEX
  8
0
  5
E07
 10
70.6114
 20
151.467
 30
0.000000
  70
    32
  0
VERTEX
  8
0
  5
E08
 10
70.6478
 20
151.488
 30
0.000000
  70
    32
  0
VERTEX
  8
0
  5
E09
 10
70.6847
 20
151.509
 30
0.000000
  70
    32
  0
VERTEX
  8
0
  5
E0A
 10
70.7223
 20
151.530
 30
0.000000
  70
    32
  0
VERTEX
  8
0
  5
E0B
 10
70.7606
 20
151.550
 30
0.000000
  70
    32
  0
VERTEX
  8
0
  5
E0C
 10
70.7994
 20
151.571
 30
0.000000
  70
    32
  0
VERTEX
  8
0
  5
E0D
 10
70.8389
 20
151.591
 30
0.000000
  70
    32
  0
VERTEX
  8
0
  5
E0E
 10
70.8789
 20
151.611
 30
0.000000
  70
    32
  0
VERTEX
  8
0
  5
E0F
 10
70.9196
 20
151.632
 30
0.000000
  70
    32
  0
VERTEX
  8
0
  5
E10
 10
70.9609
 20
151.651
 30
0.000000
  70
    32
  0
VERTEX
  8
0
  5
E11
 10
71.0027
 20
151.671
 30
0.000000
  70
    32
  0
VERTEX
  8
0
  5
E12
 10
71.0452
 20
151.691
 30
0.000000
  70
    32
  0
SEQEND
  8
0
  5
E13
  0
LINE
  5
9BE
  8
0
 10
233.8654262561536
 20
149.140976079425
 30
0.0
 11
233.8450920991975
 21
149.39287227415349
 31
0.0
  0
ARC
  5
A0C
  8
0
 10
230.359634178335
 20
156.6535114310237
 30
0.0
 40
1.0
 50
235.76817851301581
 51
304.2318214869839
  0
LINE
  5
A4C
  8
0
 10
226.56789490518949
 20
156.91512940758079
 30
0.0
 11
226.28104701044359
 21
155.77330133403649
 31
0.0
  0
LINE
  5
A51
  8
0
 10
226.82978872878189
 20
157.54761760847441
 30
0.0
 11
226.56789490518949
 21
156.91512940758079
 31
0.0
  0
LINE
  5
A53
  8
0
 10
234.15137345148051
 20
156.91512940758079
 30
0.0
 11
234.43822134622641
 21
155.77330133403649
 31
0.0
  0
ARC
  5
A58
  8
0
 10
233.70469428520951
 20
157.47110370691931
 30
0.0
 40
0.2
 50
22.492934975536091
 51
90.0
  0
LINE
  5
A59
  8
0
 10
233.88947962788811
 20
157.54761760847441
 30
0.0
 11
234.15137345148051
 21
156.91512940758079
 31
0.0
  0
ARC
  5
A63
  8
0
 10
233.74166813822021
 20
157.2728162049894
 30
0.0
 40
0.4
 50
95.303685279422695
 51
111.7307513085735
  0
LINE
  5
A66
  8
0
 10
233.5935699861364
 20
157.6443898011307
 30
0.0
 11
230.93337038169139
 21
155.83435938673469
 31
0.0
  0
LINE
  5
A67
  8
0
 10
227.1256983705336
 20
157.6443898011307
 30
0.0
 11
229.78589797497861
 21
155.83435938673469
 31
0.0
  0
ARC
  5
A68
  8
0
 10
226.97760021844979
 20
157.2728162049894
 30
0.0
 40
0.4
 50
68.269248691426469
 51
84.696314720577305
  0
ARC
  5
A69
  8
0
 10
227.01457407146049
 20
157.47110370691931
 30
0.0
 40
0.2
 50
90.0
 51
157.50706502446391
  0
POLYLINE
  5
A84
  8
0
 10
230.95291006006977
 20
153.93450662381915
 30
0.0
 66
     1
 70
     8
  0
VERTEX
  8
0
  5
E14
 10
230.953
 20
153.935
 30
0.000000
  70
    32
  0
VERTEX
  8
0
  5
E15
 10
230.945
 20
153.945
 30
0.000000
  70
    32
  0
VERTEX
  8
0
  5
E16
 10
230.938
 20
153.956
 30
0.000000
  70
    32
  0
VERTEX
  8
0
  5
E17
 10
230.930
 20
153.966
 30
0.000000
  70
    32
  0
VERTEX
  8
0
  5
E18
 10
230.922
 20
153.976
 30
0.000000
  70
    32
  0
VERTEX
  8
0
  5
E19
 10
230.915
 20
153.987
 30
0.000000
  70
    32
  0
VERTEX
  8
0
  5
E1A
 10
230.907
 20
153.997
 30
0.000000
  70
    32
  0
VERTEX
  8
0
  5
E1B
 10
230.899
 20
154.006
 30
0.000000
  70
    32
  0
VERTEX
  8
0
  5
E1C
 10
230.891
 20
154.016
 30
0.000000
  70
    32
  0
VERTEX
  8
0
  5
E1D
 10
230.883
 20
154.026
 30
0.000000
  70
    32
  0
VERTEX
  8
0
  5
E1E
 10
230.874
 20
154.035
 30
0.000000
  70
    32
  0
VERTEX
  8
0
  5
E1F
 10
230.866
 20
154.044
 30
0.000000
  70
    32
  0
VERTEX
  8
0
  5
E20
 10
230.858
 20
154.053
 30
0.000000
  70
    32
  0
VERTEX
  8
0
  5
E21
 10
230.849
 20
154.062
 30
0.000000
  70
    32
  0
VERTEX
  8
0
  5
E22
 10
230.841
 20
154.071
 30
0.000000
  70
    32
  0
VERTEX
  8
0
  5
E23
 10
230.832
 20
154.080
 30
0.000000
  70
    32
  0
VERTEX
  8
0
  5
E24
 10
230.824
 20
154.088
 30
0.000000
  70
    32
  0
VERTEX
  8
0
  5
E25
 10
230.815
 20
154.097
 30
0.000000
  70
    32
  0
VERTEX
  8
0
  5
E26
 10
230.806
 20
154.105
 30
0.000000
  70
    32
  0
VERTEX
  8
0
  5
E27
 10
230.798
 20
154.113
 30
0.000000
  70
    32
  0
VERTEX
  8
0
  5
E28
 10
230.789
 20
154.121
 30
0.000000
  70
    32
  0
VERTEX
  8
0
  5
E29
 10
230.780
 20
154.128
 30
0.000000
  70
    32
  0
VERTEX
  8
0
  5
E2A
 10
230.771
 20
154.136
 30
0.000000
  70
    32
  0
VERTEX
  8
0
  5
E2B
 10
230.762
 20
154.143
 30
0.000000
  70
    32
  0
VERTEX
  8
0
  5
E2C
 10
230.753
 20
154.151
 30
0.000000
  70
    32
  0
VERTEX
  8
0
  5
E2D
 10
230.744
 20
154.158
 30
0.000000
  70
    32
  0
VERTEX
  8
0
  5
E2E
 10
230.734
 20
154.164
 30
0.000000
  70
    32
  0
VERTEX
  8
0
  5
E2F
 10
230.725
 20
154.171
 30
0.000000
  70
    32
  0
VERTEX
  8
0
  5
E30
 10
230.716
 20
154.178
 30
0.000000
  70
    32
  0
VERTEX
  8
0
  5
E31
 10
230.707
 20
154.184
 30
0.000000
  70
    32
  0
VERTEX
  8
0
  5
E32
 10
230.697
 20
154.190
 30
0.000000
  70
    32
  0
VERTEX
  8
0
  5
E33
 10
230.688
 20
154.196
 30
0.000000
  70
    32
  0
VERTEX
  8
0
  5
E34
 10
230.678
 20
154.202
 30
0.000000
  70
    32
  0
VERTEX
  8
0
  5
E35
 10
230.669
 20
154.208
 30
0.000000
  70
    32
  0
VERTEX
  8
0
  5
E36
 10
230.659
 20
154.213
 30
0.000000
  70
    32
  0
VERTEX
  8
0
  5
E37
 10
230.650
 20
154.219
 30
0.000000
  70
    32
  0
VERTEX
  8
0
  5
E38
 10
230.640
 20
154.224
 30
0.000000
  70
    32
  0
VERTEX
  8
0
  5
E39
 10
230.630
 20
154.229
 30
0.000000
  70
    32
  0
VERTEX
  8
0
  5
E3A
 10
230.621
 20
154.234
 30
0.000000
  70
    32
  0
VERTEX
  8
0
  5
E3B
 10
230.611
 20
154.238
 30
0.000000
  70
    32
  0
VERTEX
  8
0
  5
E3C
 10
230.601
 20
154.243
 30
0.000000
  70
    32
  0
VERTEX
  8
0
  5
E3D
 10
230.591
 20
154.247
 30
0.000000
  70
    32
  0
VERTEX
  8
0
  5
E3E
 10
230.581
 20
154.251
 30
0.000000
  70
    32
  0
VERTEX
  8
0
  5
E3F
 10
230.572
 20
154.255
 30
0.000000
  70
    32
  0
VERTEX
  8
0
  5
E40
 10
230.562
 20
154.259
 30
0.000000
  70
    32
  0
VERTEX
  8
0
  5
E41
 10
230.552
 20
154.263
 30
0.000000
  70
    32
  0
VERTEX
  8
0
  5
E42
 10
230.542
 20
154.266
 30
0.000000
  70
    32
  0
VERTEX
  8
0
  5
E43
 10
230.532
 20
154.269
 30
0.000000
  70
    32
  0
VERTEX
  8
0
  5
E44
 10
230.522
 20
154.272
 30
0.000000
  70
    32
  0
VERTEX
  8
0
  5
E45
 10
230.512
 20
154.275
 30
0.000000
  70
    32
  0
VERTEX
  8
0
  5
E46
 10
230.502
 20
154.278
 30
0.000000
  70
    32
  0
VERTEX
  8
0
  5
E47
 10
230.492
 20
154.280
 30
0.000000
  70
    32
  0
VERTEX
  8
0
  5
E48
 10
230.482
 20
154.282
 30
0.000000
  70
    32
  0
VERTEX
  8
0
  5
E49
 10
230.471
 20
154.285
 30
0.000000
  70
    32
  0
VERTEX
  8
0
  5
E4A
 10
230.461
 20
154.287
 30
0.000000
  70
    32
  0
VERTEX
  8
0
  5
E4B
 10
230.451
 20
154.288
 30
0.000000
  70
    32
  0
VERTEX
  8
0
  5
E4C
 10
230.441
 20
154.290
 30
0.000000
  70
    32
  0
VERTEX
  8
0
  5
E4D
 10
230.431
 20
154.291
 30
0.000000
  70
    32
  0
VERTEX
  8
0
  5
E4E
 10
230.421
 20
154.292
 30
0.000000
  70
    32
  0
VERTEX
  8
0
  5
E4F
 10
230.411
 20
154.293
 30
0.000000
  70
    32
  0
VERTEX
  8
0
  5
E50
 10
230.400
 20
154.294
 30
0.000000
  70
    32
  0
VERTEX
  8
0
  5
E51
 10
230.390
 20
154.295
 30
0.000000
  70
    32
  0
VERTEX
  8
0
  5
E52
 10
230.380
 20
154.295
 30
0.000000
  70
    32
  0
VERTEX
  8
0
  5
E53
 10
230.370
 20
154.296
 30
0.000000
  70
    32
  0
VERTEX
  8
0
  5
E54
 10
230.360
 20
154.296
 30
0.000000
  70
    32
  0
VERTEX
  8
0
  5
E55
 10
230.349
 20
154.296
 30
0.000000
  70
    32
  0
VERTEX
  8
0
  5
E56
 10
230.339
 20
154.295
 30
0.000000
  70
    32
  0
VERTEX
  8
0
  5
E57
 10
230.329
 20
154.295
 30
0.000000
  70
    32
  0
VERTEX
  8
0
  5
E58
 10
230.319
 20
154.294
 30
0.000000
  70
    32
  0
VERTEX
  8
0
  5
E59
 10
230.309
 20
154.293
 30
0.000000
  70
    32
  0
VERTEX
  8
0
  5
E5A
 10
230.299
 20
154.292
 30
0.000000
  70
    32
  0
VERTEX
  8
0
  5
E5B
 10
230.288
 20
154.291
 30
0.000000
  70
    32
  0
VERTEX
  8
0
  5
E5C
 10
230.278
 20
154.290
 30
0.000000
  70
    32
  0
VERTEX
  8
0
  5
E5D
 10
230.268
 20
154.288
 30
0.000000
  70
    32
  0
VERTEX
  8
0
  5
E5E
 10
230.258
 20
154.287
 30
0.000000
  70
    32
  0
VERTEX
  8
0
  5
E5F
 10
230.248
 20
154.285
 30
0.000000
  70
    32
  0
VERTEX
  8
0
  5
E60
 10
230.238
 20
154.282
 30
0.000000
  70
    32
  0
VERTEX
  8
0
  5
E61
 10
230.228
 20
154.280
 30
0.000000
  70
    32
  0
VERTEX
  8
0
  5
E62
 10
230.218
 20
154.278
 30
0.000000
  70
    32
  0
VERTEX
  8
0
  5
E63
 10
230.207
 20
154.275
 30
0.000000
  70
    32
  0
VERTEX
  8
0
  5
E64
 10
230.197
 20
154.272
 30
0.000000
  70
    32
  0
VERTEX
  8
0
  5
E65
 10
230.187
 20
154.269
 30
0.000000
  70
    32
  0
VERTEX
  8
0
  5
E66
 10
230.177
 20
154.266
 30
0.000000
  70
    32
  0
VERTEX
  8
0
  5
E67
 10
230.167
 20
154.263
 30
0.000000
  70
    32
  0
VERTEX
  8
0
  5
E68
 10
230.158
 20
154.259
 30
0.000000
  70
    32
  0
VERTEX
  8
0
  5
E69
 10
230.148
 20
154.255
 30
0.000000
  70
    32
  0
VERTEX
  8
0
  5
E6A
 10
230.138
 20
154.251
 30
0.000000
  70
    32
  0
VERTEX
  8
0
  5
E6B
 10
230.128
 20
154.247
 30
0.000000
  70
    32
  0
VERTEX
  8
0
  5
E6C
 10
230.118
 20
154.243
 30
0.000000
  70
    32
  0
VERTEX
  8
0
  5
E6D
 10
230.108
 20
154.238
 30
0.000000
  70
    32
  0
VERTEX
  8
0
  5
E6E
 10
230.099
 20
154.234
 30
0.000000
  70
    32
  0
VERTEX
  8
0
  5
E6F
 10
230.089
 20
154.229
 30
0.000000
  70
    32
  0
VERTEX
  8
0
  5
E70
 10
230.079
 20
154.224
 30
0.000000
  70
    32
  0
VERTEX
  8
0
  5
E71
 10
230.070
 20
154.219
 30
0.000000
  70
    32
  0
VERTEX
  8
0
  5
E72
 10
230.060
 20
154.213
 30
0.000000
  70
    32
  0
VERTEX
  8
0
  5
E73
 10
230.050
 20
154.208
 30
0.000000
  70
    32
  0
VERTEX
  8
0
  5
E74
 10
230.041
 20
154.202
 30
0.000000
  70
    32
  0
VERTEX
  8
0
  5
E75
 10
230.031
 20
154.196
 30
0.000000
  70
    32
  0
VERTEX
  8
0
  5
E76
 10
230.022
 20
154.190
 30
0.000000
  70
    32
  0
VERTEX
  8
0
  5
E77
 10
230.013
 20
154.184
 30
0.000000
  70
    32
  0
VERTEX
  8
0
  5
E78
 10
230.003
 20
154.178
 30
0.000000
  70
    32
  0
VERTEX
  8
0
  5
E79
 10
229.994
 20
154.171
 30
0.000000
  70
    32
  0
VERTEX
  8
0
  5
E7A
 10
229.985
 20
154.164
 30
0.000000
  70
    32
  0
VERTEX
  8
0
  5
E7B
 10
229.976
 20
154.158
 30
0.000000
  70
    32
  0
VERTEX
  8
0
  5
E7C
 10
229.966
 20
154.151
 30
0.000000
  70
    32
  0
VERTEX
  8
0
  5
E7D
 10
229.957
 20
154.143
 30
0.000000
  70
    32
  0
VERTEX
  8
0
  5
E7E
 10
229.948
 20
154.136
 30
0.000000
  70
    32
  0
VERTEX
  8
0
  5
E7F
 10
229.939
 20
154.128
 30
0.000000
  70
    32
  0
VERTEX
  8
0
  5
E80
 10
229.931
 20
154.121
 30
0.000000
  70
    32
  0
VERTEX
  8
0
  5
E81
 10
229.922
 20
154.113
 30
0.000000
  70
    32
  0
VERTEX
  8
0
  5
E82
 10
229.913
 20
154.105
 30
0.000000
  70
    32
  0
VERTEX
  8
0
  5
E83
 10
229.904
 20
154.097
 30
0.000000
  70
    32
  0
VERTEX
  8
0
  5
E84
 10
229.896
 20
154.088
 30
0.000000
  70
    32
  0
VERTEX
  8
0
  5
E85
 10
229.887
 20
154.080
 30
0.000000
  70
    32
  0
VERTEX
  8
0
  5
E86
 10
229.878
 20
154.071
 30
0.000000
  70
    32
  0
VERTEX
  8
0
  5
E87
 10
229.870
 20
154.062
 30
0.000000
  70
    32
  0
VERTEX
  8
0
  5
E88
 10
229.862
 20
154.053
 30
0.000000
  70
    32
  0
VERTEX
  8
0
  5
E89
 10
229.853
 20
154.044
 30
0.000000
  70
    32
  0
VERTEX
  8
0
  5
E8A
 10
229.845
 20
154.035
 30
0.000000
  70
    32
  0
VERTEX
  8
0
  5
E8B
 10
229.837
 20
154.026
 30
0.000000
  70
    32
  0
VERTEX
  8
0
  5
E8C
 10
229.829
 20
154.016
 30
0.000000
  70
    32
  0
VERTEX
  8
0
  5
E8D
 10
229.821
 20
154.006
 30
0.000000
  70
    32
  0
VERTEX
  8
0
  5
E8E
 10
229.813
 20
153.997
 30
0.000000
  70
    32
  0
VERTEX
  8
0
  5
E8F
 10
229.805
 20
153.987
 30
0.000000
  70
    32
  0
VERTEX
  8
0
  5
E90
 10
229.797
 20
153.976
 30
0.000000
  70
    32
  0
VERTEX
  8
0
  5
E91
 10
229.789
 20
153.966
 30
0.000000
  70
    32
  0
VERTEX
  8
0
  5
E92
 10
229.781
 20
153.956
 30
0.000000
  70
    32
  0
VERTEX
  8
0
  5
E93
 10
229.774
 20
153.945
 30
0.000000
  70
    32
  0
VERTEX
  8
0
  5
E94
 10
229.766
 20
153.935
 30
0.000000
  70
    32
  0
SEQEND
  8
0
  5
E95
  0
ARC
  5
A85
  8
0
 10
215.85050567117869
 20
140.82277974768249
 30
0.0
 40
20.0
 50
26.540009007947351
 51
40.96412461172509
  0
ARC
  5
A86
  8
0
 10
232.84833447173639
 20
149.31240966110829
 30
0.0
 40
1.0
 50
4.6151572348128216
 51
26.540009007947258
  0
LINE
  5
A87
  8
0
 10
233.8654262561536
 20
149.140976079425
 30
0.0
 11
233.89537638175179
 21
148.8494396516528
 31
0.0
  0
ARC
  5
A88
  8
0
 10
244.8687626854913
 20
140.82277974768249
 30
0.0
 40
20.0
 50
139.0358753885001
 51
153.45999099205261
  0
LINE
  5
A89
  8
0
 10
226.8538421005164
 20
149.140976079425
 30
0.0
 11
226.82389197491821
 21
148.8494396516528
 31
0.0
  0
LINE
  5
A8A
  8
0
 10
226.8538421005164
 20
149.140976079425
 30
0.0
 11
226.8741762574725
 21
149.39287227415349
 31
0.0
  0
ARC
  5
A8B
  8
0
 10
227.87093388493361
 20
149.31240966110829
 30
0.0
 40
1.0
 50
153.4599909920527
 51
175.38484276518719
  0
ARC
  5
A8F
  8
0
 10
234.3550462969512
 20
145.72110370691931
 30
0.0
 40
0.05
 50
187.4530187104076
 51
270.00000000001683
  0
ARC
  5
A90
  8
0
 10
226.3642220597188
 20
145.72110370691931
 30
0.0
 40
0.05
 50
269.99999999998317
 51
352.5469812895924
  0
LINE
  5
A91
  8
0
 10
226.4137996375531
 20
145.7146180476559
 30
0.0
 11
226.82389197491821
 21
148.8494396516528
 31
0.0
  0
LINE
  5
A92
  8
0
 10
234.4411472094626
 20
153.1294234637127
 30
0.0
 11
235.8337642310419
 21
151.67967300819501
 31
0.0
  0
LINE
  5
A93
  8
0
 10
235.8337642310417
 20
151.6796730081951
 30
0.0
 11
236.62520195417531
 21
151.3213419492385
 31
0.0
  0
ARC
  5
A97
  8
0
 10
236.109634178335
 20
150.18261903802829
 30
0.0
 40
1.25
 50
0.0
 51
65.640901373421741
  0
LINE
  5
A98
  8
0
 10
226.2781211472074
 20
153.1294234637127
 30
0.0
 11
224.8855041256281
 21
151.67967300819501
 31
0.0
  0
ARC
  5
A99
  8
0
 10
224.609634178335
 20
150.18261903802829
 30
0.0
 40
1.25
 50
114.3590986265782
 51
180.0
  0
LINE
  5
A9A
  8
0
 10
224.8855041256283
 20
151.6796730081951
 30
0.0
 11
224.09406640249469
 21
151.3213419492385
 31
0.0
  0
POLYLINE
  5
AAD
  8
0
 10
226.78663327440083
 20
145.16926222649144
 30
0.0
 66
     1
 70
     8
  0
VERTEX
  8
0
  5
E96
 10
226.787
 20
145.169
 30
0.000000
  70
    32
  0
VERTEX
  8
0
  5
E97
 10
226.787
 20
145.175
 30
0.000000
  70
    32
  0
VERTEX
  8
0
  5
E98
 10
226.787
 20
145.182
 30
0.000000
  70
    32
  0
VERTEX
  8
0
  5
E99
 10
226.787
 20
145.188
 30
0.000000
  70
    32
  0
VERTEX
  8
0
  5
E9A
 10
226.786
 20
145.194
 30
0.000000
  70
    32
  0
VERTEX
  8
0
  5
E9B
 10
226.786
 20
145.200
 30
0.000000
  70
    32
  0
VERTEX
  8
0
  5
E9C
 10
226.786
 20
145.206
 30
0.000000
  70
    32
  0
VERTEX
  8
0
  5
E9D
 10
226.786
 20
145.212
 30
0.000000
  70
    32
  0
VERTEX
  8
0
  5
E9E
 10
226.786
 20
145.218
 30
0.000000
  70
    32
  0
VERTEX
  8
0
  5
E9F
 10
226.786
 20
145.225
 30
0.000000
  70
    32
  0
VERTEX
  8
0
  5
EA0
 10
226.785
 20
145.231
 30
0.000000
  70
    32
  0
VERTEX
  8
0
  5
EA1
 10
226.785
 20
145.237
 30
0.000000
  70
    32
  0
VERTEX
  8
0
  5
EA2
 10
226.785
 20
145.243
 30
0.000000
  70
    32
  0
VERTEX
  8
0
  5
EA3
 10
226.784
 20
145.249
 30
0.000000
  70
    32
  0
VERTEX
  8
0
  5
EA4
 10
226.784
 20
145.255
 30
0.000000
  70
    32
  0
VERTEX
  8
0
  5
EA5
 10
226.784
 20
145.261
 30
0.000000
  70
    32
  0
VERTEX
  8
0
  5
EA6
 10
226.783
 20
145.267
 30
0.000000
  70
    32
  0
VERTEX
  8
0
  5
EA7
 10
226.783
 20
145.273
 30
0.000000
  70
    32
  0
VERTEX
  8
0
  5
EA8
 10
226.782
 20
145.279
 30
0.000000
  70
    32
  0
VERTEX
  8
0
  5
EA9
 10
226.782
 20
145.285
 30
0.000000
  70
    32
  0
VERTEX
  8
0
  5
EAA
 10
226.781
 20
145.291
 30
0.000000
  70
    32
  0
VERTEX
  8
0
  5
EAB
 10
226.781
 20
145.297
 30
0.000000
  70
    32
  0
VERTEX
  8
0
  5
EAC
 10
226.780
 20
145.303
 30
0.000000
  70
    32
  0
VERTEX
  8
0
  5
EAD
 10
226.780
 20
145.309
 30
0.000000
  70
    32
  0
VERTEX
  8
0
  5
EAE
 10
226.779
 20
145.315
 30
0.000000
  70
    32
  0
VERTEX
  8
0
  5
EAF
 10
226.779
 20
145.321
 30
0.000000
  70
    32
  0
VERTEX
  8
0
  5
EB0
 10
226.778
 20
145.327
 30
0.000000
  70
    32
  0
VERTEX
  8
0
  5
EB1
 10
226.777
 20
145.333
 30
0.000000
  70
    32
  0
VERTEX
  8
0
  5
EB2
 10
226.777
 20
145.338
 30
0.000000
  70
    32
  0
VERTEX
  8
0
  5
EB3
 10
226.776
 20
145.344
 30
0.000000
  70
    32
  0
VERTEX
  8
0
  5
EB4
 10
226.775
 20
145.350
 30
0.000000
  70
    32
  0
VERTEX
  8
0
  5
EB5
 10
226.774
 20
145.356
 30
0.000000
  70
    32
  0
VERTEX
  8
0
  5
EB6
 10
226.773
 20
145.361
 30
0.000000
  70
    32
  0
VERTEX
  8
0
  5
EB7
 10
226.773
 20
145.367
 30
0.000000
  70
    32
  0
VERTEX
  8
0
  5
EB8
 10
226.772
 20
145.373
 30
0.000000
  70
    32
  0
VERTEX
  8
0
  5
EB9
 10
226.771
 20
145.378
 30
0.000000
  70
    32
  0
VERTEX
  8
0
  5
EBA
 10
226.770
 20
145.384
 30
0.000000
  70
    32
  0
VERTEX
  8
0
  5
EBB
 10
226.769
 20
145.389
 30
0.000000
  70
    32
  0
VERTEX
  8
0
  5
EBC
 10
226.768
 20
145.395
 30
0.000000
  70
    32
  0
VERTEX
  8
0
  5
EBD
 10
226.767
 20
145.400
 30
0.000000
  70
    32
  0
VERTEX
  8
0
  5
EBE
 10
226.766
 20
145.406
 30
0.000000
  70
    32
  0
VERTEX
  8
0
  5
EBF
 10
226.765
 20
145.411
 30
0.000000
  70
    32
  0
VERTEX
  8
0
  5
EC0
 10
226.764
 20
145.417
 30
0.000000
  70
    32
  0
VERTEX
  8
0
  5
EC1
 10
226.763
 20
145.422
 30
0.000000
  70
    32
  0
VERTEX
  8
0
  5
EC2
 10
226.762
 20
145.427
 30
0.000000
  70
    32
  0
VERTEX
  8
0
  5
EC3
 10
226.761
 20
145.433
 30
0.000000
  70
    32
  0
VERTEX
  8
0
  5
EC4
 10
226.760
 20
145.438
 30
0.000000
  70
    32
  0
VERTEX
  8
0
  5
EC5
 10
226.759
 20
145.443
 30
0.000000
  70
    32
  0
VERTEX
  8
0
  5
EC6
 10
226.758
 20
145.448
 30
0.000000
  70
    32
  0
VERTEX
  8
0
  5
EC7
 10
226.756
 20
145.453
 30
0.000000
  70
    32
  0
VERTEX
  8
0
  5
EC8
 10
226.755
 20
145.458
 30
0.000000
  70
    32
  0
VERTEX
  8
0
  5
EC9
 10
226.754
 20
145.463
 30
0.000000
  70
    32
  0
VERTEX
  8
0
  5
ECA
 10
226.753
 20
145.468
 30
0.000000
  70
    32
  0
VERTEX
  8
0
  5
ECB
 10
226.751
 20
145.473
 30
0.000000
  70
    32
  0
VERTEX
  8
0
  5
ECC
 10
226.750
 20
145.478
 30
0.000000
  70
    32
  0
VERTEX
  8
0
  5
ECD
 10
226.749
 20
145.483
 30
0.000000
  70
    32
  0
VERTEX
  8
0
  5
ECE
 10
226.747
 20
145.488
 30
0.000000
  70
    32
  0
VERTEX
  8
0
  5
ECF
 10
226.746
 20
145.492
 30
0.000000
  70
    32
  0
VERTEX
  8
0
  5
ED0
 10
226.745
 20
145.497
 30
0.000000
  70
    32
  0
VERTEX
  8
0
  5
ED1
 10
226.743
 20
145.502
 30
0.000000
  70
    32
  0
VERTEX
  8
0
  5
ED2
 10
226.742
 20
145.506
 30
0.000000
  70
    32
  0
VERTEX
  8
0
  5
ED3
 10
226.741
 20
145.511
 30
0.000000
  70
    32
  0
VERTEX
  8
0
  5
ED4
 10
226.739
 20
145.515
 30
0.000000
  70
    32
  0
VERTEX
  8
0
  5
ED5
 10
226.738
 20
145.520
 30
0.000000
  70
    32
  0
VERTEX
  8
0
  5
ED6
 10
226.736
 20
145.524
 30
0.000000
  70
    32
  0
VERTEX
  8
0
  5
ED7
 10
226.735
 20
145.528
 30
0.000000
  70
    32
  0
VERTEX
  8
0
  5
ED8
 10
226.733
 20
145.533
 30
0.000000
  70
    32
  0
VERTEX
  8
0
  5
ED9
 10
226.732
 20
145.537
 30
0.000000
  70
    32
  0
VERTEX
  8
0
  5
EDA
 10
226.730
 20
145.541
 30
0.000000
  70
    32
  0
VERTEX
  8
0
  5
EDB
 10
226.728
 20
145.545
 30
0.000000
  70
    32
  0
VERTEX
  8
0
  5
EDC
 10
226.727
 20
145.549
 30
0.000000
  70
    32
  0
VERTEX
  8
0
  5
EDD
 10
226.725
 20
145.553
 30
0.000000
  70
    32
  0
VERTEX
  8
0
  5
EDE
 10
226.724
 20
145.557
 30
0.000000
  70
    32
  0
VERTEX
  8
0
  5
EDF
 10
226.722
 20
145.561
 30
0.000000
  70
    32
  0
VERTEX
  8
0
  5
EE0
 10
226.720
 20
145.565
 30
0.000000
  70
    32
  0
VERTEX
  8
0
  5
EE1
 10
226.719
 20
145.569
 30
0.000000
  70
    32
  0
VERTEX
  8
0
  5
EE2
 10
226.717
 20
145.572
 30
0.000000
  70
    32
  0
VERTEX
  8
0
  5
EE3
 10
226.715
 20
145.576
 30
0.000000
  70
    32
  0
VERTEX
  8
0
  5
EE4
 10
226.713
 20
145.580
 30
0.000000
  70
    32
  0
VERTEX
  8
0
  5
EE5
 10
226.712
 20
145.583
 30
0.000000
  70
    32
  0
VERTEX
  8
0
  5
EE6
 10
226.710
 20
145.587
 30
0.000000
  70
    32
  0
VERTEX
  8
0
  5
EE7
 10
226.708
 20
145.590
 30
0.000000
  70
    32
  0
VERTEX
  8
0
  5
EE8
 10
226.706
 20
145.593
 30
0.000000
  70
    32
  0
VERTEX
  8
0
  5
EE9
 10
226.705
 20
145.597
 30
0.000000
  70
    32
  0
VERTEX
  8
0
  5
EEA
 10
226.703
 20
145.600
 30
0.000000
  70
    32
  0
VERTEX
  8
0
  5
EEB
 10
226.701
 20
145.603
 30
0.000000
  70
    32
  0
VERTEX
  8
0
  5
EEC
 10
226.699
 20
145.606
 30
0.000000
  70
    32
  0
VERTEX
  8
0
  5
EED
 10
226.697
 20
145.609
 30
0.000000
  70
    32
  0
VERTEX
  8
0
  5
EEE
 10
226.695
 20
145.612
 30
0.000000
  70
    32
  0
VERTEX
  8
0
  5
EEF
 10
226.694
 20
145.615
 30
0.000000
  70
    32
  0
VERTEX
  8
0
  5
EF0
 10
226.692
 20
145.618
 30
0.000000
  70
    32
  0
VERTEX
  8
0
  5
EF1
 10
226.690
 20
145.620
 30
0.000000
  70
    32
  0
VERTEX
  8
0
  5
EF2
 10
226.688
 20
145.623
 30
0.000000
  70
    32
  0
VERTEX
  8
0
  5
EF3
 10
226.686
 20
145.626
 30
0.000000
  70
    32
  0
VERTEX
  8
0
  5
EF4
 10
226.684
 20
145.628
 30
0.000000
  70
    32
  0
VERTEX
  8
0
  5
EF5
 10
226.682
 20
145.631
 30
0.000000
  70
    32
  0
VERTEX
  8
0
  5
EF6
 10
226.680
 20
145.633
 30
0.000000
  70
    32
  0
VERTEX
  8
0
  5
EF7
 10
226.678
 20
145.635
 30
0.000000
  70
    32
  0
VERTEX
  8
0
  5
EF8
 10
226.676
 20
145.637
 30
0.000000
  70
    32
  0
VERTEX
  8
0
  5
EF9
 10
226.674
 20
145.640
 30
0.000000
  70
    32
  0
VERTEX
  8
0
  5
EFA
 10
226.672
 20
145.642
 30
0.000000
  70
    32
  0
VERTEX
  8
0
  5
EFB
 10
226.670
 20
145.644
 30
0.000000
  70
    32
  0
VERTEX
  8
0
  5
EFC
 10
226.668
 20
145.646
 30
0.000000
  70
    32
  0
VERTEX
  8
0
  5
EFD
 10
226.666
 20
145.648
 30
0.000000
  70
    32
  0
VERTEX
  8
0
  5
EFE
 10
226.664
 20
145.649
 30
0.000000
  70
    32
  0
VERTEX
  8
0
  5
EFF
 10
226.662
 20
145.651
 30
0.000000
  70
    32
  0
VERTEX
  8
0
  5
F00
 10
226.660
 20
145.653
 30
0.000000
  70
    32
  0
VERTEX
  8
0
  5
F01
 10
226.658
 20
145.655
 30
0.000000
  70
    32
  0
VERTEX
  8
0
  5
F02
 10
226.656
 20
145.656
 30
0.000000
  70
    32
  0
VERTEX
  8
0
  5
F03
 10
226.654
 20
145.658
 30
0.000000
  70
    32
  0
VERTEX
  8
0
  5
F04
 10
226.652
 20
145.659
 30
0.000000
  70
    32
  0
VERTEX
  8
0
  5
F05
 10
226.650
 20
145.660
 30
0.000000
  70
    32
  0
VERTEX
  8
0
  5
F06
 10
226.648
 20
145.661
 30
0.000000
  70
    32
  0
VERTEX
  8
0
  5
F07
 10
226.646
 20
145.663
 30
0.000000
  70
    32
  0
VERTEX
  8
0
  5
F08
 10
226.644
 20
145.664
 30
0.000000
  70
    32
  0
VERTEX
  8
0
  5
F09
 10
226.642
 20
145.665
 30
0.000000
  70
    32
  0
VERTEX
  8
0
  5
F0A
 10
226.639
 20
145.666
 30
0.000000
  70
    32
  0
VERTEX
  8
0
  5
F0B
 10
226.637
 20
145.667
 30
0.000000
  70
    32
  0
VERTEX
  8
0
  5
F0C
 10
226.635
 20
145.667
 30
0.000000
  70
    32
  0
VERTEX
  8
0
  5
F0D
 10
226.633
 20
145.668
 30
0.000000
  70
    32
  0
VERTEX
  8
0
  5
F0E
 10
226.631
 20
145.669
 30
0.000000
  70
    32
  0
VERTEX
  8
0
  5
F0F
 10
226.629
 20
145.669
 30
0.000000
  70
    32
  0
VERTEX
  8
0
  5
F10
 10
226.627
 20
145.670
 30
0.000000
  70
    32
  0
VERTEX
  8
0
  5
F11
 10
226.625
 20
145.670
 30
0.000000
  70
    32
  0
VERTEX
  8
0
  5
F12
 10
226.623
 20
145.670
 30
0.000000
  70
    32
  0
VERTEX
  8
0
  5
F13
 10
226.621
 20
145.671
 30
0.000000
  70
    32
  0
VERTEX
  8
0
  5
F14
 10
226.618
 20
145.671
 30
0.000000
  70
    32
  0
VERTEX
  8
0
  5
F15
 10
226.616
 20
145.671
 30
0.000000
  70
    32
  0
VERTEX
  8
0
  5
F16
 10
226.614
 20
145.671
 30
0.000000
  70
    32
  0
SEQEND
  8
0
  5
F17
  0
ARC
  5
AAE
  8
0
 10
216.8198369908493
 20
145.98349286821971
 30
0.0
 40
10.0
 50
331.23365111884709
 51
355.32963180574501
  0
ARC
  5
AAF
  8
0
 10
243.8994313658207
 20
145.98349286821971
 30
0.0
 40
10.0
 50
184.6703681942551
 51
208.76634888115291
  0
POLYLINE
  5
AB0
  8
0
 10
233.93263508226917
 20
145.16926222649144
 30
0.0
 66
     1
 70
     8
  0
VERTEX
  8
0
  5
F18
 10
233.933
 20
145.169
 30
0.000000
  70
    32
  0
VERTEX
  8
0
  5
F19
 10
233.933
 20
145.175
 30
0.000000
  70
    32
  0
VERTEX
  8
0
  5
F1A
 10
233.933
 20
145.182
 30
0.000000
  70
    32
  0
VERTEX
  8
0
  5
F1B
 10
233.933
 20
145.188
 30
0.000000
  70
    32
  0
VERTEX
  8
0
  5
F1C
 10
233.933
 20
145.194
 30
0.000000
  70
    32
  0
VERTEX
  8
0
  5
F1D
 10
233.933
 20
145.200
 30
0.000000
  70
    32
  0
VERTEX
  8
0
  5
F1E
 10
233.933
 20
145.206
 30
0.000000
  70
    32
  0
VERTEX
  8
0
  5
F1F
 10
233.933
 20
145.212
 30
0.000000
  70
    32
  0
VERTEX
  8
0
  5
F20
 10
233.933
 20
145.218
 30
0.000000
  70
    32
  0
VERTEX
  8
0
  5
F21
 10
233.934
 20
145.225
 30
0.000000
  70
    32
  0
VERTEX
  8
0
  5
F22
 10
233.934
 20
145.231
 30
0.000000
  70
    32
  0
VERTEX
  8
0
  5
F23
 10
233.934
 20
145.237
 30
0.000000
  70
    32
  0
VERTEX
  8
0
  5
F24
 10
233.935
 20
145.243
 30
0.000000
  70
    32
  0
VERTEX
  8
0
  5
F25
 10
233.935
 20
145.249
 30
0.000000
  70
    32
  0
VERTEX
  8
0
  5
F26
 10
233.935
 20
145.255
 30
0.000000
  70
    32
  0
VERTEX
  8
0
  5
F27
 10
233.936
 20
145.261
 30
0.000000
  70
    32
  0
VERTEX
  8
0
  5
F28
 10
233.936
 20
145.267
 30
0.000000
  70
    32
  0
VERTEX
  8
0
  5
F29
 10
233.936
 20
145.273
 30
0.000000
  70
    32
  0
VERTEX
  8
0
  5
F2A
 10
233.937
 20
145.279
 30
0.000000
  70
    32
  0
VERTEX
  8
0
  5
F2B
 10
233.937
 20
145.285
 30
0.000000
  70
    32
  0
VERTEX
  8
0
  5
F2C
 10
233.938
 20
145.291
 30
0.000000
  70
    32
  0
VERTEX
  8
0
  5
F2D
 10
233.938
 20
145.297
 30
0.000000
  70
    32
  0
VERTEX
  8
0
  5
F2E
 10
233.939
 20
145.303
 30
0.000000
  70
    32
  0
VERTEX
  8
0
  5
F2F
 10
233.939
 20
145.309
 30
0.000000
  70
    32
  0
VERTEX
  8
0
  5
F30
 10
233.940
 20
145.315
 30
0.000000
  70
    32
  0
VERTEX
  8
0
  5
F31
 10
233.941
 20
145.321
 30
0.000000
  70
    32
  0
VERTEX
  8
0
  5
F32
 10
233.941
 20
145.327
 30
0.000000
  70
    32
  0
VERTEX
  8
0
  5
F33
 10
233.942
 20
145.333
 30
0.000000
  70
    32
  0
VERTEX
  8
0
  5
F34
 10
233.943
 20
145.338
 30
0.000000
  70
    32
  0
VERTEX
  8
0
  5
F35
 10
233.943
 20
145.344
 30
0.000000
  70
    32
  0
VERTEX
  8
0
  5
F36
 10
233.944
 20
145.350
 30
0.000000
  70
    32
  0
VERTEX
  8
0
  5
F37
 10
233.945
 20
145.356
 30
0.000000
  70
    32
  0
VERTEX
  8
0
  5
F38
 10
233.946
 20
145.361
 30
0.000000
  70
    32
  0
VERTEX
  8
0
  5
F39
 10
233.947
 20
145.367
 30
0.000000
  70
    32
  0
VERTEX
  8
0
  5
F3A
 10
233.947
 20
145.373
 30
0.000000
  70
    32
  0
VERTEX
  8
0
  5
F3B
 10
233.948
 20
145.378
 30
0.000000
  70
    32
  0
VERTEX
  8
0
  5
F3C
 10
233.949
 20
145.384
 30
0.000000
  70
    32
  0
VERTEX
  8
0
  5
F3D
 10
233.950
 20
145.389
 30
0.000000
  70
    32
  0
VERTEX
  8
0
  5
F3E
 10
233.951
 20
145.395
 30
0.000000
  70
    32
  0
VERTEX
  8
0
  5
F3F
 10
233.952
 20
145.400
 30
0.000000
  70
    32
  0
VERTEX
  8
0
  5
F40
 10
233.953
 20
145.406
 30
0.000000
  70
    32
  0
VERTEX
  8
0
  5
F41
 10
233.954
 20
145.411
 30
0.000000
  70
    32
  0
VERTEX
  8
0
  5
F42
 10
233.955
 20
145.417
 30
0.000000
  70
    32
  0
VERTEX
  8
0
  5
F43
 10
233.956
 20
145.422
 30
0.000000
  70
    32
  0
VERTEX
  8
0
  5
F44
 10
233.957
 20
145.427
 30
0.000000
  70
    32
  0
VERTEX
  8
0
  5
F45
 10
233.958
 20
145.433
 30
0.000000
  70
    32
  0
VERTEX
  8
0
  5
F46
 10
233.959
 20
145.438
 30
0.000000
  70
    32
  0
VERTEX
  8
0
  5
F47
 10
233.961
 20
145.443
 30
0.000000
  70
    32
  0
VERTEX
  8
0
  5
F48
 10
233.962
 20
145.448
 30
0.000000
  70
    32
  0
VERTEX
  8
0
  5
F49
 10
233.963
 20
145.453
 30
0.000000
  70
    32
  0
VERTEX
  8
0
  5
F4A
 10
233.964
 20
145.458
 30
0.000000
  70
    32
  0
VERTEX
  8
0
  5
F4B
 10
233.965
 20
145.463
 30
0.000000
  70
    32
  0
VERTEX
  8
0
  5
F4C
 10
233.967
 20
145.468
 30
0.000000
  70
    32
  0
VERTEX
  8
0
  5
F4D
 10
233.968
 20
145.473
 30
0.000000
  70
    32
  0
VERTEX
  8
0
  5
F4E
 10
233.969
 20
145.478
 30
0.000000
  70
    32
  0
VERTEX
  8
0
  5
F4F
 10
233.970
 20
145.483
 30
0.000000
  70
    32
  0
VERTEX
  8
0
  5
F50
 10
233.972
 20
145.488
 30
0.000000
  70
    32
  0
VERTEX
  8
0
  5
F51
 10
233.973
 20
145.492
 30
0.000000
  70
    32
  0
VERTEX
  8
0
  5
F52
 10
233.975
 20
145.497
 30
0.000000
  70
    32
  0
VERTEX
  8
0
  5
F53
 10
233.976
 20
145.502
 30
0.000000
  70
    32
  0
VERTEX
  8
0
  5
F54
 10
233.977
 20
145.506
 30
0.000000
  70
    32
  0
VERTEX
  8
0
  5
F55
 10
233.979
 20
145.511
 30
0.000000
  70
    32
  0
VERTEX
  8
0
  5
F56
 10
233.980
 20
145.515
 30
0.000000
  70
    32
  0
VERTEX
  8
0
  5
F57
 10
233.982
 20
145.520
 30
0.000000
  70
    32
  0
VERTEX
  8
0
  5
F58
 10
233.983
 20
145.524
 30
0.000000
  70
    32
  0
VERTEX
  8
0
  5
F59
 10
233.985
 20
145.528
 30
0.000000
  70
    32
  0
VERTEX
  8
0
  5
F5A
 10
233.986
 20
145.533
 30
0.000000
  70
    32
  0
VERTEX
  8
0
  5
F5B
 10
233.988
 20
145.537
 30
0.000000
  70
    32
  0
VERTEX
  8
0
  5
F5C
 10
233.989
 20
145.541
 30
0.000000
  70
    32
  0
VERTEX
  8
0
  5
F5D
 10
233.991
 20
145.545
 30
0.000000
  70
    32
  0
VERTEX
  8
0
  5
F5E
 10
233.992
 20
145.549
 30
0.000000
  70
    32
  0
VERTEX
  8
0
  5
F5F
 10
233.994
 20
145.553
 30
0.000000
  70
    32
  0
VERTEX
  8
0
  5
F60
 10
233.996
 20
145.557
 30
0.000000
  70
    32
  0
VERTEX
  8
0
  5
F61
 10
233.997
 20
145.561
 30
0.000000
  70
    32
  0
VERTEX
  8
0
  5
F62
 10
233.999
 20
145.565
 30
0.000000
  70
    32
  0
VERTEX
  8
0
  5
F63
 10
234.001
 20
145.569
 30
0.000000
  70
    32
  0
VERTEX
  8
0
  5
F64
 10
234.002
 20
145.572
 30
0.000000
  70
    32
  0
VERTEX
  8
0
  5
F65
 10
234.004
 20
145.576
 30
0.000000
  70
    32
  0
VERTEX
  8
0
  5
F66
 10
234.006
 20
145.580
 30
0.000000
  70
    32
  0
VERTEX
  8
0
  5
F67
 10
234.008
 20
145.583
 30
0.000000
  70
    32
  0
VERTEX
  8
0
  5
F68
 10
234.009
 20
145.587
 30
0.000000
  70
    32
  0
VERTEX
  8
0
  5
F69
 10
234.011
 20
145.590
 30
0.000000
  70
    32
  0
VERTEX
  8
0
  5
F6A
 10
234.013
 20
145.593
 30
0.000000
  70
    32
  0
VERTEX
  8
0
  5
F6B
 10
234.015
 20
145.597
 30
0.000000
  70
    32
  0
VERTEX
  8
0
  5
F6C
 10
234.016
 20
145.600
 30
0.000000
  70
    32
  0
VERTEX
  8
0
  5
F6D
 10
234.018
 20
145.603
 30
0.000000
  70
    32
  0
VERTEX
  8
0
  5
F6E
 10
234.020
 20
145.606
 30
0.000000
  70
    32
  0
VERTEX
  8
0
  5
F6F
 10
234.022
 20
145.609
 30
0.000000
  70
    32
  0
VERTEX
  8
0
  5
F70
 10
234.024
 20
145.612
 30
0.000000
  70
    32
  0
VERTEX
  8
0
  5
F71
 10
234.026
 20
145.615
 30
0.000000
  70
    32
  0
VERTEX
  8
0
  5
F72
 10
234.028
 20
145.618
 30
0.000000
  70
    32
  0
VERTEX
  8
0
  5
F73
 10
234.029
 20
145.620
 30
0.000000
  70
    32
  0
VERTEX
  8
0
  5
F74
 10
234.031
 20
145.623
 30
0.000000
  70
    32
  0
VERTEX
  8
0
  5
F75
 10
234.033
 20
145.626
 30
0.000000
  70
    32
  0
VERTEX
  8
0
  5
F76
 10
234.035
 20
145.628
 30
0.000000
  70
    32
  0
VERTEX
  8
0
  5
F77
 10
234.037
 20
145.631
 30
0.000000
  70
    32
  0
VERTEX
  8
0
  5
F78
 10
234.039
 20
145.633
 30
0.000000
  70
    32
  0
VERTEX
  8
0
  5
F79
 10
234.041
 20
145.635
 30
0.000000
  70
    32
  0
VERTEX
  8
0
  5
F7A
 10
234.043
 20
145.637
 30
0.000000
  70
    32
  0
VERTEX
  8
0
  5
F7B
 10
234.045
 20
145.640
 30
0.000000
  70
    32
  0
VERTEX
  8
0
  5
F7C
 10
234.047
 20
145.642
 30
0.000000
  70
    32
  0
VERTEX
  8
0
  5
F7D
 10
234.049
 20
145.644
 30
0.000000
  70
    32
  0
VERTEX
  8
0
  5
F7E
 10
234.051
 20
145.646
 30
0.000000
  70
    32
  0
VERTEX
  8
0
  5
F7F
 10
234.053
 20
145.648
 30
0.000000
  70
    32
  0
VERTEX
  8
0
  5
F80
 10
234.055
 20
145.649
 30
0.000000
  70
    32
  0
VERTEX
  8
0
  5
F81
 10
234.057
 20
145.651
 30
0.000000
  70
    32
  0
VERTEX
  8
0
  5
F82
 10
234.059
 20
145.653
 30
0.000000
  70
    32
  0
VERTEX
  8
0
  5
F83
 10
234.061
 20
145.655
 30
0.000000
  70
    32
  0
VERTEX
  8
0
  5
F84
 10
234.063
 20
145.656
 30
0.000000
  70
    32
  0
VERTEX
  8
0
  5
F85
 10
234.065
 20
145.658
 30
0.000000
  70
    32
  0
VERTEX
  8
0
  5
F86
 10
234.067
 20
145.659
 30
0.000000
  70
    32
  0
VERTEX
  8
0
  5
F87
 10
234.069
 20
145.660
 30
0.000000
  70
    32
  0
VERTEX
  8
0
  5
F88
 10
234.071
 20
145.661
 30
0.000000
  70
    32
  0
VERTEX
  8
0
  5
F89
 10
234.074
 20
145.663
 30
0.000000
  70
    32
  0
VERTEX
  8
0
  5
F8A
 10
234.076
 20
145.664
 30
0.000000
  70
    32
  0
VERTEX
  8
0
  5
F8B
 10
234.078
 20
145.665
 30
0.000000
  70
    32
  0
VERTEX
  8
0
  5
F8C
 10
234.080
 20
145.666
 30
0.000000
  70
    32
  0
VERTEX
  8
0
  5
F8D
 10
234.082
 20
145.667
 30
0.000000
  70
    32
  0
VERTEX
  8
0
  5
F8E
 10
234.084
 20
145.667
 30
0.000000
  70
    32
  0
VERTEX
  8
0
  5
F8F
 10
234.086
 20
145.668
 30
0.000000
  70
    32
  0
VERTEX
  8
0
  5
F90
 10
234.088
 20
145.669
 30
0.000000
  70
    32
  0
VERTEX
  8
0
  5
F91
 10
234.090
 20
145.669
 30
0.000000
  70
    32
  0
VERTEX
  8
0
  5
F92
 10
234.092
 20
145.670
 30
0.000000
  70
    32
  0
VERTEX
  8
0
  5
F93
 10
234.094
 20
145.670
 30
0.000000
  70
    32
  0
VERTEX
  8
0
  5
F94
 10
234.097
 20
145.670
 30
0.000000
  70
    32
  0
VERTEX
  8
0
  5
F95
 10
234.099
 20
145.671
 30
0.000000
  70
    32
  0
VERTEX
  8
0
  5
F96
 10
234.101
 20
145.671
 30
0.000000
  70
    32
  0
VERTEX
  8
0
  5
F97
 10
234.103
 20
145.671
 30
0.000000
  70
    32
  0
VERTEX
  8
0
  5
F98
 10
234.105
 20
145.671
 30
0.000000
  70
    32
  0
SEQEND
  8
0
  5
F99
  0
LINE
  5
AB4
  8
0
 10
237.359634178335
 20
150.18261903802829
 30
0.0
 11
236.859634178335
 21
130.6711037069193
 31
0.0
  0
LINE
  5
AB5
  8
0
 10
223.359634178335
 20
150.18261903802829
 30
0.0
 11
223.859634178335
 21
130.6711037069193
 31
0.0
  0
LINE
  5
ABD
  8
3
 10
136.15941264403321
 20
124.6711037069193
 30
0.0
 11
135.72641264403339
 21
125.4210817065963
 31
0.0
  0
LINE
  5
ABE
  8
0
 10
140.7264126440333
 20
102.5711037069194
 30
0.0
 11
135.7264126440333
 21
102.5711037069194
 31
0.0
  0
LINE
  5
ABF
  8
0
 10
136.62641264403339
 20
101.6711037069194
 30
0.0
 11
135.7264126440333
 21
102.5711037069193
 31
0.0
  0
LINE
  5
AC0
  8
0
 10
140.72641264403339
 20
102.5711037069193
 30
0.0
 11
139.82641264403341
 21
101.6711037069194
 31
0.0
  0
LINE
  5
AC1
  8
3
 10
140.29341264403359
 20
124.6711037069193
 30
0.0
 11
140.72641264403339
 21
125.4210817065963
 31
0.0
  0
LINE
  5
AC2
  8
0
 10
140.72641264403339
 20
124.6711037069193
 30
0.0
 11
135.72641264403339
 21
124.6711037069193
 31
0.0
  0
LINE
  5
AC3
  8
0
 10
139.82641264403341
 20
101.6711037069194
 30
0.0
 11
136.62641264403339
 21
101.6711037069194
 31
0.0
  0
LINE
  5
AC4
  8
0
 10
140.72641264403339
 20
126.6711037069194
 30
0.0
 11
140.72641264403339
 21
102.5711037069194
 31
0.0
  0
LINE
  5
AC5
  8
3
 10
140.29341264403359
 20
124.6711037069193
 30
0.0
 11
140.29341264403359
 21
102.13810370691959
 31
0.0
  0
LINE
  5
AC6
  8
3
 10
136.15941264403321
 20
124.6711037069193
 30
0.0
 11
136.15941264403321
 21
102.13810370691949
 31
0.0
  0
LINE
  5
AC7
  8
0
 10
135.72641264403339
 20
126.6711037069194
 30
0.0
 11
135.72641264403319
 21
102.5711037069194
 31
0.0
  0
LINE
  5
AD6
  8
0
 10
79.161858812319849
 20
124.6711037069193
 30
0.0
 11
74.161858812319849
 21
124.6711037069193
 31
0.0
  0
LINE
  5
AD7
  8
0
 10
79.161858812319849
 20
102.5711037069194
 30
0.0
 11
74.161858812319849
 21
102.5711037069194
 31
0.0
  0
LINE
  5
AD8
  8
0
 10
78.261858812319872
 20
101.6711037069194
 30
0.0
 11
75.061858812319826
 21
101.6711037069194
 31
0.0
  0
LINE
  5
AD9
  8
3
 10
74.594858812319671
 20
124.6711037069193
 30
0.0
 11
74.594858812319657
 21
102.13810370691949
 31
0.0
  0
LINE
  5
ADA
  8
0
 10
74.161858812319849
 20
126.6711037069194
 30
0.0
 11
74.161858812319821
 21
102.5711037069194
 31
0.0
  0
LINE
  5
ADB
  8
0
 10
75.061858812319826
 20
101.6711037069194
 30
0.0
 11
74.161858812319849
 21
102.5711037069193
 31
0.0
  0
LINE
  5
ADC
  8
3
 10
74.594858812319671
 20
124.6711037069193
 30
0.0
 11
74.161858812319906
 21
125.4210817065963
 31
0.0
  0
LINE
  5
ADD
  8
3
 10
78.728858812320084
 20
124.6711037069193
 30
0.0
 11
78.728858812319913
 21
102.1381037069194
 31
0.0
  0
LINE
  5
ADE
  8
0
 10
79.161858812319849
 20
126.6711037069194
 30
0.0
 11
79.161858812319821
 21
102.5711037069193
 31
0.0
  0
LINE
  5
ADF
  8
0
 10
79.161858812319849
 20
102.5711037069193
 30
0.0
 11
78.261858812319872
 21
101.6711037069194
 31
0.0
  0
LINE
  5
AE0
  8
3
 10
78.728858812320084
 20
124.6711037069193
 30
0.0
 11
79.161858812319849
 21
125.4210817065963
 31
0.0
  0
LINE
  5
AE1
  8
0
 10
232.859634178335
 20
124.6711037069193
 30
0.0
 11
227.859634178335
 21
124.6711037069193
 31
0.0
  0
LINE
  5
AE2
  8
0
 10
232.85963417833489
 20
102.5711037069194
 30
0.0
 11
227.85963417833489
 21
102.5711037069194
 31
0.0
  0
LINE
  5
AE3
  8
0
 10
231.95963417833499
 20
101.6711037069194
 30
0.0
 11
228.75963417833501
 21
101.6711037069194
 31
0.0
  0
LINE
  5
AE4
  8
3
 10
228.29263417833479
 20
124.6711037069193
 30
0.0
 11
228.29263417833491
 21
102.1381037069194
 31
0.0
  0
LINE
  5
AE5
  8
0
 10
227.859634178335
 20
126.6711037069194
 30
0.0
 11
227.85963417833489
 21
102.5711037069194
 31
0.0
  0
LINE
  5
AE6
  8
0
 10
228.75963417833501
 20
101.6711037069194
 30
0.0
 11
227.85963417833489
 21
102.5711037069193
 31
0.0
  0
LINE
  5
AE7
  8
3
 10
228.29263417833479
 20
124.6711037069193
 30
0.0
 11
227.859634178335
 21
125.4210817065963
 31
0.0
  0
LINE
  5
AE8
  8
3
 10
232.42663417833521
 20
124.6711037069193
 30
0.0
 11
232.42663417833521
 21
102.13810370691949
 31
0.0
  0
LINE
  5
AE9
  8
0
 10
232.859634178335
 20
126.6711037069194
 30
0.0
 11
232.859634178335
 21
102.5711037069193
 31
0.0
  0
LINE
  5
AEA
  8
0
 10
232.859634178335
 20
102.5711037069193
 30
0.0
 11
231.95963417833499
 21
101.6711037069194
 31
0.0
  0
LINE
  5
AEB
  8
3
 10
232.42663417833521
 20
124.6711037069193
 30
0.0
 11
232.859634178335
 21
125.4210817065963
 31
0.0
  0
LINE
  5
B4D
  8
0
 10
80.661858812319849
 20
150.58930693719481
 30
0.0
 11
80.661858812319849
 21
149.46520300721551
 31
0.0
  0
LINE
  5
B4E
  8
0
 10
72.661858812319949
 20
150.58930693719489
 30
0.0
 11
72.661858812319906
 21
149.46520300721551
 31
0.0
  0
LINE
  5
B51
  8
0
 10
79.418650425772015
 20
151.1711037069193
 30
0.0
 11
73.905067198867741
 21
151.1711037069193
 31
0.0
  0
CIRCLE
  5
B5D
  8
0
 10
138.23641264403341
 20
200.73502202255119
 30
0.0
 40
4.0
  0
ARC
  5
B60
  8
0
 10
136.40575073802151
 20
201.79195516678249
 30
0.0
 40
0.6912500000000005
 50
309.68887794065949
 51
16.658241772777039
  0
ARC
  5
B61
  8
0
 10
137.44641264403339
 20
202.1033421605307
 30
0.0
 40
0.3949999999999998
 50
43.341758227221717
 51
196.65824177277699
  0
ARC
  5
B62
  8
0
 10
138.23641264403341
 20
202.8488883110137
 30
0.0
 40
0.6912499999999989
 50
223.3417582272217
 51
316.6582417727783
  0
ARC
  5
B63
  8
0
 10
139.0264126440334
 20
202.1033421605307
 30
0.0
 40
0.3950000000000002
 50
343.3417582272229
 51
136.65824177277821
  0
ARC
  5
B64
  8
0
 10
136.40575073802151
 20
199.67808887832001
 30
0.0
 40
0.691250000000001
 50
343.3417582272229
 51
50.311122059331304
  0
ARC
  5
B65
  8
0
 10
137.44641264403339
 20
199.3667018845718
 30
0.0
 40
0.3950000000000001
 50
163.3417582272229
 51
316.6582417727783
  0
ARC
  5
B66
  8
0
 10
138.23641264403341
 20
198.6211557340888
 30
0.0
 40
0.6912500000000003
 50
43.341758227221717
 51
136.65824177277651
  0
ARC
  5
B67
  8
0
 10
139.0264126440334
 20
199.3667018845718
 30
0.0
 40
0.3949999999999998
 50
223.3417582272217
 51
16.658241772777039
  0
ARC
  5
B68
  8
0
 10
140.06707455004539
 20
199.67808887832001
 30
0.0
 40
0.6912500000000003
 50
129.6888779406687
 51
196.65824177277699
  0
ARC
  5
B69
  8
0
 10
140.06707455004539
 20
201.79195516678249
 30
0.0
 40
0.6912500000000011
 50
163.3417582272229
 51
230.31112205934281
  0
ARC
  5
B6A
  8
0
 10
76.661858812319863
 20
143.66110370691931
 30
0.0
 40
8.0
 50
60.000000000000277
 51
69.842683784424523
  0
LINE
  5
B6B
  8
0
 10
72.661858812319949
 20
150.58930693719489
 30
0.0
 11
80.661858812319849
 21
150.58930693719481
 31
0.0
  0
ARC
  5
B6C
  8
0
 10
76.661858812319863
 20
143.66110370691931
 30
0.0
 40
8.0
 50
110.15731621557541
 51
119.9999999999997
  0
LINE
  5
B6D
  8
0
 10
135.48641264403341
 20
200.21002202255119
 30
0.0
 11
136.8471957431675
 21
200.21002202255119
 31
0.0
  0
LINE
  5
B6E
  8
0
 10
135.48641264403341
 20
201.2600220225512
 30
0.0
 11
136.84719574316739
 21
201.2600220225512
 31
0.0
  0
LINE
  5
B6F
  8
0
 10
139.6256295448994
 20
201.2600220225512
 30
0.0
 11
140.98641264403341
 21
201.2600220225512
 31
0.0
  0
LINE
  5
B70
  8
0
 10
139.6256295448994
 20
200.21002202255119
 30
0.0
 11
140.98641264403341
 21
200.21002202255119
 31
0.0
  0
ARC
  5
B71
  8
0
 10
138.23641264403341
 20
200.73502202255119
 30
0.0
 40
2.7567916134521511
 50
355.97735839170269
 51
4.0226416083006269
  0
LINE
  5
B72
  8
0
 10
140.98641264403329
 20
201.2600220225512
 30
0.0
 11
140.98641264403341
 21
200.21002202255119
 31
0.0
  0
LINE
  5
B73
  8
0
 10
135.48641264403341
 20
201.2600220225512
 30
0.0
 11
135.48641264403341
 21
200.21002202255119
 31
0.0
  0
ARC
  5
B74
  8
0
 10
138.23641264403341
 20
200.73502202255119
 30
0.0
 40
2.7567916134521511
 50
10.978391329937949
 51
169.02160867006199
  0
ARC
  5
B75
  8
0
 10
138.23641264403341
 20
200.73502202255119
 30
0.0
 40
2.7567916134521511
 50
190.97839132993789
 51
349.02160867006211
  0
ARC
  5
B76
  8
0
 10
138.23641264403341
 20
200.73502202255119
 30
0.0
 40
2.7567916134521511
 50
175.97735839169599
 51
184.0226416083039
  0
ARC
  5
B78
  8
0
 10
138.22641264403339
 20
143.66110370691931
 30
0.0
 40
8.0
 50
110.15731621557541
 51
119.9999999999997
  0
LINE
  5
B79
  8
0
 10
134.22641264403339
 20
150.58930693719489
 30
0.0
 11
139.19668492388729
 21
150.58930693719489
 31
0.0
  0
ARC
  5
B7A
  8
0
 10
138.22641264403339
 20
143.66110370691931
 30
0.0
 40
8.0
 50
69.728484327266742
 51
69.842683784424523
  0
LINE
  5
B7B
  8
0
 10
140.98320425748551
 20
151.1711037069193
 30
0.0
 11
135.46962103058121
 21
151.1711037069193
 31
0.0
  0
LINE
  5
B7D
  8
0
 10
134.22641264403339
 20
150.58930693719489
 30
0.0
 11
134.22641264403339
 21
148.86769631867409
 31
0.0
  0
POLYLINE
  5
B82
  8
0
 66
     1
 10
0.0
 20
0.0
 30
0.0
 70
     1
  0
VERTEX
  5
B83
  8
0
 10
81.367359016751806
 20
150.35670756839431
 30
0.0
 42
0.2172434185878873
  0
VERTEX
  5
B92
  8
0
 10
81.125246379652296
 20
150.88764702013461
 30
0.0
 42
0.092714505477156
  0
VERTEX
  5
B84
  8
0
 10
79.989149915748385
 20
151.55363806160111
 30
0.0
 42
0.0493901968537976
 70
     2
 50
160.21475784141541
  0
VERTEX
  5
B93
  8
0
 10
78.586076840710803
 20
151.90685034926949
 30
0.0
 42
0.036996175136541
 50
160.21475784141541
  0
VERTEX
  5
B85
  8
0
 10
76.661858812319878
 20
152.0494229051053
 30
0.0
 42
0.0369961751365295
  0
VERTEX
  5
B8C
  8
0
 10
74.737640783929123
 20
151.9068503492696
 30
0.0
 42
0.0493901968537928
  0
VERTEX
  5
B86
  8
0
 10
73.33456770889137
 20
151.55363806160111
 30
0.0
 42
0.0927145054771401
 70
     2
 50
199.78524215858459
  0
VERTEX
  5
B8D
  8
0
 10
72.198471244987473
 20
150.88764702013469
 30
0.0
 42
0.2172434185878778
 50
199.78524215858459
  0
VERTEX
  5
B87
  8
0
 10
71.95635860788795
 20
150.35670756839431
 30
0.0
 42
0.2172434185878682
  0
VERTEX
  5
B8E
  8
0
 10
72.198471244987473
 20
149.8257681166539
 30
0.0
 42
0.0927145054771237
  0
VERTEX
  5
B88
  8
0
 10
73.33456770889137
 20
149.15977707518749
 30
0.0
 42
0.0493901968538028
 70
     2
 50
340.21475784141541
  0
VERTEX
  5
B8F
  8
0
 10
74.737640783929123
 20
148.80656478751911
 30
0.0
 42
0.0369961751365369
 50
340.21475784141541
  0
VERTEX
  5
B89
  8
0
 10
76.661858812319878
 20
148.66399223168341
 30
0.0
 42
0.0369961751365431
  0
VERTEX
  5
B90
  8
0
 10
78.586076840710689
 20
148.80656478751911
 30
0.0
 42
0.0493901968538072
  0
VERTEX
  5
B8A
  8
0
 10
79.989149915748385
 20
149.15977707518749
 30
0.0
 42
0.0927145054771267
 70
     2
 50
19.78524215858458
  0
VERTEX
  5
B91
  8
0
 10
81.125246379652253
 20
149.8257681166539
 30
0.0
 42
0.2172434185878798
 50
19.78524215858458
  0
SEQEND
  5
B8B
  8
0
  0
TEXT
  5
C7F
  8
0
 62
     3
 10
0.0
 20
0.0
 30
0.0
 40
10.0
  1
FKR5X25-SV
  7
STANDARD1
  0
ENDSEC
  0
EOF
