  0
SECTION
  2
HEADER
  9
$ACADVER
  1
AC1009
  9
$INSBASE
 10
0.0
 20
0.0
 30
0.0
  9
$EXTMIN
 10
0.0
 20
-2.960436562073669
 30
0.0
  9
$EXTMAX
 10
257.359634178335
 20
222.73502202255119
 30
0.0
  9
$LIMMIN
 10
0.0
 20
0.0
  9
$LIMMAX
 10
187.5
 20
135.0
  9
$ORTHOMODE
 70
     0
  9
$REGENMODE
 70
     1
  9
$FILLMODE
 70
     1
  9
$QTEXTMODE
 70
     0
  9
$MIRRTEXT
 70
     0
  9
$DRAGMODE
 70
     2
  9
$LTSCALE
 40
5.0
  9
$OSMODE
 70
    55
  9
$ATTMODE
 70
     1
  9
$TEXTSIZE
 40
4.0
  9
$TRACEWID
 40
0.05
  9
$TEXTSTYLE
  7
STANDARD
  9
$CLAYER
  8
0
  9
$CELTYPE
  6
BYLAYER
  9
$CECOLOR
 62
   256
  9
$DIMSCALE
 40
0.5
  9
$DIMASZ
 40
3.0
  9
$DIMEXO
 40
2.0
  9
$DIMDLI
 40
0.38
  9
$DIMRND
 40
0.0
  9
$DIMDLE
 40
0.0
  9
$DIMEXE
 40
2.0
  9
$DIMTP
 40
0.0
  9
$DIMTM
 40
0.0
  9
$DIMTXT
 40
3.0
  9
$DIMCEN
 40
0.0
  9
$DIMTSZ
 40
0.0
  9
$DIMTOL
 70
     0
  9
$DIMLIM
 70
     0
  9
$DIMTIH
 70
     0
  9
$DIMTOH
 70
     0
  9
$DIMSE1
 70
     0
  9
$DIMSE2
 70
     0
  9
$DIMTAD
 70
     1
  9
$DIMZIN
 70
     0
  9
$DIMBLK
  1

  9
$DIMASO
 70
     0
  9
$DIMSHO
 70
     0
  9
$DIMPOST
  1

  9
$DIMAPOST
  1

  9
$DIMALT
 70
     0
  9
$DIMALTD
 70
     2
  9
$DIMALTF
 40
25.399999999999999
  9
$DIMLFAC
 40
1.0
  9
$DIMTOFL
 70
     0
  9
$DIMTVP
 40
1.6000000000000001
  9
$DIMTIX
 70
     1
  9
$DIMSOXD
 70
     0
  9
$DIMSAH
 70
     0
  9
$DIMBLK1
  1

  9
$DIMBLK2
  1

  9
$DIMSTYLE
  2
STANDARD
  9
$DIMCLRD
 70
     0
  9
$DIMCLRE
 70
     0
  9
$DIMCLRT
 70
     0
  9
$DIMTFAC
 40
1.0
  9
$DIMGAP
 40
0.09
  9
$LUNITS
 70
     2
  9
$LUPREC
 70
     4
  9
$SKETCHINC
 40
0.1
  9
$FILLETRAD
 40
1.25
  9
$AUNITS
 70
     0
  9
$AUPREC
 70
     0
  9
$MENU
  1
E:\r13\win\SUPPORT\ACAD
  9
$ELEVATION
 40
0.0
  9
$PELEVATION
 40
0.0
  9
$THICKNESS
 40
0.0
  9
$LIMCHECK
 70
     0
  9
$BLIPMODE
 70
     0
  9
$CHAMFERA
 40
0.0
  9
$CHAMFERB
 40
0.0
  9
$SKPOLY
 70
     0
  9
$TDCREATE
 40
2449840.6143865739
  9
$TDUPDATE
 40
2456598.6512663541
  9
$TDINDWG
 40
0.3001553935
  9
$TDUSRTIMER
 40
0.3001553935
  9
$USRTIMER
 70
     1
  9
$ANGBASE
 50
0.0
  9
$ANGDIR
 70
     0
  9
$PDMODE
 70
     0
  9
$PDSIZE
 40
0.0
  9
$PLINEWID
 40
0.0
  9
$COORDS
 70
     1
  9
$SPLFRAME
 70
     0
  9
$SPLINETYPE
 70
     6
  9
$SPLINESEGS
 70
     8
  9
$ATTDIA
 70
     0
  9
$ATTREQ
 70
     1
  9
$HANDLING
 70
     1
  9
$HANDSEED
  5
FA4
  9
$SURFTAB1
 70
     6
  9
$SURFTAB2
 70
     6
  9
$SURFTYPE
 70
     6
  9
$SURFU
 70
     6
  9
$SURFV
 70
     6
  9
$UCSNAME
  2

  9
$UCSORG
 10
0.0
 20
0.0
 30
0.0
  9
$UCSXDIR
 10
1.0
 20
0.0
 30
0.0
  9
$UCSYDIR
 10
0.0
 20
1.0
 30
0.0
  9
$PUCSNAME
  2

  9
$PUCSORG
 10
0.0
 20
0.0
 30
0.0
  9
$PUCSXDIR
 10
1.0
 20
0.0
 30
0.0
  9
$PUCSYDIR
 10
0.0
 20
1.0
 30
0.0
  9
$USERI1
 70
     0
  9
$USERI2
 70
     1
  9
$USERI3
 70
     1
  9
$USERI4
 70
     0
  9
$USERI5
 70
     0
  9
$USERR1
 40
0.0
  9
$USERR2
 40
0.0
  9
$USERR3
 40
0.0
  9
$USERR4
 40
0.0
  9
$USERR5
 40
0.0
  9
$WORLDVIEW
 70
     1
  9
$SHADEDGE
 70
     3
  9
$SHADEDIF
 70
    70
  9
$TILEMODE
 70
     1
  9
$MAXACTVP
 70
    16
  9
$PLIMCHECK
 70
     0
  9
$PEXTMIN
 10
1.0000000000000000E+020
 20
1.0000000000000000E+020
 30
1.0000000000000000E+020
  9
$PEXTMAX
 10
-1.0000000000000000E+020
 20
-1.0000000000000000E+020
 30
-1.0000000000000000E+020
  9
$PLIMMIN
 10
0.0
 20
0.0
  9
$PLIMMAX
 10
12.0
 20
9.0
  9
$UNITMODE
 70
     0
  9
$VISRETAIN
 70
     0
  9
$PLINEGEN
 70
     0
  9
$PSLTSCALE
 70
     0
  0
ENDSEC
  0
SECTION
  2
TABLES
  0
TABLE
  2
VPORT
 70
     1
  0
VPORT
  2
*ACTIVE
 70
     0
 10
0.0
 20
0.0
 11
1.0
 21
1.0
 12
128.67981768837959
 22
144.12348911513021
 13
0.0
 23
0.0
 14
5.0
 24
5.0
 15
5.0
 25
5.0
 16
0.0
 26
0.0
 36
1.0
 17
0.0
 27
0.0
 37
0.0
 40
296.7685675506242
 41
1.7807262569832401
 42
50.0
 43
0.0
 44
0.0
 50
0.0
 51
0.0
 71
     0
 72
   100
 73
     1
 74
     0
 75
     0
 76
     0
 77
     0
 78
     0
  0
ENDTAB
  0
TABLE
  2
LTYPE
 70
     3
  0
LTYPE
  2
CONTINUOUS
 70
     0
  3
Solid Line
 72
    65
 73
     0
 40
0.0
  0
LTYPE
  2
CENTER
 70
     0
  3
____ _ ____ _ ____ _ ____ _ ____ _ ____ _ ____
 72
    65
 73
     4
 40
2.0
 49
1.25
 49
-0.25
 49
0.25
 49
-0.25
  0
LTYPE
  2
PHANTOM2
 70
     0
  3
___ _ _ ___ _ _ ___ _ _ ___ _ _
 72
    65
 73
     6
 40
1.25
 49
0.625
 49
-0.125
 49
0.125
 49
-0.125
 49
0.125
 49
-0.125
  0
ENDTAB
  0
TABLE
  2
LAYER
 70
     3
  0
LAYER
  2
0
 70
     0
 62
     7
  6
CONTINUOUS
  0
LAYER
  2
1
 70
     0
 62
     1
  6
CENTER
  0
LAYER
  2
3
 70
     0
 62
     3
  6
CONTINUOUS
  0
ENDTAB
  0
TABLE
  2
STYLE
 70
     2
  0
STYLE
  2
STANDARD
 70
     0
 40
0.0
 41
1.0
 50
0.0
 71
     0
 42
4.0
  3
TXT
  4
BIGFONT
  0
STYLE
  2
STANDARD1
 70
     0
 40
0.0
 41
1.0
 50
0.0
 71
     0
 42
3.0
  3
txt
  4

  0
ENDTAB
  0
TABLE
  2
VIEW
 70
     1
  0
VIEW
  2
ALL
 70
     0
 40
179.66152299999999
 10
141.903918
 20
89.830760999999995
 41
0.0
 11
0.0
 21
0.0
 31
1.0
 12
0.0
 22
0.0
 32
0.0
 42
0.0
 43
0.0
 44
0.0
 50
0.0
 71
     0
  0
ENDTAB
  0
TABLE
  2
UCS
 70
     0
  0
ENDTAB
  0
TABLE
  2
APPID
 70
     4
  0
APPID
  2
ACAD
 70
     0
  0
APPID
  2
DCO15
 70
     0
  0
APPID
  2
ACAD_MLEADERVER
 70
     0
  0
APPID
  2
ACAD_NAV_VCDISPLAY
 70
     0
  0
ENDTAB
  0
TABLE
  2
DIMSTYLE
 70
     1
  0
DIMSTYLE
  2
STANDARD
 70
     0
  3

  4

  5

  6

  7

 40
1.0
 41
0.18
 42
0.0625
 43
0.38
 44
0.18
 45
0.0
 46
0.0
 47
0.0
 48
0.0
140
0.18
141
0.09
142
0.0
143
25.399999999999999
144
1.0
145
0.0
146
1.0
147
0.09
 71
     0
 72
     0
 73
     1
 74
     1
 75
     0
 76
     0
 77
     0
 78
     0
170
     0
171
     2
172
     0
173
     0
174
     0
175
     0
176
     0
177
     0
178
     0
  0
ENDTAB
  0
ENDSEC
  0
SECTION
  2
BLOCKS
  0
BLOCK
  8
0
  2
$MODEL_SPACE
 70
     0
 10
0.0
 20
0.0
 30
0.0
  3
$MODEL_SPACE
  1

  0
ENDBLK
  5
1BD
  8
0
  0
BLOCK
 67
     1
  8
0
  2
$PAPER_SPACE
 70
     0
 10
0.0
 20
0.0
 30
0.0
  3
$PAPER_SPACE
  1

  0
ENDBLK
  5
1BB
 67
     1
  8
0
  0
ENDSEC
  0
SECTION
  2
ENTITIES
  0
LINE
  5
502
  8
0
 10
101.66185881231991
 20
136.6711037069193
 30
0.0
 11
101.66185881231991
 21
140.6711037069193
 31
0.0
  0
LINE
  5
503
  8
0
 10
91.661858812319863
 20
140.6711037069193
 30
0.0
 11
91.661858812319863
 21
136.6711037069193
 31
0.0
  0
LINE
  5
50B
  8
0
 10
91.661858812319863
 20
136.6711037069193
 30
0.0
 11
101.66185881231991
 21
136.6711037069193
 31
0.0
  0
LINE
  5
511
  8
1
 10
96.661858812319892
 20
172.53814512593539
 30
0.0
 11
96.661858812319892
 21
91.671103706919382
 31
0.0
  0
LINE
  5
512
  8
0
 10
100.0069189191944
 20
167.6711037069193
 30
0.0
 11
93.316798705445336
 21
167.6711037069193
 31
0.0
  0
LINE
  5
52F
  8
0
 10
103.16185881231981
 20
140.6711037069193
 30
0.0
 11
90.161858812319878
 21
140.6711037069193
 31
0.0
  0
LINE
  5
535
  8
0
 10
163.22641264403339
 20
136.6711037069193
 30
0.0
 11
163.22641264403339
 21
140.6711037069193
 31
0.0
  0
LINE
  5
536
  8
0
 10
153.22641264403339
 20
140.6711037069193
 30
0.0
 11
153.22641264403339
 21
136.6711037069193
 31
0.0
  0
LINE
  5
53E
  8
0
 10
153.22641264403339
 20
136.6711037069193
 30
0.0
 11
163.22641264403339
 21
136.6711037069193
 31
0.0
  0
LINE
  5
544
  8
0
 10
198.22641264403339
 20
164.29578104123891
 30
0.0
 11
198.22641264403339
 21
165.16800624022869
 31
0.0
  0
LINE
  5
545
  8
0
 10
151.7164126440334
 20
155.50276042909539
 30
0.0
 11
151.7164126440334
 21
140.6711037069193
 31
0.0
  0
LINE
  5
546
  8
0
 10
164.7164126440334
 20
140.6711037069193
 30
0.0
 11
164.7164126440334
 21
151.135427234139
 31
0.0
  0
LINE
  5
549
  8
0
 10
193.53041999757599
 20
158.7842278531252
 30
0.0
 11
183.86406030531421
 21
156.04892377162651
 31
0.0
  0
LINE
  5
554
  8
0
 10
181.1412578349084
 20
155.6711037069193
 30
0.0
 11
176.1756339449509
 21
155.6711037069193
 31
0.0
  0
LINE
  5
555
  8
0
 10
164.7164126440334
 20
140.6711037069193
 30
0.0
 11
151.7164126440334
 21
140.6711037069193
 31
0.0
  0
LINE
  5
55A
  8
1
 10
158.22641264403339
 20
166.8511037069193
 30
0.0
 11
158.2264126440335
 21
91.671103706919382
 31
0.0
  0
LINE
  5
55E
  8
0
 10
254.3054687191169
 20
155.7146180476559
 30
0.0
 11
253.8953763817517
 21
158.8494396516528
 31
0.0
  0
LINE
  5
55F
  8
0
 10
254.44114720946251
 20
165.76165462913309
 30
0.0
 11
254.44114720946251
 21
155.6711037069193
 31
0.0
  0
LINE
  5
561
  8
0
 10
246.27812114720749
 20
165.76165462913309
 30
0.0
 11
246.27812114720749
 21
155.6711037069193
 31
0.0
  0
LINE
  5
563
  8
1
 10
250.359634178335
 20
172.53814512593539
 30
0.0
 11
250.359634178335
 21
91.671103706919382
 31
0.0
  0
LINE
  5
564
  8
0
 10
255.359634178335
 20
136.6711037069193
 30
0.0
 11
255.359634178335
 21
140.6711037069193
 31
0.0
  0
LINE
  5
565
  8
0
 10
245.359634178335
 20
140.6711037069193
 30
0.0
 11
245.359634178335
 21
136.6711037069193
 31
0.0
  0
LINE
  5
56A
  8
0
 10
245.359634178335
 20
136.6711037069193
 30
0.0
 11
255.359634178335
 21
136.6711037069193
 31
0.0
  0
LINE
  5
574
  8
0
 10
256.859634178335
 20
140.6711037069193
 30
0.0
 11
243.859634178335
 21
140.6711037069193
 31
0.0
  0
LINE
  5
575
  8
0
 10
246.45283752404879
 20
156.01303086547929
 30
0.0
 11
254.26643083262121
 21
156.01303086547929
 31
0.0
  0
LINE
  5
576
  8
0
 10
254.4445695003175
 20
155.6711037069193
 30
0.0
 11
246.27812114720749
 21
155.67110370691799
 31
0.0
  0
LINE
  5
583
  8
0
 10
253.7046942852096
 20
167.6711037069193
 30
0.0
 11
246.9955820404962
 21
167.6711037069193
 31
0.0
  0
LINE
  5
586
  8
0
 10
246.82389197491821
 20
158.8494396516528
 30
0.0
 11
253.8953763817517
 21
158.8494396516528
 31
0.0
  0
LINE
  5
587
  8
0
 10
246.859634178335
 20
167.48673745390681
 30
0.0
 11
246.859634178335
 21
159.21272738759239
 31
0.0
  0
LINE
  5
591
  8
0
 10
253.859634178335
 20
167.48673745390681
 30
0.0
 11
253.859634178335
 21
159.21272738759239
 31
0.0
  0
LINE
  5
59A
  8
0
 10
151.72641264403339
 20
208.1621053896227
 30
0.0
 11
151.72641264403339
 21
213.30793865547969
 31
0.0
  0
CIRCLE
  5
5B6
  8
0
 10
158.22641264403339
 20
48.683167254352149
 30
0.0
 40
6.5000000000000027
  0
LINE
  5
5C6
  8
1
 10
158.23641264403341
 20
222.73502202255119
 30
0.0
 11
158.23641264403341
 21
198.73502202255119
 31
0.0
  0
LINE
  5
5C7
  8
1
 10
203.2364156607787
 20
210.73502202255119
 30
0.0
 11
146.72641264403339
 21
210.73502202255119
 31
0.0
  0
LINE
  5
5CB
  8
1
 10
158.23641264403341
 20
60.68266635711381
 30
0.0
 11
158.23641264403341
 21
36.683668151590439
 31
0.0
  0
CIRCLE
  5
5CD
  8
0
 10
158.23641264403341
 20
48.683167254352149
 30
0.0
 40
4.989999999999994
  0
CIRCLE
  5
5E2
  8
0
 10
158.23641264403341
 20
48.683167254352149
 30
0.0
 40
2.5
  0
CIRCLE
  5
5E3
  8
3
 10
158.23641264403341
 20
48.683167254352149
 30
0.0
 40
2.1000000000000001
  0
LINE
  5
5E5
  8
1
 10
146.72641264403339
 20
48.683167254352149
 30
0.0
 11
203.2364156607787
 21
48.683167254352149
 31
0.0
  0
ARC
  5
62F
  8
0
 10
158.23641264403341
 20
210.73502202255119
 30
0.0
 40
7.0
 50
201.56518501524261
 51
308.53132429037919
  0
ARC
  5
630
  8
0
 10
158.23641264403341
 20
210.73502202255119
 30
0.0
 40
7.0
 50
51.468675709620783
 51
158.43481498475739
  0
ARC
  5
633
  8
0
 10
194.73641264403341
 20
210.73502202255119
 30
0.0
 40
3.5
 50
270.0
 51
90.0
  0
LINE
  5
636
  8
0
 10
179.02743340000649
 20
214.81653505367871
 30
0.0
 11
194.86535785450101
 21
214.23264594926169
 31
0.0
  0
LINE
  5
637
  8
0
 10
179.02743340000649
 20
206.65350899142371
 30
0.0
 11
194.73641264403341
 21
207.23502202255119
 31
0.0
  0
CIRCLE
  5
642
  8
0
 10
158.5187905164685
 20
210.73502202255119
 30
0.0
 40
4.6971000970094821
  0
ARC
  5
6CE
  8
0
 10
173.27214577173211
 20
244.24732698212151
 30
0.0
 40
30.0
 50
249.1551953734386
 51
281.16030063920113
  0
ARC
  5
6D0
  8
0
 10
173.27214577173211
 20
177.22271706298079
 30
0.0
 40
30.0
 50
78.839699360798974
 51
110.8448046265614
  0
LINE
  5
6E7
  8
0
 10
179.02743340000649
 20
52.764680285479642
 30
0.0
 11
194.86535785450101
 21
52.180791181062538
 31
0.0
  0
ARC
  5
6E8
  8
0
 10
194.73641264403341
 20
48.683167254352099
 30
0.0
 40
3.5
 50
270.0
 51
90.0
  0
ARC
  5
6E9
  8
0
 10
173.27214577173211
 20
82.195472213922471
 30
0.0
 40
30.0
 50
249.1551953734386
 51
281.16030063920113
  0
LINE
  5
6EA
  8
0
 10
179.02743340000649
 20
44.601654223224607
 30
0.0
 11
194.73641264403341
 21
45.183167254352099
 31
0.0
  0
ARC
  5
6EB
  8
0
 10
173.27214577173211
 20
15.170862294781781
 30
0.0
 40
30.0
 50
78.839699360798974
 51
110.8448046265614
  0
ARC
  5
6EC
  8
0
 10
158.23641264403341
 20
48.683167254352149
 30
0.0
 40
7.0
 50
201.56518501524261
 51
308.53132429037919
  0
ARC
  5
6ED
  8
0
 10
158.23641264403341
 20
48.683167254352149
 30
0.0
 40
7.0
 50
51.468675709620783
 51
158.43481498475739
  0
LINE
  5
6EE
  8
0
 10
151.72641264403339
 20
46.110250621423688
 30
0.0
 11
151.72641264403339
 21
51.256083887280617
 31
0.0
  0
ARC
  5
6F3
  8
0
 10
205.79940632685441
 20
18.012358036478641
 30
0.0
 40
150.0
 50
93.915861512303536
 51
110.1986696099367
  0
ARC
  5
701
  8
0
 10
195.72641264403339
 20
165.16800624022869
 30
0.0
 40
2.5
 50
0.0
 51
93.915861512302882
  0
ARC
  5
702
  8
0
 10
155.2164126440334
 20
155.50276042909539
 30
0.0
 40
3.5
 50
110.198669609936
 51
180.0
  0
LINE
  5
703
  8
0
 10
102.1463270468487
 20
158.7875140698747
 30
0.0
 11
98.426391264531247
 21
158.7875140698747
 31
0.0
  0
LINE
  5
713
  8
0
 10
91.177390577791073
 20
158.7875140698747
 30
0.0
 11
94.897326360108508
 21
158.7875140698747
 31
0.0
  0
LINE
  5
716
  8
0
 10
100.74679413430231
 20
165.72884716488599
 30
0.0
 11
100.74679413430231
 21
163.25769383438751
 31
0.0
  0
ARC
  5
719
  8
0
 10
192.2375121166927
 20
164.64327122312591
 30
0.0
 40
6.0
 50
282.44396201272468
 51
356.51437909834618
  0
ARC
  5
71E
  8
0
 10
181.1412578349084
 20
165.6711037069193
 30
0.0
 40
10.0
 50
270.0
 51
285.80000000000001
  0
ARC
  5
726
  8
0
 10
195.06364569632279
 20
99.375931041942323
 30
0.0
 40
60.0
 50
112.1950152906777
 51
120.38362357021521
  0
ARC
  5
728
  8
0
 10
176.1756339449509
 20
145.6711037069193
 30
0.0
 40
10.0
 50
90.0
 51
112.1950152906778
  0
LINE
  5
72C
  8
0
 10
103.16185881231981
 20
140.6711037069193
 30
0.0
 11
103.66185881231991
 21
160.2685012150925
 31
0.0
  0
POLYLINE
  5
72D
  8
0
 10
102.14632704684871
 20
158.78751406987479
 30
0.0
 66
     1
 70
     8
  0
VERTEX
  8
0
  5
D1A
 10
102.146
 20
158.788
 30
0.000000
  70
    32
  0
VERTEX
  8
0
  5
D1B
 10
102.191
 20
158.807
 30
0.000000
  70
    32
  0
VERTEX
  8
0
  5
D1C
 10
102.234
 20
158.826
 30
0.000000
  70
    32
  0
VERTEX
  8
0
  5
D1D
 10
102.277
 20
158.846
 30
0.000000
  70
    32
  0
VERTEX
  8
0
  5
D1E
 10
102.320
 20
158.865
 30
0.000000
  70
    32
  0
VERTEX
  8
0
  5
D1F
 10
102.362
 20
158.885
 30
0.000000
  70
    32
  0
VERTEX
  8
0
  5
D20
 10
102.403
 20
158.905
 30
0.000000
  70
    32
  0
VERTEX
  8
0
  5
D21
 10
102.444
 20
158.925
 30
0.000000
  70
    32
  0
VERTEX
  8
0
  5
D22
 10
102.484
 20
158.945
 30
0.000000
  70
    32
  0
VERTEX
  8
0
  5
D23
 10
102.523
 20
158.966
 30
0.000000
  70
    32
  0
VERTEX
  8
0
  5
D24
 10
102.562
 20
158.986
 30
0.000000
  70
    32
  0
VERTEX
  8
0
  5
D25
 10
102.600
 20
159.007
 30
0.000000
  70
    32
  0
VERTEX
  8
0
  5
D26
 10
102.638
 20
159.027
 30
0.000000
  70
    32
  0
VERTEX
  8
0
  5
D27
 10
102.675
 20
159.048
 30
0.000000
  70
    32
  0
VERTEX
  8
0
  5
D28
 10
102.711
 20
159.069
 30
0.000000
  70
    32
  0
VERTEX
  8
0
  5
D29
 10
102.747
 20
159.090
 30
0.000000
  70
    32
  0
VERTEX
  8
0
  5
D2A
 10
102.782
 20
159.112
 30
0.000000
  70
    32
  0
VERTEX
  8
0
  5
D2B
 10
102.817
 20
159.133
 30
0.000000
  70
    32
  0
VERTEX
  8
0
  5
D2C
 10
102.850
 20
159.155
 30
0.000000
  70
    32
  0
VERTEX
  8
0
  5
D2D
 10
102.883
 20
159.176
 30
0.000000
  70
    32
  0
VERTEX
  8
0
  5
D2E
 10
102.916
 20
159.198
 30
0.000000
  70
    32
  0
VERTEX
  8
0
  5
D2F
 10
102.948
 20
159.220
 30
0.000000
  70
    32
  0
VERTEX
  8
0
  5
D30
 10
102.979
 20
159.242
 30
0.000000
  70
    32
  0
VERTEX
  8
0
  5
D31
 10
103.010
 20
159.264
 30
0.000000
  70
    32
  0
VERTEX
  8
0
  5
D32
 10
103.039
 20
159.286
 30
0.000000
  70
    32
  0
VERTEX
  8
0
  5
D33
 10
103.069
 20
159.308
 30
0.000000
  70
    32
  0
VERTEX
  8
0
  5
D34
 10
103.097
 20
159.331
 30
0.000000
  70
    32
  0
VERTEX
  8
0
  5
D35
 10
103.125
 20
159.353
 30
0.000000
  70
    32
  0
VERTEX
  8
0
  5
D36
 10
103.152
 20
159.376
 30
0.000000
  70
    32
  0
VERTEX
  8
0
  5
D37
 10
103.179
 20
159.398
 30
0.000000
  70
    32
  0
VERTEX
  8
0
  5
D38
 10
103.205
 20
159.421
 30
0.000000
  70
    32
  0
VERTEX
  8
0
  5
D39
 10
103.230
 20
159.444
 30
0.000000
  70
    32
  0
VERTEX
  8
0
  5
D3A
 10
103.254
 20
159.467
 30
0.000000
  70
    32
  0
VERTEX
  8
0
  5
D3B
 10
103.278
 20
159.490
 30
0.000000
  70
    32
  0
VERTEX
  8
0
  5
D3C
 10
103.301
 20
159.513
 30
0.000000
  70
    32
  0
VERTEX
  8
0
  5
D3D
 10
103.323
 20
159.536
 30
0.000000
  70
    32
  0
VERTEX
  8
0
  5
D3E
 10
103.345
 20
159.559
 30
0.000000
  70
    32
  0
VERTEX
  8
0
  5
D3F
 10
103.366
 20
159.583
 30
0.000000
  70
    32
  0
VERTEX
  8
0
  5
D40
 10
103.386
 20
159.606
 30
0.000000
  70
    32
  0
VERTEX
  8
0
  5
D41
 10
103.406
 20
159.630
 30
0.000000
  70
    32
  0
VERTEX
  8
0
  5
D42
 10
103.425
 20
159.653
 30
0.000000
  70
    32
  0
VERTEX
  8
0
  5
D43
 10
103.443
 20
159.677
 30
0.000000
  70
    32
  0
VERTEX
  8
0
  5
D44
 10
103.460
 20
159.700
 30
0.000000
  70
    32
  0
VERTEX
  8
0
  5
D45
 10
103.477
 20
159.724
 30
0.000000
  70
    32
  0
VERTEX
  8
0
  5
D46
 10
103.493
 20
159.748
 30
0.000000
  70
    32
  0
VERTEX
  8
0
  5
D47
 10
103.508
 20
159.772
 30
0.000000
  70
    32
  0
VERTEX
  8
0
  5
D48
 10
103.523
 20
159.796
 30
0.000000
  70
    32
  0
VERTEX
  8
0
  5
D49
 10
103.537
 20
159.820
 30
0.000000
  70
    32
  0
VERTEX
  8
0
  5
D4A
 10
103.550
 20
159.844
 30
0.000000
  70
    32
  0
VERTEX
  8
0
  5
D4B
 10
103.562
 20
159.868
 30
0.000000
  70
    32
  0
VERTEX
  8
0
  5
D4C
 10
103.574
 20
159.892
 30
0.000000
  70
    32
  0
VERTEX
  8
0
  5
D4D
 10
103.585
 20
159.916
 30
0.000000
  70
    32
  0
VERTEX
  8
0
  5
D4E
 10
103.595
 20
159.940
 30
0.000000
  70
    32
  0
VERTEX
  8
0
  5
D4F
 10
103.605
 20
159.964
 30
0.000000
  70
    32
  0
VERTEX
  8
0
  5
D50
 10
103.613
 20
159.988
 30
0.000000
  70
    32
  0
VERTEX
  8
0
  5
D51
 10
103.621
 20
160.013
 30
0.000000
  70
    32
  0
VERTEX
  8
0
  5
D52
 10
103.629
 20
160.037
 30
0.000000
  70
    32
  0
VERTEX
  8
0
  5
D53
 10
103.635
 20
160.061
 30
0.000000
  70
    32
  0
VERTEX
  8
0
  5
D54
 10
103.641
 20
160.085
 30
0.000000
  70
    32
  0
VERTEX
  8
0
  5
D55
 10
103.646
 20
160.110
 30
0.000000
  70
    32
  0
VERTEX
  8
0
  5
D56
 10
103.651
 20
160.134
 30
0.000000
  70
    32
  0
VERTEX
  8
0
  5
D57
 10
103.654
 20
160.158
 30
0.000000
  70
    32
  0
VERTEX
  8
0
  5
D58
 10
103.657
 20
160.183
 30
0.000000
  70
    32
  0
VERTEX
  8
0
  5
D59
 10
103.660
 20
160.207
 30
0.000000
  70
    32
  0
VERTEX
  8
0
  5
D5A
 10
103.661
 20
160.232
 30
0.000000
  70
    32
  0
VERTEX
  8
0
  5
D5B
 10
103.662
 20
160.256
 30
0.000000
  70
    32
  0
VERTEX
  8
0
  5
D5C
 10
103.662
 20
160.280
 30
0.000000
  70
    32
  0
VERTEX
  8
0
  5
D5D
 10
103.661
 20
160.305
 30
0.000000
  70
    32
  0
VERTEX
  8
0
  5
D5E
 10
103.660
 20
160.329
 30
0.000000
  70
    32
  0
VERTEX
  8
0
  5
D5F
 10
103.657
 20
160.354
 30
0.000000
  70
    32
  0
VERTEX
  8
0
  5
D60
 10
103.654
 20
160.378
 30
0.000000
  70
    32
  0
VERTEX
  8
0
  5
D61
 10
103.651
 20
160.402
 30
0.000000
  70
    32
  0
VERTEX
  8
0
  5
D62
 10
103.646
 20
160.427
 30
0.000000
  70
    32
  0
VERTEX
  8
0
  5
D63
 10
103.641
 20
160.451
 30
0.000000
  70
    32
  0
VERTEX
  8
0
  5
D64
 10
103.635
 20
160.475
 30
0.000000
  70
    32
  0
VERTEX
  8
0
  5
D65
 10
103.629
 20
160.500
 30
0.000000
  70
    32
  0
VERTEX
  8
0
  5
D66
 10
103.622
 20
160.524
 30
0.000000
  70
    32
  0
VERTEX
  8
0
  5
D67
 10
103.614
 20
160.548
 30
0.000000
  70
    32
  0
VERTEX
  8
0
  5
D68
 10
103.605
 20
160.572
 30
0.000000
  70
    32
  0
VERTEX
  8
0
  5
D69
 10
103.595
 20
160.596
 30
0.000000
  70
    32
  0
VERTEX
  8
0
  5
D6A
 10
103.585
 20
160.621
 30
0.000000
  70
    32
  0
VERTEX
  8
0
  5
D6B
 10
103.574
 20
160.645
 30
0.000000
  70
    32
  0
VERTEX
  8
0
  5
D6C
 10
103.562
 20
160.669
 30
0.000000
  70
    32
  0
VERTEX
  8
0
  5
D6D
 10
103.550
 20
160.693
 30
0.000000
  70
    32
  0
VERTEX
  8
0
  5
D6E
 10
103.537
 20
160.717
 30
0.000000
  70
    32
  0
VERTEX
  8
0
  5
D6F
 10
103.523
 20
160.741
 30
0.000000
  70
    32
  0
VERTEX
  8
0
  5
D70
 10
103.509
 20
160.765
 30
0.000000
  70
    32
  0
VERTEX
  8
0
  5
D71
 10
103.493
 20
160.788
 30
0.000000
  70
    32
  0
VERTEX
  8
0
  5
D72
 10
103.477
 20
160.812
 30
0.000000
  70
    32
  0
VERTEX
  8
0
  5
D73
 10
103.461
 20
160.836
 30
0.000000
  70
    32
  0
VERTEX
  8
0
  5
D74
 10
103.443
 20
160.860
 30
0.000000
  70
    32
  0
VERTEX
  8
0
  5
D75
 10
103.425
 20
160.883
 30
0.000000
  70
    32
  0
VERTEX
  8
0
  5
D76
 10
103.406
 20
160.907
 30
0.000000
  70
    32
  0
VERTEX
  8
0
  5
D77
 10
103.387
 20
160.930
 30
0.000000
  70
    32
  0
VERTEX
  8
0
  5
D78
 10
103.366
 20
160.954
 30
0.000000
  70
    32
  0
VERTEX
  8
0
  5
D79
 10
103.346
 20
160.977
 30
0.000000
  70
    32
  0
VERTEX
  8
0
  5
D7A
 10
103.324
 20
161.000
 30
0.000000
  70
    32
  0
VERTEX
  8
0
  5
D7B
 10
103.302
 20
161.023
 30
0.000000
  70
    32
  0
VERTEX
  8
0
  5
D7C
 10
103.279
 20
161.046
 30
0.000000
  70
    32
  0
VERTEX
  8
0
  5
D7D
 10
103.255
 20
161.069
 30
0.000000
  70
    32
  0
VERTEX
  8
0
  5
D7E
 10
103.230
 20
161.092
 30
0.000000
  70
    32
  0
VERTEX
  8
0
  5
D7F
 10
103.205
 20
161.115
 30
0.000000
  70
    32
  0
VERTEX
  8
0
  5
D80
 10
103.179
 20
161.138
 30
0.000000
  70
    32
  0
VERTEX
  8
0
  5
D81
 10
103.153
 20
161.161
 30
0.000000
  70
    32
  0
VERTEX
  8
0
  5
D82
 10
103.126
 20
161.183
 30
0.000000
  70
    32
  0
VERTEX
  8
0
  5
D83
 10
103.098
 20
161.206
 30
0.000000
  70
    32
  0
VERTEX
  8
0
  5
D84
 10
103.069
 20
161.228
 30
0.000000
  70
    32
  0
VERTEX
  8
0
  5
D85
 10
103.040
 20
161.250
 30
0.000000
  70
    32
  0
VERTEX
  8
0
  5
D86
 10
103.010
 20
161.272
 30
0.000000
  70
    32
  0
VERTEX
  8
0
  5
D87
 10
102.980
 20
161.295
 30
0.000000
  70
    32
  0
VERTEX
  8
0
  5
D88
 10
102.949
 20
161.317
 30
0.000000
  70
    32
  0
VERTEX
  8
0
  5
D89
 10
102.917
 20
161.338
 30
0.000000
  70
    32
  0
VERTEX
  8
0
  5
D8A
 10
102.884
 20
161.360
 30
0.000000
  70
    32
  0
VERTEX
  8
0
  5
D8B
 10
102.851
 20
161.382
 30
0.000000
  70
    32
  0
VERTEX
  8
0
  5
D8C
 10
102.818
 20
161.403
 30
0.000000
  70
    32
  0
VERTEX
  8
0
  5
D8D
 10
102.783
 20
161.425
 30
0.000000
  70
    32
  0
VERTEX
  8
0
  5
D8E
 10
102.748
 20
161.446
 30
0.000000
  70
    32
  0
VERTEX
  8
0
  5
D8F
 10
102.712
 20
161.467
 30
0.000000
  70
    32
  0
VERTEX
  8
0
  5
D90
 10
102.676
 20
161.488
 30
0.000000
  70
    32
  0
VERTEX
  8
0
  5
D91
 10
102.639
 20
161.509
 30
0.000000
  70
    32
  0
VERTEX
  8
0
  5
D92
 10
102.601
 20
161.530
 30
0.000000
  70
    32
  0
VERTEX
  8
0
  5
D93
 10
102.563
 20
161.550
 30
0.000000
  70
    32
  0
VERTEX
  8
0
  5
D94
 10
102.524
 20
161.571
 30
0.000000
  70
    32
  0
VERTEX
  8
0
  5
D95
 10
102.485
 20
161.591
 30
0.000000
  70
    32
  0
VERTEX
  8
0
  5
D96
 10
102.445
 20
161.611
 30
0.000000
  70
    32
  0
VERTEX
  8
0
  5
D97
 10
102.404
 20
161.632
 30
0.000000
  70
    32
  0
VERTEX
  8
0
  5
D98
 10
102.363
 20
161.651
 30
0.000000
  70
    32
  0
VERTEX
  8
0
  5
D99
 10
102.321
 20
161.671
 30
0.000000
  70
    32
  0
VERTEX
  8
0
  5
D9A
 10
102.279
 20
161.691
 30
0.000000
  70
    32
  0
SEQEND
  8
0
  5
D9B
  0
LINE
  5
72F
  8
0
 10
90.161858812319878
 20
140.6711037069193
 30
0.0
 11
89.661858812319878
 21
160.2685012150925
 31
0.0
  0
ARC
  5
734
  8
0
 10
101.76154345787241
 20
164.5356209448251
 30
0.0
 40
1.5
 50
135.62248582632071
 51
194.54190412830249
  0
ARC
  5
76A
  8
0
 10
107.860896601261
 20
168.75043344511849
 30
0.0
 40
9.0
 50
219.44968032693691
 51
231.6645676099084
  0
ARC
  5
76B
  8
0
 10
104.9852201407918
 20
165.93058393639691
 30
0.0
 40
5.0
 50
200.75171325611291
 51
215.43300582698109
  0
LINE
  5
771
  8
0
 10
100.1917042618729
 20
167.54761760847441
 30
0.0
 11
100.4535980854654
 21
166.91512940758079
 31
0.0
  0
LINE
  5
772
  8
0
 10
100.4535980854654
 20
166.91512940758079
 30
0.0
 11
100.74044598021131
 21
165.77330133403649
 31
0.0
  0
ARC
  5
775
  8
0
 10
100.54647320312461
 20
165.72457185887771
 30
0.0
 40
0.2
 50
315.62248582632043
 51
14.10191193147306
  0
ARC
  5
776
  8
0
 10
100.0069189191944
 20
167.47110370691931
 30
0.0
 40
0.2
 50
22.492934975536091
 51
90.0
  0
LINE
  5
786
  8
0
 10
92.870119539174368
 20
166.91512940758079
 30
0.0
 11
92.583271644428407
 21
165.77330133403649
 31
0.0
  0
ARC
  5
787
  8
0
 10
88.338497483847959
 20
165.93058393639691
 30
0.0
 40
5.0
 50
324.56699417301888
 51
339.24828674388721
  0
LINE
  5
788
  8
0
 10
92.576923490337407
 20
165.72884716488599
 30
0.0
 11
92.576923490337407
 21
163.25769383438751
 31
0.0
  0
ARC
  5
789
  8
0
 10
92.777244421515135
 20
165.72457185887771
 30
0.0
 40
0.2
 50
165.8980880685269
 51
224.37751417367971
  0
ARC
  5
78A
  8
0
 10
91.562174166767363
 20
164.5356209448251
 30
0.0
 40
1.5
 50
345.45809587169748
 51
44.377514173679231
  0
LINE
  5
78B
  8
0
 10
93.132013362766799
 20
167.54761760847441
 30
0.0
 11
92.870119539174368
 21
166.91512940758079
 31
0.0
  0
ARC
  5
78C
  8
0
 10
93.316798705445336
 20
167.47110370691931
 30
0.0
 40
0.2
 50
90.0
 51
157.50706502446391
  0
ARC
  5
78D
  8
0
 10
85.462821023378723
 20
168.75043344511849
 30
0.0
 40
9.0
 50
308.33543239009163
 51
320.55031967306309
  0
POLYLINE
  5
78E
  8
0
 10
91.177390577791073
 20
158.78751406987479
 30
0.0
 66
     1
 70
     8
  0
VERTEX
  8
0
  5
D9C
 10
91.1774
 20
158.788
 30
0.000000
  70
    32
  0
VERTEX
  8
0
  5
D9D
 10
91.1332
 20
158.807
 30
0.000000
  70
    32
  0
VERTEX
  8
0
  5
D9E
 10
91.0895
 20
158.826
 30
0.000000
  70
    32
  0
VERTEX
  8
0
  5
D9F
 10
91.0464
 20
158.846
 30
0.000000
  70
    32
  0
VERTEX
  8
0
  5
DA0
 10
91.0040
 20
158.865
 30
0.000000
  70
    32
  0
VERTEX
  8
0
  5
DA1
 10
90.9621
 20
158.885
 30
0.000000
  70
    32
  0
VERTEX
  8
0
  5
DA2
 10
90.9208
 20
158.905
 30
0.000000
  70
    32
  0
VERTEX
  8
0
  5
DA3
 10
90.8801
 20
158.925
 30
0.000000
  70
    32
  0
VERTEX
  8
0
  5
DA4
 10
90.8400
 20
158.945
 30
0.000000
  70
    32
  0
VERTEX
  8
0
  5
DA5
 10
90.8005
 20
158.966
 30
0.000000
  70
    32
  0
VERTEX
  8
0
  5
DA6
 10
90.7617
 20
158.986
 30
0.000000
  70
    32
  0
VERTEX
  8
0
  5
DA7
 10
90.7234
 20
159.007
 30
0.000000
  70
    32
  0
VERTEX
  8
0
  5
DA8
 10
90.6858
 20
159.027
 30
0.000000
  70
    32
  0
VERTEX
  8
0
  5
DA9
 10
90.6488
 20
159.048
 30
0.000000
  70
    32
  0
VERTEX
  8
0
  5
DAA
 10
90.6125
 20
159.069
 30
0.000000
  70
    32
  0
VERTEX
  8
0
  5
DAB
 10
90.5767
 20
159.090
 30
0.000000
  70
    32
  0
VERTEX
  8
0
  5
DAC
 10
90.5416
 20
159.112
 30
0.000000
  70
    32
  0
VERTEX
  8
0
  5
DAD
 10
90.5072
 20
159.133
 30
0.000000
  70
    32
  0
VERTEX
  8
0
  5
DAE
 10
90.4734
 20
159.155
 30
0.000000
  70
    32
  0
VERTEX
  8
0
  5
DAF
 10
90.4402
 20
159.176
 30
0.000000
  70
    32
  0
VERTEX
  8
0
  5
DB0
 10
90.4077
 20
159.198
 30
0.000000
  70
    32
  0
VERTEX
  8
0
  5
DB1
 10
90.3759
 20
159.220
 30
0.000000
  70
    32
  0
VERTEX
  8
0
  5
DB2
 10
90.3447
 20
159.242
 30
0.000000
  70
    32
  0
VERTEX
  8
0
  5
DB3
 10
90.3141
 20
159.264
 30
0.000000
  70
    32
  0
VERTEX
  8
0
  5
DB4
 10
90.2843
 20
159.286
 30
0.000000
  70
    32
  0
VERTEX
  8
0
  5
DB5
 10
90.2551
 20
159.308
 30
0.000000
  70
    32
  0
VERTEX
  8
0
  5
DB6
 10
90.2265
 20
159.331
 30
0.000000
  70
    32
  0
VERTEX
  8
0
  5
DB7
 10
90.1987
 20
159.353
 30
0.000000
  70
    32
  0
VERTEX
  8
0
  5
DB8
 10
90.1715
 20
159.376
 30
0.000000
  70
    32
  0
VERTEX
  8
0
  5
DB9
 10
90.1450
 20
159.398
 30
0.000000
  70
    32
  0
VERTEX
  8
0
  5
DBA
 10
90.1192
 20
159.421
 30
0.000000
  70
    32
  0
VERTEX
  8
0
  5
DBB
 10
90.0941
 20
159.444
 30
0.000000
  70
    32
  0
VERTEX
  8
0
  5
DBC
 10
90.0696
 20
159.467
 30
0.000000
  70
    32
  0
VERTEX
  8
0
  5
DBD
 10
90.0459
 20
159.490
 30
0.000000
  70
    32
  0
VERTEX
  8
0
  5
DBE
 10
90.0228
 20
159.513
 30
0.000000
  70
    32
  0
VERTEX
  8
0
  5
DBF
 10
90.0005
 20
159.536
 30
0.000000
  70
    32
  0
VERTEX
  8
0
  5
DC0
 10
89.9788
 20
159.559
 30
0.000000
  70
    32
  0
VERTEX
  8
0
  5
DC1
 10
89.9578
 20
159.583
 30
0.000000
  70
    32
  0
VERTEX
  8
0
  5
DC2
 10
89.9376
 20
159.606
 30
0.000000
  70
    32
  0
VERTEX
  8
0
  5
DC3
 10
89.9180
 20
159.630
 30
0.000000
  70
    32
  0
VERTEX
  8
0
  5
DC4
 10
89.8992
 20
159.653
 30
0.000000
  70
    32
  0
VERTEX
  8
0
  5
DC5
 10
89.8810
 20
159.677
 30
0.000000
  70
    32
  0
VERTEX
  8
0
  5
DC6
 10
89.8636
 20
159.700
 30
0.000000
  70
    32
  0
VERTEX
  8
0
  5
DC7
 10
89.8469
 20
159.724
 30
0.000000
  70
    32
  0
VERTEX
  8
0
  5
DC8
 10
89.8309
 20
159.748
 30
0.000000
  70
    32
  0
VERTEX
  8
0
  5
DC9
 10
89.8156
 20
159.772
 30
0.000000
  70
    32
  0
VERTEX
  8
0
  5
DCA
 10
89.8010
 20
159.796
 30
0.000000
  70
    32
  0
VERTEX
  8
0
  5
DCB
 10
89.7872
 20
159.820
 30
0.000000
  70
    32
  0
VERTEX
  8
0
  5
DCC
 10
89.7740
 20
159.844
 30
0.000000
  70
    32
  0
VERTEX
  8
0
  5
DCD
 10
89.7616
 20
159.868
 30
0.000000
  70
    32
  0
VERTEX
  8
0
  5
DCE
 10
89.7499
 20
159.892
 30
0.000000
  70
    32
  0
VERTEX
  8
0
  5
DCF
 10
89.7390
 20
159.916
 30
0.000000
  70
    32
  0
VERTEX
  8
0
  5
DD0
 10
89.7287
 20
159.940
 30
0.000000
  70
    32
  0
VERTEX
  8
0
  5
DD1
 10
89.7192
 20
159.964
 30
0.000000
  70
    32
  0
VERTEX
  8
0
  5
DD2
 10
89.7104
 20
159.988
 30
0.000000
  70
    32
  0
VERTEX
  8
0
  5
DD3
 10
89.7024
 20
160.013
 30
0.000000
  70
    32
  0
VERTEX
  8
0
  5
DD4
 10
89.6950
 20
160.037
 30
0.000000
  70
    32
  0
VERTEX
  8
0
  5
DD5
 10
89.6884
 20
160.061
 30
0.000000
  70
    32
  0
VERTEX
  8
0
  5
DD6
 10
89.6826
 20
160.085
 30
0.000000
  70
    32
  0
VERTEX
  8
0
  5
DD7
 10
89.6774
 20
160.110
 30
0.000000
  70
    32
  0
VERTEX
  8
0
  5
DD8
 10
89.6730
 20
160.134
 30
0.000000
  70
    32
  0
VERTEX
  8
0
  5
DD9
 10
89.6693
 20
160.158
 30
0.000000
  70
    32
  0
VERTEX
  8
0
  5
DDA
 10
89.6664
 20
160.183
 30
0.000000
  70
    32
  0
VERTEX
  8
0
  5
DDB
 10
89.6642
 20
160.207
 30
0.000000
  70
    32
  0
VERTEX
  8
0
  5
DDC
 10
89.6627
 20
160.232
 30
0.000000
  70
    32
  0
VERTEX
  8
0
  5
DDD
 10
89.6620
 20
160.256
 30
0.000000
  70
    32
  0
VERTEX
  8
0
  5
DDE
 10
89.6619
 20
160.280
 30
0.000000
  70
    32
  0
VERTEX
  8
0
  5
DDF
 10
89.6627
 20
160.305
 30
0.000000
  70
    32
  0
VERTEX
  8
0
  5
DE0
 10
89.6641
 20
160.329
 30
0.000000
  70
    32
  0
VERTEX
  8
0
  5
DE1
 10
89.6663
 20
160.354
 30
0.000000
  70
    32
  0
VERTEX
  8
0
  5
DE2
 10
89.6692
 20
160.378
 30
0.000000
  70
    32
  0
VERTEX
  8
0
  5
DE3
 10
89.6729
 20
160.402
 30
0.000000
  70
    32
  0
VERTEX
  8
0
  5
DE4
 10
89.6773
 20
160.427
 30
0.000000
  70
    32
  0
VERTEX
  8
0
  5
DE5
 10
89.6824
 20
160.451
 30
0.000000
  70
    32
  0
VERTEX
  8
0
  5
DE6
 10
89.6882
 20
160.475
 30
0.000000
  70
    32
  0
VERTEX
  8
0
  5
DE7
 10
89.6948
 20
160.500
 30
0.000000
  70
    32
  0
VERTEX
  8
0
  5
DE8
 10
89.7021
 20
160.524
 30
0.000000
  70
    32
  0
VERTEX
  8
0
  5
DE9
 10
89.7102
 20
160.548
 30
0.000000
  70
    32
  0
VERTEX
  8
0
  5
DEA
 10
89.7189
 20
160.572
 30
0.000000
  70
    32
  0
VERTEX
  8
0
  5
DEB
 10
89.7284
 20
160.596
 30
0.000000
  70
    32
  0
VERTEX
  8
0
  5
DEC
 10
89.7386
 20
160.621
 30
0.000000
  70
    32
  0
VERTEX
  8
0
  5
DED
 10
89.7496
 20
160.645
 30
0.000000
  70
    32
  0
VERTEX
  8
0
  5
DEE
 10
89.7613
 20
160.669
 30
0.000000
  70
    32
  0
VERTEX
  8
0
  5
DEF
 10
89.7737
 20
160.693
 30
0.000000
  70
    32
  0
VERTEX
  8
0
  5
DF0
 10
89.7868
 20
160.717
 30
0.000000
  70
    32
  0
VERTEX
  8
0
  5
DF1
 10
89.8006
 20
160.741
 30
0.000000
  70
    32
  0
VERTEX
  8
0
  5
DF2
 10
89.8152
 20
160.765
 30
0.000000
  70
    32
  0
VERTEX
  8
0
  5
DF3
 10
89.8304
 20
160.788
 30
0.000000
  70
    32
  0
VERTEX
  8
0
  5
DF4
 10
89.8464
 20
160.812
 30
0.000000
  70
    32
  0
VERTEX
  8
0
  5
DF5
 10
89.8631
 20
160.836
 30
0.000000
  70
    32
  0
VERTEX
  8
0
  5
DF6
 10
89.8805
 20
160.860
 30
0.000000
  70
    32
  0
VERTEX
  8
0
  5
DF7
 10
89.8986
 20
160.883
 30
0.000000
  70
    32
  0
VERTEX
  8
0
  5
DF8
 10
89.9175
 20
160.907
 30
0.000000
  70
    32
  0
VERTEX
  8
0
  5
DF9
 10
89.9370
 20
160.930
 30
0.000000
  70
    32
  0
VERTEX
  8
0
  5
DFA
 10
89.9572
 20
160.954
 30
0.000000
  70
    32
  0
VERTEX
  8
0
  5
DFB
 10
89.9782
 20
160.977
 30
0.000000
  70
    32
  0
VERTEX
  8
0
  5
DFC
 10
89.9998
 20
161.000
 30
0.000000
  70
    32
  0
VERTEX
  8
0
  5
DFD
 10
90.0222
 20
161.023
 30
0.000000
  70
    32
  0
VERTEX
  8
0
  5
DFE
 10
90.0452
 20
161.046
 30
0.000000
  70
    32
  0
VERTEX
  8
0
  5
DFF
 10
90.0689
 20
161.069
 30
0.000000
  70
    32
  0
VERTEX
  8
0
  5
E00
 10
90.0934
 20
161.092
 30
0.000000
  70
    32
  0
VERTEX
  8
0
  5
E01
 10
90.1185
 20
161.115
 30
0.000000
  70
    32
  0
VERTEX
  8
0
  5
E02
 10
90.1443
 20
161.138
 30
0.000000
  70
    32
  0
VERTEX
  8
0
  5
E03
 10
90.1707
 20
161.161
 30
0.000000
  70
    32
  0
VERTEX
  8
0
  5
E04
 10
90.1979
 20
161.183
 30
0.000000
  70
    32
  0
VERTEX
  8
0
  5
E05
 10
90.2257
 20
161.206
 30
0.000000
  70
    32
  0
VERTEX
  8
0
  5
E06
 10
90.2542
 20
161.228
 30
0.000000
  70
    32
  0
VERTEX
  8
0
  5
E07
 10
90.2834
 20
161.250
 30
0.000000
  70
    32
  0
VERTEX
  8
0
  5
E08
 10
90.3133
 20
161.272
 30
0.000000
  70
    32
  0
VERTEX
  8
0
  5
E09
 10
90.3438
 20
161.295
 30
0.000000
  70
    32
  0
VERTEX
  8
0
  5
E0A
 10
90.3749
 20
161.317
 30
0.000000
  70
    32
  0
VERTEX
  8
0
  5
E0B
 10
90.4068
 20
161.338
 30
0.000000
  70
    32
  0
VERTEX
  8
0
  5
E0C
 10
90.4393
 20
161.360
 30
0.000000
  70
    32
  0
VERTEX
  8
0
  5
E0D
 10
90.4724
 20
161.382
 30
0.000000
  70
    32
  0
VERTEX
  8
0
  5
E0E
 10
90.5062
 20
161.403
 30
0.000000
  70
    32
  0
VERTEX
  8
0
  5
E0F
 10
90.5406
 20
161.425
 30
0.000000
  70
    32
  0
VERTEX
  8
0
  5
E10
 10
90.5757
 20
161.446
 30
0.000000
  70
    32
  0
VERTEX
  8
0
  5
E11
 10
90.6114
 20
161.467
 30
0.000000
  70
    32
  0
VERTEX
  8
0
  5
E12
 10
90.6478
 20
161.488
 30
0.000000
  70
    32
  0
VERTEX
  8
0
  5
E13
 10
90.6847
 20
161.509
 30
0.000000
  70
    32
  0
VERTEX
  8
0
  5
E14
 10
90.7223
 20
161.530
 30
0.000000
  70
    32
  0
VERTEX
  8
0
  5
E15
 10
90.7606
 20
161.550
 30
0.000000
  70
    32
  0
VERTEX
  8
0
  5
E16
 10
90.7994
 20
161.571
 30
0.000000
  70
    32
  0
VERTEX
  8
0
  5
E17
 10
90.8389
 20
161.591
 30
0.000000
  70
    32
  0
VERTEX
  8
0
  5
E18
 10
90.8789
 20
161.611
 30
0.000000
  70
    32
  0
VERTEX
  8
0
  5
E19
 10
90.9196
 20
161.632
 30
0.000000
  70
    32
  0
VERTEX
  8
0
  5
E1A
 10
90.9609
 20
161.651
 30
0.000000
  70
    32
  0
VERTEX
  8
0
  5
E1B
 10
91.0027
 20
161.671
 30
0.000000
  70
    32
  0
VERTEX
  8
0
  5
E1C
 10
91.0452
 20
161.691
 30
0.000000
  70
    32
  0
SEQEND
  8
0
  5
E1D
  0
LINE
  5
9BE
  8
0
 10
253.8654262561536
 20
159.140976079425
 30
0.0
 11
253.8450920991975
 21
159.39287227415349
 31
0.0
  0
ARC
  5
A0C
  8
0
 10
250.359634178335
 20
166.65351143102359
 30
0.0
 40
1.0
 50
235.76817851301581
 51
304.2318214869839
  0
LINE
  5
A4C
  8
0
 10
246.56789490518949
 20
166.91512940758079
 30
0.0
 11
246.2810470104435
 21
165.77330133403649
 31
0.0
  0
LINE
  5
A51
  8
0
 10
246.82978872878189
 20
167.54761760847441
 30
0.0
 11
246.56789490518949
 21
166.91512940758079
 31
0.0
  0
LINE
  5
A53
  8
0
 10
254.15137345148051
 20
166.91512940758079
 30
0.0
 11
254.43822134622641
 21
165.77330133403649
 31
0.0
  0
ARC
  5
A58
  8
0
 10
253.7046942852096
 20
167.47110370691931
 30
0.0
 40
0.2
 50
22.492934975536091
 51
90.0
  0
LINE
  5
A59
  8
0
 10
253.88947962788811
 20
167.54761760847441
 30
0.0
 11
254.15137345148051
 21
166.91512940758079
 31
0.0
  0
ARC
  5
A63
  8
0
 10
253.74166813822021
 20
167.2728162049894
 30
0.0
 40
0.4
 50
95.303685279422695
 51
111.7307513085735
  0
LINE
  5
A66
  8
0
 10
253.59356998613649
 20
167.6443898011307
 30
0.0
 11
250.93337038169139
 21
165.83435938673469
 31
0.0
  0
LINE
  5
A67
  8
0
 10
247.12569837053351
 20
167.6443898011307
 30
0.0
 11
249.78589797497861
 21
165.83435938673469
 31
0.0
  0
ARC
  5
A68
  8
0
 10
246.97760021844979
 20
167.2728162049894
 30
0.0
 40
0.4
 50
68.269248691426469
 51
84.696314720577305
  0
ARC
  5
A69
  8
0
 10
247.01457407146049
 20
167.47110370691931
 30
0.0
 40
0.2
 50
90.0
 51
157.50706502446391
  0
POLYLINE
  5
A84
  8
0
 10
250.95291006006977
 20
163.93450662381926
 30
0.0
 66
     1
 70
     8
  0
VERTEX
  8
0
  5
E1E
 10
250.953
 20
163.935
 30
0.000000
  70
    32
  0
VERTEX
  8
0
  5
E1F
 10
250.945
 20
163.945
 30
0.000000
  70
    32
  0
VERTEX
  8
0
  5
E20
 10
250.938
 20
163.956
 30
0.000000
  70
    32
  0
VERTEX
  8
0
  5
E21
 10
250.930
 20
163.966
 30
0.000000
  70
    32
  0
VERTEX
  8
0
  5
E22
 10
250.922
 20
163.976
 30
0.000000
  70
    32
  0
VERTEX
  8
0
  5
E23
 10
250.915
 20
163.987
 30
0.000000
  70
    32
  0
VERTEX
  8
0
  5
E24
 10
250.907
 20
163.997
 30
0.000000
  70
    32
  0
VERTEX
  8
0
  5
E25
 10
250.899
 20
164.006
 30
0.000000
  70
    32
  0
VERTEX
  8
0
  5
E26
 10
250.891
 20
164.016
 30
0.000000
  70
    32
  0
VERTEX
  8
0
  5
E27
 10
250.883
 20
164.026
 30
0.000000
  70
    32
  0
VERTEX
  8
0
  5
E28
 10
250.874
 20
164.035
 30
0.000000
  70
    32
  0
VERTEX
  8
0
  5
E29
 10
250.866
 20
164.044
 30
0.000000
  70
    32
  0
VERTEX
  8
0
  5
E2A
 10
250.858
 20
164.053
 30
0.000000
  70
    32
  0
VERTEX
  8
0
  5
E2B
 10
250.849
 20
164.062
 30
0.000000
  70
    32
  0
VERTEX
  8
0
  5
E2C
 10
250.841
 20
164.071
 30
0.000000
  70
    32
  0
VERTEX
  8
0
  5
E2D
 10
250.832
 20
164.080
 30
0.000000
  70
    32
  0
VERTEX
  8
0
  5
E2E
 10
250.824
 20
164.088
 30
0.000000
  70
    32
  0
VERTEX
  8
0
  5
E2F
 10
250.815
 20
164.097
 30
0.000000
  70
    32
  0
VERTEX
  8
0
  5
E30
 10
250.806
 20
164.105
 30
0.000000
  70
    32
  0
VERTEX
  8
0
  5
E31
 10
250.798
 20
164.113
 30
0.000000
  70
    32
  0
VERTEX
  8
0
  5
E32
 10
250.789
 20
164.121
 30
0.000000
  70
    32
  0
VERTEX
  8
0
  5
E33
 10
250.780
 20
164.128
 30
0.000000
  70
    32
  0
VERTEX
  8
0
  5
E34
 10
250.771
 20
164.136
 30
0.000000
  70
    32
  0
VERTEX
  8
0
  5
E35
 10
250.762
 20
164.143
 30
0.000000
  70
    32
  0
VERTEX
  8
0
  5
E36
 10
250.753
 20
164.151
 30
0.000000
  70
    32
  0
VERTEX
  8
0
  5
E37
 10
250.744
 20
164.158
 30
0.000000
  70
    32
  0
VERTEX
  8
0
  5
E38
 10
250.734
 20
164.164
 30
0.000000
  70
    32
  0
VERTEX
  8
0
  5
E39
 10
250.725
 20
164.171
 30
0.000000
  70
    32
  0
VERTEX
  8
0
  5
E3A
 10
250.716
 20
164.178
 30
0.000000
  70
    32
  0
VERTEX
  8
0
  5
E3B
 10
250.707
 20
164.184
 30
0.000000
  70
    32
  0
VERTEX
  8
0
  5
E3C
 10
250.697
 20
164.190
 30
0.000000
  70
    32
  0
VERTEX
  8
0
  5
E3D
 10
250.688
 20
164.196
 30
0.000000
  70
    32
  0
VERTEX
  8
0
  5
E3E
 10
250.678
 20
164.202
 30
0.000000
  70
    32
  0
VERTEX
  8
0
  5
E3F
 10
250.669
 20
164.208
 30
0.000000
  70
    32
  0
VERTEX
  8
0
  5
E40
 10
250.659
 20
164.213
 30
0.000000
  70
    32
  0
VERTEX
  8
0
  5
E41
 10
250.650
 20
164.219
 30
0.000000
  70
    32
  0
VERTEX
  8
0
  5
E42
 10
250.640
 20
164.224
 30
0.000000
  70
    32
  0
VERTEX
  8
0
  5
E43
 10
250.630
 20
164.229
 30
0.000000
  70
    32
  0
VERTEX
  8
0
  5
E44
 10
250.621
 20
164.234
 30
0.000000
  70
    32
  0
VERTEX
  8
0
  5
E45
 10
250.611
 20
164.238
 30
0.000000
  70
    32
  0
VERTEX
  8
0
  5
E46
 10
250.601
 20
164.243
 30
0.000000
  70
    32
  0
VERTEX
  8
0
  5
E47
 10
250.591
 20
164.247
 30
0.000000
  70
    32
  0
VERTEX
  8
0
  5
E48
 10
250.581
 20
164.251
 30
0.000000
  70
    32
  0
VERTEX
  8
0
  5
E49
 10
250.572
 20
164.255
 30
0.000000
  70
    32
  0
VERTEX
  8
0
  5
E4A
 10
250.562
 20
164.259
 30
0.000000
  70
    32
  0
VERTEX
  8
0
  5
E4B
 10
250.552
 20
164.263
 30
0.000000
  70
    32
  0
VERTEX
  8
0
  5
E4C
 10
250.542
 20
164.266
 30
0.000000
  70
    32
  0
VERTEX
  8
0
  5
E4D
 10
250.532
 20
164.269
 30
0.000000
  70
    32
  0
VERTEX
  8
0
  5
E4E
 10
250.522
 20
164.272
 30
0.000000
  70
    32
  0
VERTEX
  8
0
  5
E4F
 10
250.512
 20
164.275
 30
0.000000
  70
    32
  0
VERTEX
  8
0
  5
E50
 10
250.502
 20
164.278
 30
0.000000
  70
    32
  0
VERTEX
  8
0
  5
E51
 10
250.492
 20
164.280
 30
0.000000
  70
    32
  0
VERTEX
  8
0
  5
E52
 10
250.482
 20
164.282
 30
0.000000
  70
    32
  0
VERTEX
  8
0
  5
E53
 10
250.471
 20
164.285
 30
0.000000
  70
    32
  0
VERTEX
  8
0
  5
E54
 10
250.461
 20
164.287
 30
0.000000
  70
    32
  0
VERTEX
  8
0
  5
E55
 10
250.451
 20
164.288
 30
0.000000
  70
    32
  0
VERTEX
  8
0
  5
E56
 10
250.441
 20
164.290
 30
0.000000
  70
    32
  0
VERTEX
  8
0
  5
E57
 10
250.431
 20
164.291
 30
0.000000
  70
    32
  0
VERTEX
  8
0
  5
E58
 10
250.421
 20
164.292
 30
0.000000
  70
    32
  0
VERTEX
  8
0
  5
E59
 10
250.411
 20
164.293
 30
0.000000
  70
    32
  0
VERTEX
  8
0
  5
E5A
 10
250.400
 20
164.294
 30
0.000000
  70
    32
  0
VERTEX
  8
0
  5
E5B
 10
250.390
 20
164.295
 30
0.000000
  70
    32
  0
VERTEX
  8
0
  5
E5C
 10
250.380
 20
164.295
 30
0.000000
  70
    32
  0
VERTEX
  8
0
  5
E5D
 10
250.370
 20
164.296
 30
0.000000
  70
    32
  0
VERTEX
  8
0
  5
E5E
 10
250.360
 20
164.296
 30
0.000000
  70
    32
  0
VERTEX
  8
0
  5
E5F
 10
250.349
 20
164.296
 30
0.000000
  70
    32
  0
VERTEX
  8
0
  5
E60
 10
250.339
 20
164.295
 30
0.000000
  70
    32
  0
VERTEX
  8
0
  5
E61
 10
250.329
 20
164.295
 30
0.000000
  70
    32
  0
VERTEX
  8
0
  5
E62
 10
250.319
 20
164.294
 30
0.000000
  70
    32
  0
VERTEX
  8
0
  5
E63
 10
250.309
 20
164.293
 30
0.000000
  70
    32
  0
VERTEX
  8
0
  5
E64
 10
250.299
 20
164.292
 30
0.000000
  70
    32
  0
VERTEX
  8
0
  5
E65
 10
250.288
 20
164.291
 30
0.000000
  70
    32
  0
VERTEX
  8
0
  5
E66
 10
250.278
 20
164.290
 30
0.000000
  70
    32
  0
VERTEX
  8
0
  5
E67
 10
250.268
 20
164.288
 30
0.000000
  70
    32
  0
VERTEX
  8
0
  5
E68
 10
250.258
 20
164.287
 30
0.000000
  70
    32
  0
VERTEX
  8
0
  5
E69
 10
250.248
 20
164.285
 30
0.000000
  70
    32
  0
VERTEX
  8
0
  5
E6A
 10
250.238
 20
164.282
 30
0.000000
  70
    32
  0
VERTEX
  8
0
  5
E6B
 10
250.228
 20
164.280
 30
0.000000
  70
    32
  0
VERTEX
  8
0
  5
E6C
 10
250.218
 20
164.278
 30
0.000000
  70
    32
  0
VERTEX
  8
0
  5
E6D
 10
250.207
 20
164.275
 30
0.000000
  70
    32
  0
VERTEX
  8
0
  5
E6E
 10
250.197
 20
164.272
 30
0.000000
  70
    32
  0
VERTEX
  8
0
  5
E6F
 10
250.187
 20
164.269
 30
0.000000
  70
    32
  0
VERTEX
  8
0
  5
E70
 10
250.177
 20
164.266
 30
0.000000
  70
    32
  0
VERTEX
  8
0
  5
E71
 10
250.167
 20
164.263
 30
0.000000
  70
    32
  0
VERTEX
  8
0
  5
E72
 10
250.158
 20
164.259
 30
0.000000
  70
    32
  0
VERTEX
  8
0
  5
E73
 10
250.148
 20
164.255
 30
0.000000
  70
    32
  0
VERTEX
  8
0
  5
E74
 10
250.138
 20
164.251
 30
0.000000
  70
    32
  0
VERTEX
  8
0
  5
E75
 10
250.128
 20
164.247
 30
0.000000
  70
    32
  0
VERTEX
  8
0
  5
E76
 10
250.118
 20
164.243
 30
0.000000
  70
    32
  0
VERTEX
  8
0
  5
E77
 10
250.108
 20
164.238
 30
0.000000
  70
    32
  0
VERTEX
  8
0
  5
E78
 10
250.099
 20
164.234
 30
0.000000
  70
    32
  0
VERTEX
  8
0
  5
E79
 10
250.089
 20
164.229
 30
0.000000
  70
    32
  0
VERTEX
  8
0
  5
E7A
 10
250.079
 20
164.224
 30
0.000000
  70
    32
  0
VERTEX
  8
0
  5
E7B
 10
250.070
 20
164.219
 30
0.000000
  70
    32
  0
VERTEX
  8
0
  5
E7C
 10
250.060
 20
164.213
 30
0.000000
  70
    32
  0
VERTEX
  8
0
  5
E7D
 10
250.050
 20
164.208
 30
0.000000
  70
    32
  0
VERTEX
  8
0
  5
E7E
 10
250.041
 20
164.202
 30
0.000000
  70
    32
  0
VERTEX
  8
0
  5
E7F
 10
250.031
 20
164.196
 30
0.000000
  70
    32
  0
VERTEX
  8
0
  5
E80
 10
250.022
 20
164.190
 30
0.000000
  70
    32
  0
VERTEX
  8
0
  5
E81
 10
250.013
 20
164.184
 30
0.000000
  70
    32
  0
VERTEX
  8
0
  5
E82
 10
250.003
 20
164.178
 30
0.000000
  70
    32
  0
VERTEX
  8
0
  5
E83
 10
249.994
 20
164.171
 30
0.000000
  70
    32
  0
VERTEX
  8
0
  5
E84
 10
249.985
 20
164.164
 30
0.000000
  70
    32
  0
VERTEX
  8
0
  5
E85
 10
249.976
 20
164.158
 30
0.000000
  70
    32
  0
VERTEX
  8
0
  5
E86
 10
249.966
 20
164.151
 30
0.000000
  70
    32
  0
VERTEX
  8
0
  5
E87
 10
249.957
 20
164.143
 30
0.000000
  70
    32
  0
VERTEX
  8
0
  5
E88
 10
249.948
 20
164.136
 30
0.000000
  70
    32
  0
VERTEX
  8
0
  5
E89
 10
249.939
 20
164.128
 30
0.000000
  70
    32
  0
VERTEX
  8
0
  5
E8A
 10
249.931
 20
164.121
 30
0.000000
  70
    32
  0
VERTEX
  8
0
  5
E8B
 10
249.922
 20
164.113
 30
0.000000
  70
    32
  0
VERTEX
  8
0
  5
E8C
 10
249.913
 20
164.105
 30
0.000000
  70
    32
  0
VERTEX
  8
0
  5
E8D
 10
249.904
 20
164.097
 30
0.000000
  70
    32
  0
VERTEX
  8
0
  5
E8E
 10
249.896
 20
164.088
 30
0.000000
  70
    32
  0
VERTEX
  8
0
  5
E8F
 10
249.887
 20
164.080
 30
0.000000
  70
    32
  0
VERTEX
  8
0
  5
E90
 10
249.878
 20
164.071
 30
0.000000
  70
    32
  0
VERTEX
  8
0
  5
E91
 10
249.870
 20
164.062
 30
0.000000
  70
    32
  0
VERTEX
  8
0
  5
E92
 10
249.862
 20
164.053
 30
0.000000
  70
    32
  0
VERTEX
  8
0
  5
E93
 10
249.853
 20
164.044
 30
0.000000
  70
    32
  0
VERTEX
  8
0
  5
E94
 10
249.845
 20
164.035
 30
0.000000
  70
    32
  0
VERTEX
  8
0
  5
E95
 10
249.837
 20
164.026
 30
0.000000
  70
    32
  0
VERTEX
  8
0
  5
E96
 10
249.829
 20
164.016
 30
0.000000
  70
    32
  0
VERTEX
  8
0
  5
E97
 10
249.821
 20
164.006
 30
0.000000
  70
    32
  0
VERTEX
  8
0
  5
E98
 10
249.813
 20
163.997
 30
0.000000
  70
    32
  0
VERTEX
  8
0
  5
E99
 10
249.805
 20
163.987
 30
0.000000
  70
    32
  0
VERTEX
  8
0
  5
E9A
 10
249.797
 20
163.976
 30
0.000000
  70
    32
  0
VERTEX
  8
0
  5
E9B
 10
249.789
 20
163.966
 30
0.000000
  70
    32
  0
VERTEX
  8
0
  5
E9C
 10
249.781
 20
163.956
 30
0.000000
  70
    32
  0
VERTEX
  8
0
  5
E9D
 10
249.774
 20
163.945
 30
0.000000
  70
    32
  0
VERTEX
  8
0
  5
E9E
 10
249.766
 20
163.935
 30
0.000000
  70
    32
  0
SEQEND
  8
0
  5
E9F
  0
ARC
  5
A85
  8
0
 10
235.85050567117869
 20
150.82277974768249
 30
0.0
 40
20.0
 50
26.540009007947351
 51
40.96412461172509
  0
ARC
  5
A86
  8
0
 10
252.84833447173639
 20
159.31240966110829
 30
0.0
 40
1.0
 50
4.6151572348128216
 51
26.540009007947258
  0
LINE
  5
A87
  8
0
 10
253.8654262561536
 20
159.140976079425
 30
0.0
 11
253.8953763817517
 21
158.8494396516528
 31
0.0
  0
ARC
  5
A88
  8
0
 10
264.86876268549128
 20
150.82277974768249
 30
0.0
 40
20.0
 50
139.0358753885001
 51
153.45999099205261
  0
LINE
  5
A89
  8
0
 10
246.8538421005164
 20
159.140976079425
 30
0.0
 11
246.82389197491821
 21
158.8494396516528
 31
0.0
  0
LINE
  5
A8A
  8
0
 10
246.8538421005164
 20
159.140976079425
 30
0.0
 11
246.8741762574725
 21
159.39287227415349
 31
0.0
  0
ARC
  5
A8B
  8
0
 10
247.87093388493361
 20
159.31240966110829
 30
0.0
 40
1.0
 50
153.4599909920527
 51
175.38484276518719
  0
ARC
  5
A8F
  8
0
 10
254.3550462969512
 20
155.72110370691931
 30
0.0
 40
0.05
 50
187.4530187104076
 51
270.00000000001683
  0
ARC
  5
A90
  8
0
 10
246.3642220597188
 20
155.72110370691931
 30
0.0
 40
0.05
 50
269.99999999998317
 51
352.5469812895924
  0
LINE
  5
A91
  8
0
 10
246.4137996375531
 20
155.7146180476559
 30
0.0
 11
246.82389197491821
 21
158.8494396516528
 31
0.0
  0
LINE
  5
A92
  8
0
 10
254.44114720946251
 20
163.1294234637127
 30
0.0
 11
255.8337642310419
 21
161.6796730081951
 31
0.0
  0
LINE
  5
A93
  8
0
 10
255.83376423104181
 20
161.6796730081951
 30
0.0
 11
256.62520195417528
 21
161.3213419492385
 31
0.0
  0
ARC
  5
A97
  8
0
 10
256.109634178335
 20
160.18261903802829
 30
0.0
 40
1.25
 50
0.0
 51
65.640901373421741
  0
LINE
  5
A98
  8
0
 10
246.27812114720749
 20
163.1294234637127
 30
0.0
 11
244.8855041256281
 21
161.6796730081951
 31
0.0
  0
ARC
  5
A99
  8
0
 10
244.609634178335
 20
160.18261903802829
 30
0.0
 40
1.25
 50
114.3590986265782
 51
180.0
  0
LINE
  5
A9A
  8
0
 10
244.88550412562819
 20
161.6796730081951
 30
0.0
 11
244.09406640249469
 21
161.3213419492385
 31
0.0
  0
POLYLINE
  5
AAD
  8
0
 10
246.78663327440083
 20
155.16926222649136
 30
0.0
 66
     1
 70
     8
  0
VERTEX
  8
0
  5
EA0
 10
246.787
 20
155.169
 30
0.000000
  70
    32
  0
VERTEX
  8
0
  5
EA1
 10
246.787
 20
155.175
 30
0.000000
  70
    32
  0
VERTEX
  8
0
  5
EA2
 10
246.787
 20
155.182
 30
0.000000
  70
    32
  0
VERTEX
  8
0
  5
EA3
 10
246.787
 20
155.188
 30
0.000000
  70
    32
  0
VERTEX
  8
0
  5
EA4
 10
246.786
 20
155.194
 30
0.000000
  70
    32
  0
VERTEX
  8
0
  5
EA5
 10
246.786
 20
155.200
 30
0.000000
  70
    32
  0
VERTEX
  8
0
  5
EA6
 10
246.786
 20
155.206
 30
0.000000
  70
    32
  0
VERTEX
  8
0
  5
EA7
 10
246.786
 20
155.212
 30
0.000000
  70
    32
  0
VERTEX
  8
0
  5
EA8
 10
246.786
 20
155.218
 30
0.000000
  70
    32
  0
VERTEX
  8
0
  5
EA9
 10
246.786
 20
155.225
 30
0.000000
  70
    32
  0
VERTEX
  8
0
  5
EAA
 10
246.785
 20
155.231
 30
0.000000
  70
    32
  0
VERTEX
  8
0
  5
EAB
 10
246.785
 20
155.237
 30
0.000000
  70
    32
  0
VERTEX
  8
0
  5
EAC
 10
246.785
 20
155.243
 30
0.000000
  70
    32
  0
VERTEX
  8
0
  5
EAD
 10
246.784
 20
155.249
 30
0.000000
  70
    32
  0
VERTEX
  8
0
  5
EAE
 10
246.784
 20
155.255
 30
0.000000
  70
    32
  0
VERTEX
  8
0
  5
EAF
 10
246.784
 20
155.261
 30
0.000000
  70
    32
  0
VERTEX
  8
0
  5
EB0
 10
246.783
 20
155.267
 30
0.000000
  70
    32
  0
VERTEX
  8
0
  5
EB1
 10
246.783
 20
155.273
 30
0.000000
  70
    32
  0
VERTEX
  8
0
  5
EB2
 10
246.782
 20
155.279
 30
0.000000
  70
    32
  0
VERTEX
  8
0
  5
EB3
 10
246.782
 20
155.285
 30
0.000000
  70
    32
  0
VERTEX
  8
0
  5
EB4
 10
246.781
 20
155.291
 30
0.000000
  70
    32
  0
VERTEX
  8
0
  5
EB5
 10
246.781
 20
155.297
 30
0.000000
  70
    32
  0
VERTEX
  8
0
  5
EB6
 10
246.780
 20
155.303
 30
0.000000
  70
    32
  0
VERTEX
  8
0
  5
EB7
 10
246.780
 20
155.309
 30
0.000000
  70
    32
  0
VERTEX
  8
0
  5
EB8
 10
246.779
 20
155.315
 30
0.000000
  70
    32
  0
VERTEX
  8
0
  5
EB9
 10
246.779
 20
155.321
 30
0.000000
  70
    32
  0
VERTEX
  8
0
  5
EBA
 10
246.778
 20
155.327
 30
0.000000
  70
    32
  0
VERTEX
  8
0
  5
EBB
 10
246.777
 20
155.333
 30
0.000000
  70
    32
  0
VERTEX
  8
0
  5
EBC
 10
246.777
 20
155.338
 30
0.000000
  70
    32
  0
VERTEX
  8
0
  5
EBD
 10
246.776
 20
155.344
 30
0.000000
  70
    32
  0
VERTEX
  8
0
  5
EBE
 10
246.775
 20
155.350
 30
0.000000
  70
    32
  0
VERTEX
  8
0
  5
EBF
 10
246.774
 20
155.356
 30
0.000000
  70
    32
  0
VERTEX
  8
0
  5
EC0
 10
246.773
 20
155.361
 30
0.000000
  70
    32
  0
VERTEX
  8
0
  5
EC1
 10
246.773
 20
155.367
 30
0.000000
  70
    32
  0
VERTEX
  8
0
  5
EC2
 10
246.772
 20
155.373
 30
0.000000
  70
    32
  0
VERTEX
  8
0
  5
EC3
 10
246.771
 20
155.378
 30
0.000000
  70
    32
  0
VERTEX
  8
0
  5
EC4
 10
246.770
 20
155.384
 30
0.000000
  70
    32
  0
VERTEX
  8
0
  5
EC5
 10
246.769
 20
155.389
 30
0.000000
  70
    32
  0
VERTEX
  8
0
  5
EC6
 10
246.768
 20
155.395
 30
0.000000
  70
    32
  0
VERTEX
  8
0
  5
EC7
 10
246.767
 20
155.400
 30
0.000000
  70
    32
  0
VERTEX
  8
0
  5
EC8
 10
246.766
 20
155.406
 30
0.000000
  70
    32
  0
VERTEX
  8
0
  5
EC9
 10
246.765
 20
155.411
 30
0.000000
  70
    32
  0
VERTEX
  8
0
  5
ECA
 10
246.764
 20
155.417
 30
0.000000
  70
    32
  0
VERTEX
  8
0
  5
ECB
 10
246.763
 20
155.422
 30
0.000000
  70
    32
  0
VERTEX
  8
0
  5
ECC
 10
246.762
 20
155.427
 30
0.000000
  70
    32
  0
VERTEX
  8
0
  5
ECD
 10
246.761
 20
155.433
 30
0.000000
  70
    32
  0
VERTEX
  8
0
  5
ECE
 10
246.760
 20
155.438
 30
0.000000
  70
    32
  0
VERTEX
  8
0
  5
ECF
 10
246.759
 20
155.443
 30
0.000000
  70
    32
  0
VERTEX
  8
0
  5
ED0
 10
246.758
 20
155.448
 30
0.000000
  70
    32
  0
VERTEX
  8
0
  5
ED1
 10
246.756
 20
155.453
 30
0.000000
  70
    32
  0
VERTEX
  8
0
  5
ED2
 10
246.755
 20
155.458
 30
0.000000
  70
    32
  0
VERTEX
  8
0
  5
ED3
 10
246.754
 20
155.463
 30
0.000000
  70
    32
  0
VERTEX
  8
0
  5
ED4
 10
246.753
 20
155.468
 30
0.000000
  70
    32
  0
VERTEX
  8
0
  5
ED5
 10
246.751
 20
155.473
 30
0.000000
  70
    32
  0
VERTEX
  8
0
  5
ED6
 10
246.750
 20
155.478
 30
0.000000
  70
    32
  0
VERTEX
  8
0
  5
ED7
 10
246.749
 20
155.483
 30
0.000000
  70
    32
  0
VERTEX
  8
0
  5
ED8
 10
246.747
 20
155.488
 30
0.000000
  70
    32
  0
VERTEX
  8
0
  5
ED9
 10
246.746
 20
155.492
 30
0.000000
  70
    32
  0
VERTEX
  8
0
  5
EDA
 10
246.745
 20
155.497
 30
0.000000
  70
    32
  0
VERTEX
  8
0
  5
EDB
 10
246.743
 20
155.502
 30
0.000000
  70
    32
  0
VERTEX
  8
0
  5
EDC
 10
246.742
 20
155.506
 30
0.000000
  70
    32
  0
VERTEX
  8
0
  5
EDD
 10
246.741
 20
155.511
 30
0.000000
  70
    32
  0
VERTEX
  8
0
  5
EDE
 10
246.739
 20
155.515
 30
0.000000
  70
    32
  0
VERTEX
  8
0
  5
EDF
 10
246.738
 20
155.520
 30
0.000000
  70
    32
  0
VERTEX
  8
0
  5
EE0
 10
246.736
 20
155.524
 30
0.000000
  70
    32
  0
VERTEX
  8
0
  5
EE1
 10
246.735
 20
155.528
 30
0.000000
  70
    32
  0
VERTEX
  8
0
  5
EE2
 10
246.733
 20
155.533
 30
0.000000
  70
    32
  0
VERTEX
  8
0
  5
EE3
 10
246.732
 20
155.537
 30
0.000000
  70
    32
  0
VERTEX
  8
0
  5
EE4
 10
246.730
 20
155.541
 30
0.000000
  70
    32
  0
VERTEX
  8
0
  5
EE5
 10
246.728
 20
155.545
 30
0.000000
  70
    32
  0
VERTEX
  8
0
  5
EE6
 10
246.727
 20
155.549
 30
0.000000
  70
    32
  0
VERTEX
  8
0
  5
EE7
 10
246.725
 20
155.553
 30
0.000000
  70
    32
  0
VERTEX
  8
0
  5
EE8
 10
246.724
 20
155.557
 30
0.000000
  70
    32
  0
VERTEX
  8
0
  5
EE9
 10
246.722
 20
155.561
 30
0.000000
  70
    32
  0
VERTEX
  8
0
  5
EEA
 10
246.720
 20
155.565
 30
0.000000
  70
    32
  0
VERTEX
  8
0
  5
EEB
 10
246.719
 20
155.569
 30
0.000000
  70
    32
  0
VERTEX
  8
0
  5
EEC
 10
246.717
 20
155.572
 30
0.000000
  70
    32
  0
VERTEX
  8
0
  5
EED
 10
246.715
 20
155.576
 30
0.000000
  70
    32
  0
VERTEX
  8
0
  5
EEE
 10
246.713
 20
155.580
 30
0.000000
  70
    32
  0
VERTEX
  8
0
  5
EEF
 10
246.712
 20
155.583
 30
0.000000
  70
    32
  0
VERTEX
  8
0
  5
EF0
 10
246.710
 20
155.587
 30
0.000000
  70
    32
  0
VERTEX
  8
0
  5
EF1
 10
246.708
 20
155.590
 30
0.000000
  70
    32
  0
VERTEX
  8
0
  5
EF2
 10
246.706
 20
155.593
 30
0.000000
  70
    32
  0
VERTEX
  8
0
  5
EF3
 10
246.705
 20
155.597
 30
0.000000
  70
    32
  0
VERTEX
  8
0
  5
EF4
 10
246.703
 20
155.600
 30
0.000000
  70
    32
  0
VERTEX
  8
0
  5
EF5
 10
246.701
 20
155.603
 30
0.000000
  70
    32
  0
VERTEX
  8
0
  5
EF6
 10
246.699
 20
155.606
 30
0.000000
  70
    32
  0
VERTEX
  8
0
  5
EF7
 10
246.697
 20
155.609
 30
0.000000
  70
    32
  0
VERTEX
  8
0
  5
EF8
 10
246.695
 20
155.612
 30
0.000000
  70
    32
  0
VERTEX
  8
0
  5
EF9
 10
246.694
 20
155.615
 30
0.000000
  70
    32
  0
VERTEX
  8
0
  5
EFA
 10
246.692
 20
155.618
 30
0.000000
  70
    32
  0
VERTEX
  8
0
  5
EFB
 10
246.690
 20
155.620
 30
0.000000
  70
    32
  0
VERTEX
  8
0
  5
EFC
 10
246.688
 20
155.623
 30
0.000000
  70
    32
  0
VERTEX
  8
0
  5
EFD
 10
246.686
 20
155.626
 30
0.000000
  70
    32
  0
VERTEX
  8
0
  5
EFE
 10
246.684
 20
155.628
 30
0.000000
  70
    32
  0
VERTEX
  8
0
  5
EFF
 10
246.682
 20
155.631
 30
0.000000
  70
    32
  0
VERTEX
  8
0
  5
F00
 10
246.680
 20
155.633
 30
0.000000
  70
    32
  0
VERTEX
  8
0
  5
F01
 10
246.678
 20
155.635
 30
0.000000
  70
    32
  0
VERTEX
  8
0
  5
F02
 10
246.676
 20
155.637
 30
0.000000
  70
    32
  0
VERTEX
  8
0
  5
F03
 10
246.674
 20
155.640
 30
0.000000
  70
    32
  0
VERTEX
  8
0
  5
F04
 10
246.672
 20
155.642
 30
0.000000
  70
    32
  0
VERTEX
  8
0
  5
F05
 10
246.670
 20
155.644
 30
0.000000
  70
    32
  0
VERTEX
  8
0
  5
F06
 10
246.668
 20
155.646
 30
0.000000
  70
    32
  0
VERTEX
  8
0
  5
F07
 10
246.666
 20
155.648
 30
0.000000
  70
    32
  0
VERTEX
  8
0
  5
F08
 10
246.664
 20
155.649
 30
0.000000
  70
    32
  0
VERTEX
  8
0
  5
F09
 10
246.662
 20
155.651
 30
0.000000
  70
    32
  0
VERTEX
  8
0
  5
F0A
 10
246.660
 20
155.653
 30
0.000000
  70
    32
  0
VERTEX
  8
0
  5
F0B
 10
246.658
 20
155.655
 30
0.000000
  70
    32
  0
VERTEX
  8
0
  5
F0C
 10
246.656
 20
155.656
 30
0.000000
  70
    32
  0
VERTEX
  8
0
  5
F0D
 10
246.654
 20
155.658
 30
0.000000
  70
    32
  0
VERTEX
  8
0
  5
F0E
 10
246.652
 20
155.659
 30
0.000000
  70
    32
  0
VERTEX
  8
0
  5
F0F
 10
246.650
 20
155.660
 30
0.000000
  70
    32
  0
VERTEX
  8
0
  5
F10
 10
246.648
 20
155.661
 30
0.000000
  70
    32
  0
VERTEX
  8
0
  5
F11
 10
246.646
 20
155.663
 30
0.000000
  70
    32
  0
VERTEX
  8
0
  5
F12
 10
246.644
 20
155.664
 30
0.000000
  70
    32
  0
VERTEX
  8
0
  5
F13
 10
246.642
 20
155.665
 30
0.000000
  70
    32
  0
VERTEX
  8
0
  5
F14
 10
246.639
 20
155.666
 30
0.000000
  70
    32
  0
VERTEX
  8
0
  5
F15
 10
246.637
 20
155.667
 30
0.000000
  70
    32
  0
VERTEX
  8
0
  5
F16
 10
246.635
 20
155.667
 30
0.000000
  70
    32
  0
VERTEX
  8
0
  5
F17
 10
246.633
 20
155.668
 30
0.000000
  70
    32
  0
VERTEX
  8
0
  5
F18
 10
246.631
 20
155.669
 30
0.000000
  70
    32
  0
VERTEX
  8
0
  5
F19
 10
246.629
 20
155.669
 30
0.000000
  70
    32
  0
VERTEX
  8
0
  5
F1A
 10
246.627
 20
155.670
 30
0.000000
  70
    32
  0
VERTEX
  8
0
  5
F1B
 10
246.625
 20
155.670
 30
0.000000
  70
    32
  0
VERTEX
  8
0
  5
F1C
 10
246.623
 20
155.670
 30
0.000000
  70
    32
  0
VERTEX
  8
0
  5
F1D
 10
246.621
 20
155.671
 30
0.000000
  70
    32
  0
VERTEX
  8
0
  5
F1E
 10
246.618
 20
155.671
 30
0.000000
  70
    32
  0
VERTEX
  8
0
  5
F1F
 10
246.616
 20
155.671
 30
0.000000
  70
    32
  0
VERTEX
  8
0
  5
F20
 10
246.614
 20
155.671
 30
0.000000
  70
    32
  0
SEQEND
  8
0
  5
F21
  0
ARC
  5
AAE
  8
0
 10
236.81983699084941
 20
155.98349286821971
 30
0.0
 40
10.0
 50
331.23365111884709
 51
355.32963180574501
  0
ARC
  5
AAF
  8
0
 10
263.89943136582059
 20
155.98349286821971
 30
0.0
 40
10.0
 50
184.6703681942551
 51
208.76634888115291
  0
POLYLINE
  5
AB0
  8
0
 10
253.93263508226917
 20
155.16926222649136
 30
0.0
 66
     1
 70
     8
  0
VERTEX
  8
0
  5
F22
 10
253.933
 20
155.169
 30
0.000000
  70
    32
  0
VERTEX
  8
0
  5
F23
 10
253.933
 20
155.175
 30
0.000000
  70
    32
  0
VERTEX
  8
0
  5
F24
 10
253.933
 20
155.182
 30
0.000000
  70
    32
  0
VERTEX
  8
0
  5
F25
 10
253.933
 20
155.188
 30
0.000000
  70
    32
  0
VERTEX
  8
0
  5
F26
 10
253.933
 20
155.194
 30
0.000000
  70
    32
  0
VERTEX
  8
0
  5
F27
 10
253.933
 20
155.200
 30
0.000000
  70
    32
  0
VERTEX
  8
0
  5
F28
 10
253.933
 20
155.206
 30
0.000000
  70
    32
  0
VERTEX
  8
0
  5
F29
 10
253.933
 20
155.212
 30
0.000000
  70
    32
  0
VERTEX
  8
0
  5
F2A
 10
253.933
 20
155.218
 30
0.000000
  70
    32
  0
VERTEX
  8
0
  5
F2B
 10
253.934
 20
155.225
 30
0.000000
  70
    32
  0
VERTEX
  8
0
  5
F2C
 10
253.934
 20
155.231
 30
0.000000
  70
    32
  0
VERTEX
  8
0
  5
F2D
 10
253.934
 20
155.237
 30
0.000000
  70
    32
  0
VERTEX
  8
0
  5
F2E
 10
253.935
 20
155.243
 30
0.000000
  70
    32
  0
VERTEX
  8
0
  5
F2F
 10
253.935
 20
155.249
 30
0.000000
  70
    32
  0
VERTEX
  8
0
  5
F30
 10
253.935
 20
155.255
 30
0.000000
  70
    32
  0
VERTEX
  8
0
  5
F31
 10
253.936
 20
155.261
 30
0.000000
  70
    32
  0
VERTEX
  8
0
  5
F32
 10
253.936
 20
155.267
 30
0.000000
  70
    32
  0
VERTEX
  8
0
  5
F33
 10
253.936
 20
155.273
 30
0.000000
  70
    32
  0
VERTEX
  8
0
  5
F34
 10
253.937
 20
155.279
 30
0.000000
  70
    32
  0
VERTEX
  8
0
  5
F35
 10
253.937
 20
155.285
 30
0.000000
  70
    32
  0
VERTEX
  8
0
  5
F36
 10
253.938
 20
155.291
 30
0.000000
  70
    32
  0
VERTEX
  8
0
  5
F37
 10
253.938
 20
155.297
 30
0.000000
  70
    32
  0
VERTEX
  8
0
  5
F38
 10
253.939
 20
155.303
 30
0.000000
  70
    32
  0
VERTEX
  8
0
  5
F39
 10
253.939
 20
155.309
 30
0.000000
  70
    32
  0
VERTEX
  8
0
  5
F3A
 10
253.940
 20
155.315
 30
0.000000
  70
    32
  0
VERTEX
  8
0
  5
F3B
 10
253.941
 20
155.321
 30
0.000000
  70
    32
  0
VERTEX
  8
0
  5
F3C
 10
253.941
 20
155.327
 30
0.000000
  70
    32
  0
VERTEX
  8
0
  5
F3D
 10
253.942
 20
155.333
 30
0.000000
  70
    32
  0
VERTEX
  8
0
  5
F3E
 10
253.943
 20
155.338
 30
0.000000
  70
    32
  0
VERTEX
  8
0
  5
F3F
 10
253.943
 20
155.344
 30
0.000000
  70
    32
  0
VERTEX
  8
0
  5
F40
 10
253.944
 20
155.350
 30
0.000000
  70
    32
  0
VERTEX
  8
0
  5
F41
 10
253.945
 20
155.356
 30
0.000000
  70
    32
  0
VERTEX
  8
0
  5
F42
 10
253.946
 20
155.361
 30
0.000000
  70
    32
  0
VERTEX
  8
0
  5
F43
 10
253.947
 20
155.367
 30
0.000000
  70
    32
  0
VERTEX
  8
0
  5
F44
 10
253.947
 20
155.373
 30
0.000000
  70
    32
  0
VERTEX
  8
0
  5
F45
 10
253.948
 20
155.378
 30
0.000000
  70
    32
  0
VERTEX
  8
0
  5
F46
 10
253.949
 20
155.384
 30
0.000000
  70
    32
  0
VERTEX
  8
0
  5
F47
 10
253.950
 20
155.389
 30
0.000000
  70
    32
  0
VERTEX
  8
0
  5
F48
 10
253.951
 20
155.395
 30
0.000000
  70
    32
  0
VERTEX
  8
0
  5
F49
 10
253.952
 20
155.400
 30
0.000000
  70
    32
  0
VERTEX
  8
0
  5
F4A
 10
253.953
 20
155.406
 30
0.000000
  70
    32
  0
VERTEX
  8
0
  5
F4B
 10
253.954
 20
155.411
 30
0.000000
  70
    32
  0
VERTEX
  8
0
  5
F4C
 10
253.955
 20
155.417
 30
0.000000
  70
    32
  0
VERTEX
  8
0
  5
F4D
 10
253.956
 20
155.422
 30
0.000000
  70
    32
  0
VERTEX
  8
0
  5
F4E
 10
253.957
 20
155.427
 30
0.000000
  70
    32
  0
VERTEX
  8
0
  5
F4F
 10
253.958
 20
155.433
 30
0.000000
  70
    32
  0
VERTEX
  8
0
  5
F50
 10
253.959
 20
155.438
 30
0.000000
  70
    32
  0
VERTEX
  8
0
  5
F51
 10
253.961
 20
155.443
 30
0.000000
  70
    32
  0
VERTEX
  8
0
  5
F52
 10
253.962
 20
155.448
 30
0.000000
  70
    32
  0
VERTEX
  8
0
  5
F53
 10
253.963
 20
155.453
 30
0.000000
  70
    32
  0
VERTEX
  8
0
  5
F54
 10
253.964
 20
155.458
 30
0.000000
  70
    32
  0
VERTEX
  8
0
  5
F55
 10
253.965
 20
155.463
 30
0.000000
  70
    32
  0
VERTEX
  8
0
  5
F56
 10
253.967
 20
155.468
 30
0.000000
  70
    32
  0
VERTEX
  8
0
  5
F57
 10
253.968
 20
155.473
 30
0.000000
  70
    32
  0
VERTEX
  8
0
  5
F58
 10
253.969
 20
155.478
 30
0.000000
  70
    32
  0
VERTEX
  8
0
  5
F59
 10
253.970
 20
155.483
 30
0.000000
  70
    32
  0
VERTEX
  8
0
  5
F5A
 10
253.972
 20
155.488
 30
0.000000
  70
    32
  0
VERTEX
  8
0
  5
F5B
 10
253.973
 20
155.492
 30
0.000000
  70
    32
  0
VERTEX
  8
0
  5
F5C
 10
253.975
 20
155.497
 30
0.000000
  70
    32
  0
VERTEX
  8
0
  5
F5D
 10
253.976
 20
155.502
 30
0.000000
  70
    32
  0
VERTEX
  8
0
  5
F5E
 10
253.977
 20
155.506
 30
0.000000
  70
    32
  0
VERTEX
  8
0
  5
F5F
 10
253.979
 20
155.511
 30
0.000000
  70
    32
  0
VERTEX
  8
0
  5
F60
 10
253.980
 20
155.515
 30
0.000000
  70
    32
  0
VERTEX
  8
0
  5
F61
 10
253.982
 20
155.520
 30
0.000000
  70
    32
  0
VERTEX
  8
0
  5
F62
 10
253.983
 20
155.524
 30
0.000000
  70
    32
  0
VERTEX
  8
0
  5
F63
 10
253.985
 20
155.528
 30
0.000000
  70
    32
  0
VERTEX
  8
0
  5
F64
 10
253.986
 20
155.533
 30
0.000000
  70
    32
  0
VERTEX
  8
0
  5
F65
 10
253.988
 20
155.537
 30
0.000000
  70
    32
  0
VERTEX
  8
0
  5
F66
 10
253.989
 20
155.541
 30
0.000000
  70
    32
  0
VERTEX
  8
0
  5
F67
 10
253.991
 20
155.545
 30
0.000000
  70
    32
  0
VERTEX
  8
0
  5
F68
 10
253.992
 20
155.549
 30
0.000000
  70
    32
  0
VERTEX
  8
0
  5
F69
 10
253.994
 20
155.553
 30
0.000000
  70
    32
  0
VERTEX
  8
0
  5
F6A
 10
253.996
 20
155.557
 30
0.000000
  70
    32
  0
VERTEX
  8
0
  5
F6B
 10
253.997
 20
155.561
 30
0.000000
  70
    32
  0
VERTEX
  8
0
  5
F6C
 10
253.999
 20
155.565
 30
0.000000
  70
    32
  0
VERTEX
  8
0
  5
F6D
 10
254.001
 20
155.569
 30
0.000000
  70
    32
  0
VERTEX
  8
0
  5
F6E
 10
254.002
 20
155.572
 30
0.000000
  70
    32
  0
VERTEX
  8
0
  5
F6F
 10
254.004
 20
155.576
 30
0.000000
  70
    32
  0
VERTEX
  8
0
  5
F70
 10
254.006
 20
155.580
 30
0.000000
  70
    32
  0
VERTEX
  8
0
  5
F71
 10
254.008
 20
155.583
 30
0.000000
  70
    32
  0
VERTEX
  8
0
  5
F72
 10
254.009
 20
155.587
 30
0.000000
  70
    32
  0
VERTEX
  8
0
  5
F73
 10
254.011
 20
155.590
 30
0.000000
  70
    32
  0
VERTEX
  8
0
  5
F74
 10
254.013
 20
155.593
 30
0.000000
  70
    32
  0
VERTEX
  8
0
  5
F75
 10
254.015
 20
155.597
 30
0.000000
  70
    32
  0
VERTEX
  8
0
  5
F76
 10
254.016
 20
155.600
 30
0.000000
  70
    32
  0
VERTEX
  8
0
  5
F77
 10
254.018
 20
155.603
 30
0.000000
  70
    32
  0
VERTEX
  8
0
  5
F78
 10
254.020
 20
155.606
 30
0.000000
  70
    32
  0
VERTEX
  8
0
  5
F79
 10
254.022
 20
155.609
 30
0.000000
  70
    32
  0
VERTEX
  8
0
  5
F7A
 10
254.024
 20
155.612
 30
0.000000
  70
    32
  0
VERTEX
  8
0
  5
F7B
 10
254.026
 20
155.615
 30
0.000000
  70
    32
  0
VERTEX
  8
0
  5
F7C
 10
254.028
 20
155.618
 30
0.000000
  70
    32
  0
VERTEX
  8
0
  5
F7D
 10
254.029
 20
155.620
 30
0.000000
  70
    32
  0
VERTEX
  8
0
  5
F7E
 10
254.031
 20
155.623
 30
0.000000
  70
    32
  0
VERTEX
  8
0
  5
F7F
 10
254.033
 20
155.626
 30
0.000000
  70
    32
  0
VERTEX
  8
0
  5
F80
 10
254.035
 20
155.628
 30
0.000000
  70
    32
  0
VERTEX
  8
0
  5
F81
 10
254.037
 20
155.631
 30
0.000000
  70
    32
  0
VERTEX
  8
0
  5
F82
 10
254.039
 20
155.633
 30
0.000000
  70
    32
  0
VERTEX
  8
0
  5
F83
 10
254.041
 20
155.635
 30
0.000000
  70
    32
  0
VERTEX
  8
0
  5
F84
 10
254.043
 20
155.637
 30
0.000000
  70
    32
  0
VERTEX
  8
0
  5
F85
 10
254.045
 20
155.640
 30
0.000000
  70
    32
  0
VERTEX
  8
0
  5
F86
 10
254.047
 20
155.642
 30
0.000000
  70
    32
  0
VERTEX
  8
0
  5
F87
 10
254.049
 20
155.644
 30
0.000000
  70
    32
  0
VERTEX
  8
0
  5
F88
 10
254.051
 20
155.646
 30
0.000000
  70
    32
  0
VERTEX
  8
0
  5
F89
 10
254.053
 20
155.648
 30
0.000000
  70
    32
  0
VERTEX
  8
0
  5
F8A
 10
254.055
 20
155.649
 30
0.000000
  70
    32
  0
VERTEX
  8
0
  5
F8B
 10
254.057
 20
155.651
 30
0.000000
  70
    32
  0
VERTEX
  8
0
  5
F8C
 10
254.059
 20
155.653
 30
0.000000
  70
    32
  0
VERTEX
  8
0
  5
F8D
 10
254.061
 20
155.655
 30
0.000000
  70
    32
  0
VERTEX
  8
0
  5
F8E
 10
254.063
 20
155.656
 30
0.000000
  70
    32
  0
VERTEX
  8
0
  5
F8F
 10
254.065
 20
155.658
 30
0.000000
  70
    32
  0
VERTEX
  8
0
  5
F90
 10
254.067
 20
155.659
 30
0.000000
  70
    32
  0
VERTEX
  8
0
  5
F91
 10
254.069
 20
155.660
 30
0.000000
  70
    32
  0
VERTEX
  8
0
  5
F92
 10
254.071
 20
155.661
 30
0.000000
  70
    32
  0
VERTEX
  8
0
  5
F93
 10
254.074
 20
155.663
 30
0.000000
  70
    32
  0
VERTEX
  8
0
  5
F94
 10
254.076
 20
155.664
 30
0.000000
  70
    32
  0
VERTEX
  8
0
  5
F95
 10
254.078
 20
155.665
 30
0.000000
  70
    32
  0
VERTEX
  8
0
  5
F96
 10
254.080
 20
155.666
 30
0.000000
  70
    32
  0
VERTEX
  8
0
  5
F97
 10
254.082
 20
155.667
 30
0.000000
  70
    32
  0
VERTEX
  8
0
  5
F98
 10
254.084
 20
155.667
 30
0.000000
  70
    32
  0
VERTEX
  8
0
  5
F99
 10
254.086
 20
155.668
 30
0.000000
  70
    32
  0
VERTEX
  8
0
  5
F9A
 10
254.088
 20
155.669
 30
0.000000
  70
    32
  0
VERTEX
  8
0
  5
F9B
 10
254.090
 20
155.669
 30
0.000000
  70
    32
  0
VERTEX
  8
0
  5
F9C
 10
254.092
 20
155.670
 30
0.000000
  70
    32
  0
VERTEX
  8
0
  5
F9D
 10
254.094
 20
155.670
 30
0.000000
  70
    32
  0
VERTEX
  8
0
  5
F9E
 10
254.097
 20
155.670
 30
0.000000
  70
    32
  0
VERTEX
  8
0
  5
F9F
 10
254.099
 20
155.671
 30
0.000000
  70
    32
  0
VERTEX
  8
0
  5
FA0
 10
254.101
 20
155.671
 30
0.000000
  70
    32
  0
VERTEX
  8
0
  5
FA1
 10
254.103
 20
155.671
 30
0.000000
  70
    32
  0
VERTEX
  8
0
  5
FA2
 10
254.105
 20
155.671
 30
0.000000
  70
    32
  0
SEQEND
  8
0
  5
FA3
  0
LINE
  5
AB4
  8
0
 10
257.359634178335
 20
160.18261903802829
 30
0.0
 11
256.859634178335
 21
140.6711037069193
 31
0.0
  0
LINE
  5
AB5
  8
0
 10
243.359634178335
 20
160.18261903802829
 30
0.0
 11
243.859634178335
 21
140.6711037069193
 31
0.0
  0
LINE
  5
ABD
  8
3
 10
156.15941264403321
 20
134.6711037069193
 30
0.0
 11
155.72641264403339
 21
135.42108170659631
 31
0.0
  0
LINE
  5
ABE
  8
0
 10
160.7264126440333
 20
97.571103706919416
 30
0.0
 11
155.7264126440333
 21
97.571103706919416
 31
0.0
  0
LINE
  5
ABF
  8
0
 10
156.62641264403339
 20
96.671103706919382
 30
0.0
 11
155.7264126440333
 21
97.571103706919359
 31
0.0
  0
LINE
  5
AC0
  8
0
 10
160.72641264403339
 20
97.571103706919359
 30
0.0
 11
159.82641264403341
 21
96.671103706919382
 31
0.0
  0
LINE
  5
AC1
  8
3
 10
160.29341264403359
 20
134.6711037069193
 30
0.0
 11
160.72641264403339
 21
135.42108170659631
 31
0.0
  0
LINE
  5
AC2
  8
0
 10
160.72641264403339
 20
134.6711037069193
 30
0.0
 11
155.72641264403339
 21
134.6711037069193
 31
0.0
  0
LINE
  5
AC3
  8
0
 10
159.82641264403341
 20
96.671103706919382
 30
0.0
 11
156.62641264403339
 21
96.671103706919382
 31
0.0
  0
LINE
  5
AC4
  8
0
 10
160.72641264403339
 20
136.67110370691941
 30
0.0
 11
160.7264126440335
 21
97.571103706919473
 31
0.0
  0
LINE
  5
AC5
  8
3
 10
160.29341264403359
 20
134.6711037069193
 30
0.0
 11
160.29341264403359
 21
97.138103706919665
 31
0.0
  0
LINE
  5
AC6
  8
3
 10
156.15941264403321
 20
134.6711037069193
 30
0.0
 11
156.1594126440333
 21
97.138103706919424
 31
0.0
  0
LINE
  5
AC7
  8
0
 10
155.72641264403339
 20
136.67110370691941
 30
0.0
 11
155.7264126440331
 21
97.571103706919615
 31
0.0
  0
LINE
  5
AD6
  8
0
 10
99.161858812319849
 20
134.6711037069193
 30
0.0
 11
94.161858812319849
 21
134.6711037069193
 31
0.0
  0
LINE
  5
AD7
  8
0
 10
99.161858812319849
 20
97.571103706919416
 30
0.0
 11
94.161858812319849
 21
97.571103706919416
 31
0.0
  0
LINE
  5
AD8
  8
0
 10
98.261858812319872
 20
96.671103706919382
 30
0.0
 11
95.061858812319826
 21
96.671103706919382
 31
0.0
  0
LINE
  5
AD9
  8
3
 10
94.594858812319686
 20
134.6711037069193
 30
0.0
 11
94.594858812319643
 21
97.138103706919594
 31
0.0
  0
LINE
  5
ADA
  8
0
 10
94.161858812319849
 20
136.67110370691941
 30
0.0
 11
94.161858812319807
 21
97.571103706919416
 31
0.0
  0
LINE
  5
ADB
  8
0
 10
95.061858812319826
 20
96.671103706919382
 30
0.0
 11
94.161858812319849
 21
97.571103706919359
 31
0.0
  0
LINE
  5
ADC
  8
3
 10
94.594858812319686
 20
134.6711037069193
 30
0.0
 11
94.161858812319906
 21
135.42108170659631
 31
0.0
  0
LINE
  5
ADD
  8
3
 10
98.728858812320084
 20
134.6711037069193
 30
0.0
 11
98.728858812319785
 21
97.138103706919338
 31
0.0
  0
LINE
  5
ADE
  8
0
 10
99.161858812319849
 20
136.67110370691941
 30
0.0
 11
99.161858812319807
 21
97.571103706919317
 31
0.0
  0
LINE
  5
ADF
  8
0
 10
99.161858812319849
 20
97.571103706919359
 30
0.0
 11
98.261858812319872
 21
96.671103706919382
 31
0.0
  0
LINE
  5
AE0
  8
3
 10
98.728858812320084
 20
134.6711037069193
 30
0.0
 11
99.161858812319849
 21
135.42108170659631
 31
0.0
  0
LINE
  5
AE1
  8
0
 10
252.859634178335
 20
134.6711037069193
 30
0.0
 11
247.859634178335
 21
134.6711037069193
 31
0.0
  0
LINE
  5
AE2
  8
0
 10
252.85963417833489
 20
97.571103706919416
 30
0.0
 11
247.859634178335
 21
97.571103706919416
 31
0.0
  0
LINE
  5
AE3
  8
0
 10
251.95963417833499
 20
96.671103706919382
 30
0.0
 11
248.75963417833501
 21
96.671103706919382
 31
0.0
  0
LINE
  5
AE4
  8
3
 10
248.29263417833479
 20
134.6711037069193
 30
0.0
 11
248.29263417833499
 21
97.138103706919381
 31
0.0
  0
LINE
  5
AE5
  8
0
 10
247.859634178335
 20
136.67110370691941
 30
0.0
 11
247.8596341783348
 21
97.571103706919473
 31
0.0
  0
LINE
  5
AE6
  8
0
 10
248.75963417833501
 20
96.671103706919382
 30
0.0
 11
247.859634178335
 21
97.571103706919359
 31
0.0
  0
LINE
  5
AE7
  8
3
 10
248.29263417833479
 20
134.6711037069193
 30
0.0
 11
247.859634178335
 21
135.42108170659631
 31
0.0
  0
LINE
  5
AE8
  8
3
 10
252.42663417833521
 20
134.6711037069193
 30
0.0
 11
252.42663417833521
 21
97.138103706919537
 31
0.0
  0
LINE
  5
AE9
  8
0
 10
252.859634178335
 20
136.67110370691941
 30
0.0
 11
252.859634178335
 21
97.571103706919359
 31
0.0
  0
LINE
  5
AEA
  8
0
 10
252.859634178335
 20
97.571103706919359
 30
0.0
 11
251.95963417833499
 21
96.671103706919382
 31
0.0
  0
LINE
  5
AEB
  8
3
 10
252.42663417833521
 20
134.6711037069193
 30
0.0
 11
252.859634178335
 21
135.42108170659631
 31
0.0
  0
LINE
  5
B58
  8
0
 10
100.66185881231991
 20
160.58930693719481
 30
0.0
 11
100.66185881231991
 21
159.46520300721559
 31
0.0
  0
LINE
  5
B59
  8
0
 10
92.661858812319949
 20
160.58930693719489
 30
0.0
 11
92.66185881231992
 21
159.46520300721551
 31
0.0
  0
LINE
  5
B5C
  8
0
 10
99.418650425772029
 20
161.1711037069193
 30
0.0
 11
93.905067198867755
 21
161.1711037069193
 31
0.0
  0
CIRCLE
  5
B68
  8
0
 10
158.23641264403341
 20
210.73502202255119
 30
0.0
 40
4.0
  0
ARC
  5
B6B
  8
0
 10
156.40575073802151
 20
211.7919551667824
 30
0.0
 40
0.6912500000000005
 50
309.68887794065949
 51
16.658241772777039
  0
ARC
  5
B6C
  8
0
 10
157.44641264403339
 20
212.1033421605307
 30
0.0
 40
0.3949999999999998
 50
43.341758227222279
 51
196.65824177277699
  0
ARC
  5
B6D
  8
0
 10
158.23641264403341
 20
212.84888831101361
 30
0.0
 40
0.6912499999999989
 50
223.3417582272223
 51
316.65824177277773
  0
ARC
  5
B6E
  8
0
 10
159.0264126440334
 20
212.1033421605307
 30
0.0
 40
0.3950000000000002
 50
343.3417582272229
 51
136.6582417727777
  0
ARC
  5
B6F
  8
0
 10
156.40575073802151
 20
209.67808887832001
 30
0.0
 40
0.691250000000001
 50
343.3417582272229
 51
50.311122059331304
  0
ARC
  5
B70
  8
0
 10
157.44641264403339
 20
209.3667018845718
 30
0.0
 40
0.3950000000000001
 50
163.3417582272229
 51
316.65824177277773
  0
ARC
  5
B71
  8
0
 10
158.23641264403341
 20
208.6211557340888
 30
0.0
 40
0.6912500000000003
 50
43.341758227222279
 51
136.65824177277651
  0
ARC
  5
B72
  8
0
 10
159.0264126440334
 20
209.3667018845718
 30
0.0
 40
0.3949999999999998
 50
223.3417582272223
 51
16.658241772777039
  0
ARC
  5
B73
  8
0
 10
160.06707455004539
 20
209.67808887832001
 30
0.0
 40
0.6912500000000003
 50
129.6888779406687
 51
196.65824177277699
  0
ARC
  5
B74
  8
0
 10
160.06707455004539
 20
211.7919551667824
 30
0.0
 40
0.6912500000000011
 50
163.3417582272229
 51
230.31112205934281
  0
ARC
  5
B75
  8
0
 10
96.661858812319892
 20
153.66110370691931
 30
0.0
 40
8.0
 50
60.000000000000277
 51
69.842683784424523
  0
LINE
  5
B76
  8
0
 10
92.661858812319949
 20
160.58930693719489
 30
0.0
 11
100.66185881231991
 21
160.58930693719481
 31
0.0
  0
ARC
  5
B77
  8
0
 10
96.661858812319892
 20
153.66110370691931
 30
0.0
 40
8.0
 50
110.15731621557541
 51
119.9999999999997
  0
LINE
  5
B78
  8
0
 10
155.48641264403341
 20
210.21002202255119
 30
0.0
 11
156.8471957431675
 21
210.21002202255119
 31
0.0
  0
LINE
  5
B79
  8
0
 10
155.48641264403341
 20
211.2600220225512
 30
0.0
 11
156.84719574316739
 21
211.2600220225512
 31
0.0
  0
LINE
  5
B7A
  8
0
 10
159.62562954489951
 20
211.2600220225512
 30
0.0
 11
160.98641264403341
 21
211.2600220225512
 31
0.0
  0
LINE
  5
B7B
  8
0
 10
159.6256295448994
 20
210.21002202255119
 30
0.0
 11
160.98641264403341
 21
210.2100220225513
 31
0.0
  0
ARC
  5
B7C
  8
0
 10
158.23641264403341
 20
210.73502202255119
 30
0.0
 40
2.7567916134521511
 50
355.97735839170269
 51
4.0226416083006269
  0
LINE
  5
B7D
  8
0
 10
160.98641264403329
 20
211.2600220225512
 30
0.0
 11
160.98641264403341
 21
210.2100220225513
 31
0.0
  0
LINE
  5
B7E
  8
0
 10
155.48641264403341
 20
211.2600220225512
 30
0.0
 11
155.48641264403341
 21
210.21002202255119
 31
0.0
  0
ARC
  5
B7F
  8
0
 10
158.23641264403341
 20
210.73502202255119
 30
0.0
 40
2.7567916134521511
 50
10.9783913299381
 51
169.02160867006191
  0
ARC
  5
B80
  8
0
 10
158.23641264403341
 20
210.73502202255119
 30
0.0
 40
2.7567916134521511
 50
190.97839132993809
 51
349.02160867006188
  0
ARC
  5
B81
  8
0
 10
158.23641264403341
 20
210.73502202255119
 30
0.0
 40
2.7567916134521511
 50
175.9773583916961
 51
184.02264160830379
  0
ARC
  5
B83
  8
0
 10
158.22641264403339
 20
153.66110370691931
 30
0.0
 40
8.0
 50
110.15731621557541
 51
119.9999999999997
  0
LINE
  5
B84
  8
0
 10
154.2264126440335
 20
160.58930693719489
 30
0.0
 11
159.1966849238874
 21
160.58930693719481
 31
0.0
  0
ARC
  5
B85
  8
0
 10
158.22641264403339
 20
153.66110370691931
 30
0.0
 40
8.0
 50
69.728484327266742
 51
69.842683784424523
  0
LINE
  5
B86
  8
0
 10
160.9832042574856
 20
161.1711037069193
 30
0.0
 11
155.46962103058129
 21
161.1711037069193
 31
0.0
  0
LINE
  5
B88
  8
0
 10
154.2264126440335
 20
160.58930693719489
 30
0.0
 11
154.22641264403339
 21
158.86769631867409
 31
0.0
  0
POLYLINE
  5
B8D
  8
0
 66
     1
 10
0.0
 20
0.0
 30
0.0
 70
     1
  0
VERTEX
  5
B8E
  8
0
 10
96.661858812286354
 20
158.66399223168341
 30
0.0
 42
0.0369961751365465
  0
VERTEX
  5
B9D
  8
0
 10
98.586076840679993
 20
158.80656478748099
 30
0.0
 42
0.0493901968538041
  0
VERTEX
  5
B8F
  8
0
 10
99.989149915724667
 20
159.15977707512161
 30
0.0
 42
0.0927145054771351
 70
     2
 50
19.785242157449328
  0
VERTEX
  5
B9E
  8
0
 10
101.12524637964169
 20
159.82576811656551
 30
0.0
 42
0.2172434185878975
 50
19.785242157449328
  0
VERTEX
  5
B90
  8
0
 10
101.36735901675181
 20
160.35670756830109
 30
0.0
 42
0.2172434185878727
  0
VERTEX
  5
B97
  8
0
 10
101.1252463796628
 20
160.8876470200463
 30
0.0
 42
0.0927145054771163
  0
VERTEX
  5
B91
  8
0
 10
99.989149915772074
 20
161.5536380615352
 30
0.0
 42
0.049390196853799
 70
     2
 50
160.21475784028021
  0
VERTEX
  5
B98
  8
0
 10
98.586076840741285
 20
161.90685034923141
 30
0.0
 42
0.0369961751365346
 50
160.21475784028021
  0
VERTEX
  5
B92
  8
0
 10
96.661858812353415
 20
162.0494229051053
 30
0.0
 42
0.0369961751365424
  0
VERTEX
  5
B99
  8
0
 10
94.737640783959918
 20
161.9068503493076
 30
0.0
 42
0.0493901968538088
  0
VERTEX
  5
B93
  8
0
 10
93.334567708915074
 20
161.55363806166699
 30
0.0
 42
0.0927145054771165
 70
     2
 50
199.78524215744929
  0
VERTEX
  5
B9A
  8
0
 10
92.198471244998018
 20
160.8876470202232
 30
0.0
 42
0.2172434185878763
 50
199.78524215744929
  0
VERTEX
  5
B94
  8
0
 10
91.956358607887964
 20
160.35670756848751
 30
0.0
 42
0.2172434185879065
  0
VERTEX
  5
B9B
  8
0
 10
92.198471244977014
 20
159.82576811674241
 30
0.0
 42
0.0927145054771313
  0
VERTEX
  5
B95
  8
0
 10
93.334567708867667
 20
159.15977707525349
 30
0.0
 42
0.0493901968538131
 70
     2
 50
340.2147578402803
  0
VERTEX
  5
B9C
  8
0
 10
94.737640783898527
 20
158.80656478755731
 30
0.0
 42
0.0369961751365431
 50
340.2147578402803
  0
SEQEND
  5
B96
  8
0
  0
TEXT
  5
C89
  8
0
 62
     3
 10
0.0
 20
0.0
 30
0.0
 40
10.0
  1
FKR5X40-SV
  7
STANDARD1
  0
ENDSEC
  0
EOF
