  0
SECTION
  2
HEADER
  9
$ACADVER
  1
AC1009
  9
$INSBASE
 10
0.0
 20
0.0
 30
0.0
  9
$EXTMIN
 10
0.0
 20
-2.960436562073669
 30
0.0
  9
$EXTMAX
 10
217.0
 20
196.5
 30
0.0
  9
$LIMMIN
 10
0.0
 20
0.0
  9
$LIMMAX
 10
187.5
 20
135.0
  9
$ORTHOMODE
 70
     1
  9
$REGENMODE
 70
     1
  9
$FILLMODE
 70
     1
  9
$QTEXTMODE
 70
     0
  9
$MIRRTEXT
 70
     0
  9
$DRAGMODE
 70
     2
  9
$LTSCALE
 40
5.0
  9
$OSMODE
 70
    37
  9
$ATTMODE
 70
     1
  9
$TEXTSIZE
 40
4.0
  9
$TRACEWID
 40
0.05
  9
$TEXTSTYLE
  7
STANDARD
  9
$CLAYER
  8
0
  9
$CELTYPE
  6
BYLAYER
  9
$CECOLOR
 62
   256
  9
$DIMSCALE
 40
0.5
  9
$DIMASZ
 40
3.0
  9
$DIMEXO
 40
2.0
  9
$DIMDLI
 40
0.38
  9
$DIMRND
 40
0.0
  9
$DIMDLE
 40
0.0
  9
$DIMEXE
 40
2.0
  9
$DIMTP
 40
0.0
  9
$DIMTM
 40
0.0
  9
$DIMTXT
 40
3.0
  9
$DIMCEN
 40
0.0
  9
$DIMTSZ
 40
0.0
  9
$DIMTOL
 70
     0
  9
$DIMLIM
 70
     0
  9
$DIMTIH
 70
     0
  9
$DIMTOH
 70
     0
  9
$DIMSE1
 70
     0
  9
$DIMSE2
 70
     0
  9
$DIMTAD
 70
     1
  9
$DIMZIN
 70
     0
  9
$DIMBLK
  1

  9
$DIMASO
 70
     0
  9
$DIMSHO
 70
     0
  9
$DIMPOST
  1

  9
$DIMAPOST
  1

  9
$DIMALT
 70
     0
  9
$DIMALTD
 70
     2
  9
$DIMALTF
 40
25.399999999999999
  9
$DIMLFAC
 40
1.0
  9
$DIMTOFL
 70
     0
  9
$DIMTVP
 40
1.6000000000000001
  9
$DIMTIX
 70
     1
  9
$DIMSOXD
 70
     0
  9
$DIMSAH
 70
     0
  9
$DIMBLK1
  1

  9
$DIMBLK2
  1

  9
$DIMSTYLE
  2
STANDARD
  9
$DIMCLRD
 70
     0
  9
$DIMCLRE
 70
     0
  9
$DIMCLRT
 70
     0
  9
$DIMTFAC
 40
1.0
  9
$DIMGAP
 40
0.09
  9
$LUNITS
 70
     2
  9
$LUPREC
 70
     1
  9
$SKETCHINC
 40
0.1
  9
$FILLETRAD
 40
1.25
  9
$AUNITS
 70
     0
  9
$AUPREC
 70
     0
  9
$MENU
  1
E:\r13\win\SUPPORT\ACAD
  9
$ELEVATION
 40
0.0
  9
$PELEVATION
 40
0.0
  9
$THICKNESS
 40
0.0
  9
$LIMCHECK
 70
     0
  9
$BLIPMODE
 70
     0
  9
$CHAMFERA
 40
0.0
  9
$CHAMFERB
 40
0.0
  9
$SKPOLY
 70
     0
  9
$TDCREATE
 40
2449840.6143865739
  9
$TDUPDATE
 40
2456805.7189063998
  9
$TDINDWG
 40
0.2414738079
  9
$TDUSRTIMER
 40
0.2414738079
  9
$USRTIMER
 70
     1
  9
$ANGBASE
 50
0.0
  9
$ANGDIR
 70
     0
  9
$PDMODE
 70
     0
  9
$PDSIZE
 40
0.0
  9
$PLINEWID
 40
0.0
  9
$COORDS
 70
     1
  9
$SPLFRAME
 70
     0
  9
$SPLINETYPE
 70
     6
  9
$SPLINESEGS
 70
     8
  9
$ATTDIA
 70
     0
  9
$ATTREQ
 70
     1
  9
$HANDLING
 70
     1
  9
$HANDSEED
  5
1497
  9
$SURFTAB1
 70
     6
  9
$SURFTAB2
 70
     6
  9
$SURFTYPE
 70
     6
  9
$SURFU
 70
     6
  9
$SURFV
 70
     6
  9
$UCSNAME
  2

  9
$UCSORG
 10
0.0
 20
0.0
 30
0.0
  9
$UCSXDIR
 10
1.0
 20
0.0
 30
0.0
  9
$UCSYDIR
 10
0.0
 20
1.0
 30
0.0
  9
$PUCSNAME
  2

  9
$PUCSORG
 10
0.0
 20
0.0
 30
0.0
  9
$PUCSXDIR
 10
1.0
 20
0.0
 30
0.0
  9
$PUCSYDIR
 10
0.0
 20
1.0
 30
0.0
  9
$USERI1
 70
     0
  9
$USERI2
 70
     1
  9
$USERI3
 70
     1
  9
$USERI4
 70
     0
  9
$USERI5
 70
     0
  9
$USERR1
 40
0.0
  9
$USERR2
 40
0.0
  9
$USERR3
 40
0.0
  9
$USERR4
 40
0.0
  9
$USERR5
 40
0.0
  9
$WORLDVIEW
 70
     1
  9
$SHADEDGE
 70
     3
  9
$SHADEDIF
 70
    70
  9
$TILEMODE
 70
     1
  9
$MAXACTVP
 70
    16
  9
$PLIMCHECK
 70
     0
  9
$PEXTMIN
 10
1.0000000000000000E+020
 20
1.0000000000000000E+020
 30
1.0000000000000000E+020
  9
$PEXTMAX
 10
-1.0000000000000000E+020
 20
-1.0000000000000000E+020
 30
-1.0000000000000000E+020
  9
$PLIMMIN
 10
0.0
 20
0.0
  9
$PLIMMAX
 10
12.0
 20
9.0
  9
$UNITMODE
 70
     0
  9
$VISRETAIN
 70
     0
  9
$PLINEGEN
 70
     0
  9
$PSLTSCALE
 70
     0
  0
ENDSEC
  0
SECTION
  2
TABLES
  0
TABLE
  2
VPORT
 70
     1
  0
VPORT
  2
*ACTIVE
 70
     0
 10
0.0
 20
0.0
 11
1.0
 21
1.0
 12
235.63977746870651
 22
135.0
 13
0.0
 23
0.0
 14
5.0
 24
5.0
 15
5.0
 25
5.0
 16
0.0
 26
0.0
 36
1.0
 17
0.0
 27
0.0
 37
0.0
 40
270.0
 41
1.7454798331015291
 42
50.0
 43
0.0
 44
0.0
 50
0.0
 51
0.0
 71
     0
 72
   100
 73
     1
 74
     0
 75
     0
 76
     0
 77
     0
 78
     0
  0
ENDTAB
  0
TABLE
  2
LTYPE
 70
     3
  0
LTYPE
  2
CONTINUOUS
 70
     0
  3
Solid Line
 72
    65
 73
     0
 40
0.0
  0
LTYPE
  2
CENTER
 70
     0
  3
____ _ ____ _ ____ _ ____ _ ____ _ ____ _ ____
 72
    65
 73
     4
 40
2.0
 49
1.25
 49
-0.25
 49
0.25
 49
-0.25
  0
LTYPE
  2
PHANTOM2
 70
     0
  3
___ _ _ ___ _ _ ___ _ _ ___ _ _
 72
    65
 73
     6
 40
1.25
 49
0.625
 49
-0.125
 49
0.125
 49
-0.125
 49
0.125
 49
-0.125
  0
ENDTAB
  0
TABLE
  2
LAYER
 70
     3
  0
LAYER
  2
0
 70
     0
 62
     7
  6
CONTINUOUS
  0
LAYER
  2
1
 70
     0
 62
     1
  6
CENTER
  0
LAYER
  2
3
 70
     0
 62
     3
  6
CONTINUOUS
  0
ENDTAB
  0
TABLE
  2
STYLE
 70
     2
  0
STYLE
  2
STANDARD
 70
     0
 40
0.0
 41
1.0
 50
0.0
 71
     0
 42
4.0
  3
TXT
  4
BIGFONT
  0
STYLE
  2
STANDARD1
 70
     0
 40
0.0
 41
1.0
 50
0.0
 71
     0
 42
3.0
  3
txt
  4

  0
ENDTAB
  0
TABLE
  2
VIEW
 70
     1
  0
VIEW
  2
ALL
 70
     0
 40
179.66152299999999
 10
141.903918
 20
89.830760999999995
 41
0.0
 11
0.0
 21
0.0
 31
1.0
 12
0.0
 22
0.0
 32
0.0
 42
0.0
 43
0.0
 44
0.0
 50
0.0
 71
     0
  0
ENDTAB
  0
TABLE
  2
UCS
 70
     0
  0
ENDTAB
  0
TABLE
  2
APPID
 70
     5
  0
APPID
  2
ACAD
 70
     0
  0
APPID
  2
DCO15
 70
     0
  0
APPID
  2
ACAD_MLEADERVER
 70
     0
  0
APPID
  2
ACAD_EXEMPT_FROM_CAD_STANDARDS
 70
     0
  0
APPID
  2
ACAD_NAV_VCDISPLAY
 70
     0
  0
ENDTAB
  0
TABLE
  2
DIMSTYLE
 70
     1
  0
DIMSTYLE
  2
STANDARD
 70
     0
  3

  4

  5

  6

  7

 40
1.0
 41
0.18
 42
0.0625
 43
0.38
 44
0.18
 45
0.0
 46
0.0
 47
0.0
 48
0.0
140
0.18
141
0.09
142
0.0
143
25.399999999999999
144
1.0
145
0.0
146
1.0
147
0.09
 71
     0
 72
     0
 73
     1
 74
     1
 75
     0
 76
     0
 77
     0
 78
     0
170
     0
171
     2
172
     0
173
     0
174
     0
175
     0
176
     0
177
     0
178
     0
  0
ENDTAB
  0
ENDSEC
  0
SECTION
  2
BLOCKS
  0
BLOCK
  8
0
  2
$MODEL_SPACE
 70
     0
 10
0.0
 20
0.0
 30
0.0
  3
$MODEL_SPACE
  1

  0
ENDBLK
  5
1BD
  8
0
  0
BLOCK
 67
     1
  8
0
  2
$PAPER_SPACE
 70
     0
 10
0.0
 20
0.0
 30
0.0
  3
$PAPER_SPACE
  1

  0
ENDBLK
  5
1BB
 67
     1
  8
0
  0
ENDSEC
  0
SECTION
  2
ENTITIES
  0
TEXT
  5
E0E
  8
0
 62
     3
 10
0.0
 20
0.0
 30
0.0
 40
10.0
  1
FKR6X10L-RE
  7
STANDARD1
  0
LINE
  5
F34
  8
0
 10
55.0
 20
110.0
 30
0.0
 11
55.0
 21
114.0
 31
0.0
  0
LINE
  5
F35
  8
0
 10
45.0
 20
114.0
 30
0.0
 11
45.0
 21
110.0
 31
0.0
  0
LINE
  5
F36
  8
0
 10
45.0
 20
110.0
 30
0.0
 11
55.0
 21
110.0
 31
0.0
  0
LINE
  5
F37
  8
1
 10
50.0
 20
145.86704141901609
 30
0.0
 11
50.0
 21
95.0
 31
0.0
  0
LINE
  5
F38
  8
0
 10
53.345060106874477
 20
141.0
 30
0.0
 11
46.654939893125402
 21
141.0
 31
0.0
  0
LINE
  5
F39
  8
0
 10
56.5
 20
114.0
 30
0.0
 11
43.5
 21
114.0
 31
0.0
  0
LINE
  5
F3A
  8
0
 10
125.0
 20
110.0
 30
0.0
 11
125.0
 21
114.0
 31
0.0
  0
LINE
  5
F3B
  8
0
 10
115.0
 20
114.0
 30
0.0
 11
115.0
 21
110.0
 31
0.0
  0
LINE
  5
F3C
  8
0
 10
115.0
 20
110.0
 30
0.0
 11
125.0
 21
110.0
 31
0.0
  0
LINE
  5
F3D
  8
0
 10
160.0
 20
137.62467733431961
 30
0.0
 11
160.0
 21
138.4969025333094
 31
0.0
  0
LINE
  5
F3E
  8
0
 10
113.48999999999999
 20
128.83165672217621
 30
0.0
 11
113.48999999999999
 21
114.0
 31
0.0
  0
LINE
  5
F3F
  8
0
 10
126.48999999999999
 20
114.0
 30
0.0
 11
126.48999999999999
 21
124.4643235272197
 31
0.0
  0
LINE
  5
F40
  8
0
 10
155.3040073535426
 20
132.11312414620579
 30
0.0
 11
145.63764766128079
 21
129.37782006470709
 31
0.0
  0
LINE
  5
F41
  8
0
 10
142.91484519087501
 20
129.0
 30
0.0
 11
137.94922130091749
 21
129.0
 31
0.0
  0
LINE
  5
F42
  8
0
 10
126.48999999999999
 20
114.0
 30
0.0
 11
113.48999999999999
 21
114.0
 31
0.0
  0
LINE
  5
F43
  8
1
 10
120.0
 20
140.18000000000001
 30
0.0
 11
120.0
 21
94.999999999999616
 31
0.0
  0
LINE
  5
F44
  8
0
 10
213.9458345407819
 20
129.04351434073661
 30
0.0
 11
213.53574220341679
 21
132.17833594473339
 31
0.0
  0
LINE
  5
F45
  8
0
 10
214.08151303112751
 20
139.09055092221379
 30
0.0
 11
214.08151303112751
 21
129.0
 31
0.0
  0
LINE
  5
F46
  8
0
 10
205.91848696887249
 20
139.09055092221379
 30
0.0
 11
205.91848696887249
 21
129.0
 31
0.0
  0
LINE
  5
F47
  8
1
 10
210.0
 20
145.86704141901609
 30
0.0
 11
210.0
 21
94.999999999999048
 31
0.0
  0
LINE
  5
F48
  8
0
 10
215.0
 20
110.0
 30
0.0
 11
215.0
 21
114.0
 31
0.0
  0
LINE
  5
F49
  8
0
 10
205.0
 20
114.0
 30
0.0
 11
205.0
 21
110.0
 31
0.0
  0
LINE
  5
F4A
  8
0
 10
205.0
 20
110.0
 30
0.0
 11
215.0
 21
110.0
 31
0.0
  0
LINE
  5
F4B
  8
0
 10
216.5
 20
114.0
 30
0.0
 11
203.5
 21
114.0
 31
0.0
  0
LINE
  5
F4C
  8
0
 10
206.0932033457137
 20
129.34192715856
 30
0.0
 11
213.9067966542863
 21
129.34192715856
 31
0.0
  0
LINE
  5
F4D
  8
0
 10
214.0849353219825
 20
129.0
 30
0.0
 11
205.91848696887249
 21
128.99999999999869
 31
0.0
  0
LINE
  5
F4E
  8
0
 10
213.34506010687451
 20
141.0
 30
0.0
 11
206.6359478621612
 21
141.0
 31
0.0
  0
LINE
  5
F4F
  8
0
 10
206.46425779658321
 20
132.17833594473339
 30
0.0
 11
213.53574220341679
 21
132.17833594473339
 31
0.0
  0
LINE
  5
F50
  8
0
 10
206.5
 20
140.81563374698749
 30
0.0
 11
206.5
 21
132.5416236806731
 31
0.0
  0
LINE
  5
F51
  8
0
 10
213.5
 20
140.81563374698749
 30
0.0
 11
213.5
 21
132.5416236806731
 31
0.0
  0
LINE
  5
F52
  8
0
 10
113.48999999999999
 20
181.9270833670715
 30
0.0
 11
113.48999999999999
 21
187.0729166329285
 31
0.0
  0
CIRCLE
  5
F53
  8
0
 10
119.98999999999999
 20
50.0
 30
0.0
 40
6.5000000000000027
  0
LINE
  5
F54
  8
1
 10
120.0
 20
196.5
 30
0.0
 11
120.0
 21
172.5
 31
0.0
  0
LINE
  5
F55
  8
1
 10
165.00000301674521
 20
184.5
 30
0.0
 11
108.48999999999999
 21
184.5
 31
0.0
  0
LINE
  5
F56
  8
1
 10
120.0
 20
61.999499102761689
 30
0.0
 11
120.0
 21
38.000500897238318
 31
0.0
  0
CIRCLE
  5
F57
  8
0
 10
120.0
 20
50.0
 30
0.0
 40
5.0
  0
LINE
  5
F58
  8
1
 10
108.48999999999999
 20
50.0
 30
0.0
 11
165.00000301674521
 21
50.0
 31
0.0
  0
ARC
  5
F59
  8
0
 10
120.0
 20
184.5
 30
0.0
 40
7.0
 50
201.56518501524229
 51
308.53132429037731
  0
ARC
  5
F5A
  8
0
 10
120.0
 20
184.5
 30
0.0
 40
7.0
 50
51.468675709622609
 51
158.43481498475771
  0
ARC
  5
F5B
  8
0
 10
156.5
 20
184.5
 30
0.0
 40
3.5
 50
270.0
 51
90.0
  0
LINE
  5
F5C
  8
0
 10
140.79102075597311
 20
188.58151303112751
 30
0.0
 11
156.5
 21
188.0
 31
0.0
  0
LINE
  5
F5D
  8
0
 10
140.79102075597311
 20
180.41848696887249
 30
0.0
 11
156.5
 21
181.0
 31
0.0
  0
CIRCLE
  5
F5E
  8
0
 10
120.28237787243521
 20
184.5
 30
0.0
 40
4.6971000970094821
  0
ARC
  5
F5F
  8
0
 10
135.03573312769859
 20
218.0123049595704
 30
0.0
 40
30.0
 50
249.15519537343911
 51
281.1603006392001
  0
ARC
  5
F60
  8
0
 10
135.03573312769859
 20
150.9876950404296
 30
0.0
 40
30.0
 50
78.83969936079987
 51
110.8448046265608
  0
LINE
  5
F61
  8
0
 10
140.79102075597311
 20
54.081513031127521
 30
0.0
 11
156.5
 21
53.499999999999979
 31
0.0
  0
ARC
  5
F62
  8
0
 10
156.5
 20
49.999999999999993
 30
0.0
 40
3.5
 50
270.0
 51
90.0
  0
ARC
  5
F63
  8
0
 10
135.03573312769859
 20
83.512304959570343
 30
0.0
 40
30.0
 50
249.15519537343911
 51
281.1603006392001
  0
LINE
  5
F64
  8
0
 10
140.79102075597311
 20
45.918486968872479
 30
0.0
 11
156.5
 21
46.499999999999979
 31
0.0
  0
ARC
  5
F65
  8
0
 10
135.03573312769859
 20
16.487695040429671
 30
0.0
 40
30.0
 50
78.83969936079987
 51
110.8448046265608
  0
ARC
  5
F66
  8
0
 10
120.0
 20
50.0
 30
0.0
 40
7.0
 50
201.56518501524229
 51
308.53132429037731
  0
ARC
  5
F67
  8
0
 10
120.0
 20
50.0
 30
0.0
 40
7.0
 50
51.468675709622609
 51
158.43481498475771
  0
LINE
  5
F68
  8
0
 10
113.48999999999999
 20
47.427083367071532
 30
0.0
 11
113.48999999999999
 21
52.572916632928482
 31
0.0
  0
ARC
  5
F69
  8
0
 10
167.57299368282091
 20
-8.6587456704406591
 30
0.0
 40
150.0
 50
93.915861512302882
 51
110.1986696099375
  0
ARC
  5
F6A
  8
0
 10
157.5
 20
138.4969025333094
 30
0.0
 40
2.5
 50
0.0
 51
93.915861512302882
  0
ARC
  5
F6B
  8
0
 10
116.98999999999999
 20
128.83165672217621
 30
0.0
 40
3.5
 50
110.1986696099375
 51
180.0
  0
LINE
  5
F6C
  8
0
 10
55.484468234528769
 20
132.11641036295541
 30
0.0
 11
51.76453245221137
 21
132.11641036295541
 31
0.0
  0
LINE
  5
F6D
  8
0
 10
44.515531765471167
 20
132.11641036295541
 30
0.0
 11
48.23546754778863
 21
132.11641036295541
 31
0.0
  0
LINE
  5
F6E
  8
0
 10
54.084935321982471
 20
139.05774345796669
 30
0.0
 11
54.084935321982471
 21
136.58659012746821
 31
0.0
  0
ARC
  5
F6F
  8
0
 10
154.0124713052939
 20
137.9698809303587
 30
0.0
 40
5.9974715833129633
 50
282.43587149179001
 51
356.70033511174711
  0
ARC
  5
F70
  8
0
 10
142.91484519087501
 20
139.0
 30
0.0
 40
10.0
 50
270.0
 51
285.79999999999887
  0
ARC
  5
F71
  8
0
 10
156.83723305228941
 20
72.704827335022998
 30
0.0
 40
60.0
 50
112.1950152906777
 51
120.3836235702161
  0
ARC
  5
F72
  8
0
 10
137.94922130091749
 20
119.0
 30
0.0
 40
10.0
 50
90.0
 51
112.1950152906777
  0
LINE
  5
F73
  8
0
 10
56.5
 20
114.0
 30
0.0
 11
57.0
 21
133.59739750817309
 31
0.0
  0
POLYLINE
  5
F74
  8
0
 10
55.484468234528812
 20
132.11641036295538
 30
0.0
 66
     1
 70
     8
  0
VERTEX
  8
0
  5
120D
 10
55.4845
 20
132.116
 30
0.000000
  70
    32
  0
VERTEX
  8
0
  5
120E
 10
55.5287
 20
132.136
 30
0.000000
  70
    32
  0
VERTEX
  8
0
  5
120F
 10
55.5724
 20
132.155
 30
0.000000
  70
    32
  0
VERTEX
  8
0
  5
1210
 10
55.6154
 20
132.174
 30
0.000000
  70
    32
  0
VERTEX
  8
0
  5
1211
 10
55.6579
 20
132.194
 30
0.000000
  70
    32
  0
VERTEX
  8
0
  5
1212
 10
55.6998
 20
132.214
 30
0.000000
  70
    32
  0
VERTEX
  8
0
  5
1213
 10
55.7411
 20
132.234
 30
0.000000
  70
    32
  0
VERTEX
  8
0
  5
1214
 10
55.7818
 20
132.254
 30
0.000000
  70
    32
  0
VERTEX
  8
0
  5
1215
 10
55.8218
 20
132.274
 30
0.000000
  70
    32
  0
VERTEX
  8
0
  5
1216
 10
55.8613
 20
132.294
 30
0.000000
  70
    32
  0
VERTEX
  8
0
  5
1217
 10
55.9002
 20
132.315
 30
0.000000
  70
    32
  0
VERTEX
  8
0
  5
1218
 10
55.9384
 20
132.336
 30
0.000000
  70
    32
  0
VERTEX
  8
0
  5
1219
 10
55.9760
 20
132.356
 30
0.000000
  70
    32
  0
VERTEX
  8
0
  5
121A
 10
56.0130
 20
132.377
 30
0.000000
  70
    32
  0
VERTEX
  8
0
  5
121B
 10
56.0494
 20
132.398
 30
0.000000
  70
    32
  0
VERTEX
  8
0
  5
121C
 10
56.0851
 20
132.419
 30
0.000000
  70
    32
  0
VERTEX
  8
0
  5
121D
 10
56.1202
 20
132.441
 30
0.000000
  70
    32
  0
VERTEX
  8
0
  5
121E
 10
56.1547
 20
132.462
 30
0.000000
  70
    32
  0
VERTEX
  8
0
  5
121F
 10
56.1885
 20
132.484
 30
0.000000
  70
    32
  0
VERTEX
  8
0
  5
1220
 10
56.2216
 20
132.505
 30
0.000000
  70
    32
  0
VERTEX
  8
0
  5
1221
 10
56.2541
 20
132.527
 30
0.000000
  70
    32
  0
VERTEX
  8
0
  5
1222
 10
56.2860
 20
132.549
 30
0.000000
  70
    32
  0
VERTEX
  8
0
  5
1223
 10
56.3172
 20
132.571
 30
0.000000
  70
    32
  0
VERTEX
  8
0
  5
1224
 10
56.3477
 20
132.593
 30
0.000000
  70
    32
  0
VERTEX
  8
0
  5
1225
 10
56.3776
 20
132.615
 30
0.000000
  70
    32
  0
VERTEX
  8
0
  5
1226
 10
56.4068
 20
132.637
 30
0.000000
  70
    32
  0
VERTEX
  8
0
  5
1227
 10
56.4353
 20
132.660
 30
0.000000
  70
    32
  0
VERTEX
  8
0
  5
1228
 10
56.4632
 20
132.682
 30
0.000000
  70
    32
  0
VERTEX
  8
0
  5
1229
 10
56.4903
 20
132.705
 30
0.000000
  70
    32
  0
VERTEX
  8
0
  5
122A
 10
56.5168
 20
132.727
 30
0.000000
  70
    32
  0
VERTEX
  8
0
  5
122B
 10
56.5427
 20
132.750
 30
0.000000
  70
    32
  0
VERTEX
  8
0
  5
122C
 10
56.5678
 20
132.773
 30
0.000000
  70
    32
  0
VERTEX
  8
0
  5
122D
 10
56.5922
 20
132.796
 30
0.000000
  70
    32
  0
VERTEX
  8
0
  5
122E
 10
56.6160
 20
132.819
 30
0.000000
  70
    32
  0
VERTEX
  8
0
  5
122F
 10
56.6390
 20
132.842
 30
0.000000
  70
    32
  0
VERTEX
  8
0
  5
1230
 10
56.6614
 20
132.865
 30
0.000000
  70
    32
  0
VERTEX
  8
0
  5
1231
 10
56.6831
 20
132.888
 30
0.000000
  70
    32
  0
VERTEX
  8
0
  5
1232
 10
56.7040
 20
132.912
 30
0.000000
  70
    32
  0
VERTEX
  8
0
  5
1233
 10
56.7243
 20
132.935
 30
0.000000
  70
    32
  0
VERTEX
  8
0
  5
1234
 10
56.7438
 20
132.959
 30
0.000000
  70
    32
  0
VERTEX
  8
0
  5
1235
 10
56.7627
 20
132.982
 30
0.000000
  70
    32
  0
VERTEX
  8
0
  5
1236
 10
56.7808
 20
133.006
 30
0.000000
  70
    32
  0
VERTEX
  8
0
  5
1237
 10
56.7983
 20
133.029
 30
0.000000
  70
    32
  0
VERTEX
  8
0
  5
1238
 10
56.8150
 20
133.053
 30
0.000000
  70
    32
  0
VERTEX
  8
0
  5
1239
 10
56.8310
 20
133.077
 30
0.000000
  70
    32
  0
VERTEX
  8
0
  5
123A
 10
56.8463
 20
133.101
 30
0.000000
  70
    32
  0
VERTEX
  8
0
  5
123B
 10
56.8608
 20
133.125
 30
0.000000
  70
    32
  0
VERTEX
  8
0
  5
123C
 10
56.8747
 20
133.148
 30
0.000000
  70
    32
  0
VERTEX
  8
0
  5
123D
 10
56.8878
 20
133.172
 30
0.000000
  70
    32
  0
VERTEX
  8
0
  5
123E
 10
56.9002
 20
133.196
 30
0.000000
  70
    32
  0
VERTEX
  8
0
  5
123F
 10
56.9119
 20
133.221
 30
0.000000
  70
    32
  0
VERTEX
  8
0
  5
1240
 10
56.9229
 20
133.245
 30
0.000000
  70
    32
  0
VERTEX
  8
0
  5
1241
 10
56.9331
 20
133.269
 30
0.000000
  70
    32
  0
VERTEX
  8
0
  5
1242
 10
56.9427
 20
133.293
 30
0.000000
  70
    32
  0
VERTEX
  8
0
  5
1243
 10
56.9514
 20
133.317
 30
0.000000
  70
    32
  0
VERTEX
  8
0
  5
1244
 10
56.9595
 20
133.341
 30
0.000000
  70
    32
  0
VERTEX
  8
0
  5
1245
 10
56.9668
 20
133.366
 30
0.000000
  70
    32
  0
VERTEX
  8
0
  5
1246
 10
56.9734
 20
133.390
 30
0.000000
  70
    32
  0
VERTEX
  8
0
  5
1247
 10
56.9793
 20
133.414
 30
0.000000
  70
    32
  0
VERTEX
  8
0
  5
1248
 10
56.9844
 20
133.439
 30
0.000000
  70
    32
  0
VERTEX
  8
0
  5
1249
 10
56.9889
 20
133.463
 30
0.000000
  70
    32
  0
VERTEX
  8
0
  5
124A
 10
56.9925
 20
133.487
 30
0.000000
  70
    32
  0
VERTEX
  8
0
  5
124B
 10
56.9955
 20
133.512
 30
0.000000
  70
    32
  0
VERTEX
  8
0
  5
124C
 10
56.9977
 20
133.536
 30
0.000000
  70
    32
  0
VERTEX
  8
0
  5
124D
 10
56.9992
 20
133.560
 30
0.000000
  70
    32
  0
VERTEX
  8
0
  5
124E
 10
56.9999
 20
133.585
 30
0.000000
  70
    32
  0
VERTEX
  8
0
  5
124F
 10
56.9999
 20
133.609
 30
0.000000
  70
    32
  0
VERTEX
  8
0
  5
1250
 10
56.9992
 20
133.634
 30
0.000000
  70
    32
  0
VERTEX
  8
0
  5
1251
 10
56.9977
 20
133.658
 30
0.000000
  70
    32
  0
VERTEX
  8
0
  5
1252
 10
56.9955
 20
133.682
 30
0.000000
  70
    32
  0
VERTEX
  8
0
  5
1253
 10
56.9926
 20
133.707
 30
0.000000
  70
    32
  0
VERTEX
  8
0
  5
1254
 10
56.9890
 20
133.731
 30
0.000000
  70
    32
  0
VERTEX
  8
0
  5
1255
 10
56.9846
 20
133.755
 30
0.000000
  70
    32
  0
VERTEX
  8
0
  5
1256
 10
56.9795
 20
133.780
 30
0.000000
  70
    32
  0
VERTEX
  8
0
  5
1257
 10
56.9736
 20
133.804
 30
0.000000
  70
    32
  0
VERTEX
  8
0
  5
1258
 10
56.9670
 20
133.828
 30
0.000000
  70
    32
  0
VERTEX
  8
0
  5
1259
 10
56.9597
 20
133.853
 30
0.000000
  70
    32
  0
VERTEX
  8
0
  5
125A
 10
56.9517
 20
133.877
 30
0.000000
  70
    32
  0
VERTEX
  8
0
  5
125B
 10
56.9429
 20
133.901
 30
0.000000
  70
    32
  0
VERTEX
  8
0
  5
125C
 10
56.9334
 20
133.925
 30
0.000000
  70
    32
  0
VERTEX
  8
0
  5
125D
 10
56.9232
 20
133.949
 30
0.000000
  70
    32
  0
VERTEX
  8
0
  5
125E
 10
56.9123
 20
133.974
 30
0.000000
  70
    32
  0
VERTEX
  8
0
  5
125F
 10
56.9006
 20
133.998
 30
0.000000
  70
    32
  0
VERTEX
  8
0
  5
1260
 10
56.8882
 20
134.022
 30
0.000000
  70
    32
  0
VERTEX
  8
0
  5
1261
 10
56.8751
 20
134.046
 30
0.000000
  70
    32
  0
VERTEX
  8
0
  5
1262
 10
56.8613
 20
134.070
 30
0.000000
  70
    32
  0
VERTEX
  8
0
  5
1263
 10
56.8467
 20
134.093
 30
0.000000
  70
    32
  0
VERTEX
  8
0
  5
1264
 10
56.8314
 20
134.117
 30
0.000000
  70
    32
  0
VERTEX
  8
0
  5
1265
 10
56.8155
 20
134.141
 30
0.000000
  70
    32
  0
VERTEX
  8
0
  5
1266
 10
56.7988
 20
134.165
 30
0.000000
  70
    32
  0
VERTEX
  8
0
  5
1267
 10
56.7813
 20
134.188
 30
0.000000
  70
    32
  0
VERTEX
  8
0
  5
1268
 10
56.7632
 20
134.212
 30
0.000000
  70
    32
  0
VERTEX
  8
0
  5
1269
 10
56.7444
 20
134.236
 30
0.000000
  70
    32
  0
VERTEX
  8
0
  5
126A
 10
56.7249
 20
134.259
 30
0.000000
  70
    32
  0
VERTEX
  8
0
  5
126B
 10
56.7046
 20
134.282
 30
0.000000
  70
    32
  0
VERTEX
  8
0
  5
126C
 10
56.6837
 20
134.306
 30
0.000000
  70
    32
  0
VERTEX
  8
0
  5
126D
 10
56.6620
 20
134.329
 30
0.000000
  70
    32
  0
VERTEX
  8
0
  5
126E
 10
56.6397
 20
134.352
 30
0.000000
  70
    32
  0
VERTEX
  8
0
  5
126F
 10
56.6166
 20
134.375
 30
0.000000
  70
    32
  0
VERTEX
  8
0
  5
1270
 10
56.5929
 20
134.398
 30
0.000000
  70
    32
  0
VERTEX
  8
0
  5
1271
 10
56.5685
 20
134.421
 30
0.000000
  70
    32
  0
VERTEX
  8
0
  5
1272
 10
56.5434
 20
134.444
 30
0.000000
  70
    32
  0
VERTEX
  8
0
  5
1273
 10
56.5176
 20
134.467
 30
0.000000
  70
    32
  0
VERTEX
  8
0
  5
1274
 10
56.4911
 20
134.490
 30
0.000000
  70
    32
  0
VERTEX
  8
0
  5
1275
 10
56.4640
 20
134.512
 30
0.000000
  70
    32
  0
VERTEX
  8
0
  5
1276
 10
56.4361
 20
134.535
 30
0.000000
  70
    32
  0
VERTEX
  8
0
  5
1277
 10
56.4076
 20
134.557
 30
0.000000
  70
    32
  0
VERTEX
  8
0
  5
1278
 10
56.3784
 20
134.579
 30
0.000000
  70
    32
  0
VERTEX
  8
0
  5
1279
 10
56.3486
 20
134.601
 30
0.000000
  70
    32
  0
VERTEX
  8
0
  5
127A
 10
56.3181
 20
134.623
 30
0.000000
  70
    32
  0
VERTEX
  8
0
  5
127B
 10
56.2869
 20
134.645
 30
0.000000
  70
    32
  0
VERTEX
  8
0
  5
127C
 10
56.2551
 20
134.667
 30
0.000000
  70
    32
  0
VERTEX
  8
0
  5
127D
 10
56.2226
 20
134.689
 30
0.000000
  70
    32
  0
VERTEX
  8
0
  5
127E
 10
56.1894
 20
134.711
 30
0.000000
  70
    32
  0
VERTEX
  8
0
  5
127F
 10
56.1557
 20
134.732
 30
0.000000
  70
    32
  0
VERTEX
  8
0
  5
1280
 10
56.1212
 20
134.754
 30
0.000000
  70
    32
  0
VERTEX
  8
0
  5
1281
 10
56.0862
 20
134.775
 30
0.000000
  70
    32
  0
VERTEX
  8
0
  5
1282
 10
56.0504
 20
134.796
 30
0.000000
  70
    32
  0
VERTEX
  8
0
  5
1283
 10
56.0141
 20
134.817
 30
0.000000
  70
    32
  0
VERTEX
  8
0
  5
1284
 10
55.9771
 20
134.838
 30
0.000000
  70
    32
  0
VERTEX
  8
0
  5
1285
 10
55.9395
 20
134.859
 30
0.000000
  70
    32
  0
VERTEX
  8
0
  5
1286
 10
55.9013
 20
134.879
 30
0.000000
  70
    32
  0
VERTEX
  8
0
  5
1287
 10
55.8625
 20
134.900
 30
0.000000
  70
    32
  0
VERTEX
  8
0
  5
1288
 10
55.8230
 20
134.920
 30
0.000000
  70
    32
  0
VERTEX
  8
0
  5
1289
 10
55.7829
 20
134.940
 30
0.000000
  70
    32
  0
VERTEX
  8
0
  5
128A
 10
55.7423
 20
134.960
 30
0.000000
  70
    32
  0
VERTEX
  8
0
  5
128B
 10
55.7010
 20
134.980
 30
0.000000
  70
    32
  0
VERTEX
  8
0
  5
128C
 10
55.6591
 20
135.000
 30
0.000000
  70
    32
  0
VERTEX
  8
0
  5
128D
 10
55.6167
 20
135.020
 30
0.000000
  70
    32
  0
SEQEND
  8
0
  5
128E
  0
LINE
  5
F75
  8
0
 10
43.5
 20
114.0
 30
0.0
 11
43.0
 21
133.59739750817309
 31
0.0
  0
ARC
  5
F76
  8
0
 10
55.099684645552493
 20
137.8645172379058
 30
0.0
 40
1.5
 50
135.62248582632071
 51
194.54190412830229
  0
ARC
  5
F77
  8
0
 10
61.199037788941162
 20
142.07932973819919
 30
0.0
 40
9.0
 50
219.4496803269364
 51
231.6645676099096
  0
ARC
  5
F78
  8
0
 10
58.323361328471883
 20
139.25948022947759
 30
0.0
 40
5.0
 50
200.75171325611271
 51
215.43300582698089
  0
LINE
  5
F79
  8
0
 10
53.529845449553022
 20
140.87651390155509
 30
0.0
 11
53.791739273145481
 21
140.2440257006615
 31
0.0
  0
LINE
  5
F7A
  8
0
 10
53.791739273145481
 20
140.2440257006615
 30
0.0
 11
54.078587167891442
 21
139.10219762711719
 31
0.0
  0
ARC
  5
F7B
  8
0
 10
53.8846143908047
 20
139.05346815195841
 30
0.0
 40
0.2
 50
315.62248582632071
 51
14.10191193147309
  0
ARC
  5
F7C
  8
0
 10
53.345060106874477
 20
140.80000000000001
 30
0.0
 40
0.2
 50
22.492934975536439
 51
90.0
  0
LINE
  5
F7D
  8
0
 10
46.208260726854462
 20
140.2440257006615
 30
0.0
 11
45.921412832108501
 21
139.10219762711719
 31
0.0
  0
ARC
  5
F7E
  8
0
 10
41.676638671528053
 20
139.25948022947759
 30
0.0
 40
5.0
 50
324.56699417301911
 51
339.24828674388721
  0
LINE
  5
F7F
  8
0
 10
45.915064678017472
 20
139.05774345796669
 30
0.0
 11
45.915064678017472
 21
136.58659012746821
 31
0.0
  0
ARC
  5
F80
  8
0
 10
46.115385609195243
 20
139.05346815195841
 30
0.0
 40
0.2
 50
165.8980880685269
 51
224.37751417367929
  0
ARC
  5
F81
  8
0
 10
44.90031535444745
 20
137.8645172379058
 30
0.0
 40
1.5
 50
345.45809587169771
 51
44.377514173679259
  0
LINE
  5
F82
  8
0
 10
46.470154550446921
 20
140.87651390155509
 30
0.0
 11
46.208260726854462
 21
140.2440257006615
 31
0.0
  0
ARC
  5
F83
  8
0
 10
46.654939893125402
 20
140.80000000000001
 30
0.0
 40
0.2
 50
90.0
 51
157.50706502446349
  0
ARC
  5
F84
  8
0
 10
38.800962211058852
 20
142.07932973819919
 30
0.0
 40
9.0
 50
308.33543239009049
 51
320.55031967306348
  0
POLYLINE
  5
F85
  8
0
 10
44.515531765471188
 20
132.11641036295538
 30
0.0
 66
     1
 70
     8
  0
VERTEX
  8
0
  5
128F
 10
44.5155
 20
132.116
 30
0.000000
  70
    32
  0
VERTEX
  8
0
  5
1290
 10
44.4713
 20
132.136
 30
0.000000
  70
    32
  0
VERTEX
  8
0
  5
1291
 10
44.4276
 20
132.155
 30
0.000000
  70
    32
  0
VERTEX
  8
0
  5
1292
 10
44.3846
 20
132.174
 30
0.000000
  70
    32
  0
VERTEX
  8
0
  5
1293
 10
44.3421
 20
132.194
 30
0.000000
  70
    32
  0
VERTEX
  8
0
  5
1294
 10
44.3002
 20
132.214
 30
0.000000
  70
    32
  0
VERTEX
  8
0
  5
1295
 10
44.2589
 20
132.234
 30
0.000000
  70
    32
  0
VERTEX
  8
0
  5
1296
 10
44.2182
 20
132.254
 30
0.000000
  70
    32
  0
VERTEX
  8
0
  5
1297
 10
44.1782
 20
132.274
 30
0.000000
  70
    32
  0
VERTEX
  8
0
  5
1298
 10
44.1387
 20
132.294
 30
0.000000
  70
    32
  0
VERTEX
  8
0
  5
1299
 10
44.0998
 20
132.315
 30
0.000000
  70
    32
  0
VERTEX
  8
0
  5
129A
 10
44.0616
 20
132.336
 30
0.000000
  70
    32
  0
VERTEX
  8
0
  5
129B
 10
44.0240
 20
132.356
 30
0.000000
  70
    32
  0
VERTEX
  8
0
  5
129C
 10
43.9870
 20
132.377
 30
0.000000
  70
    32
  0
VERTEX
  8
0
  5
129D
 10
43.9506
 20
132.398
 30
0.000000
  70
    32
  0
VERTEX
  8
0
  5
129E
 10
43.9149
 20
132.419
 30
0.000000
  70
    32
  0
VERTEX
  8
0
  5
129F
 10
43.8798
 20
132.441
 30
0.000000
  70
    32
  0
VERTEX
  8
0
  5
12A0
 10
43.8453
 20
132.462
 30
0.000000
  70
    32
  0
VERTEX
  8
0
  5
12A1
 10
43.8115
 20
132.484
 30
0.000000
  70
    32
  0
VERTEX
  8
0
  5
12A2
 10
43.7784
 20
132.505
 30
0.000000
  70
    32
  0
VERTEX
  8
0
  5
12A3
 10
43.7459
 20
132.527
 30
0.000000
  70
    32
  0
VERTEX
  8
0
  5
12A4
 10
43.7140
 20
132.549
 30
0.000000
  70
    32
  0
VERTEX
  8
0
  5
12A5
 10
43.6828
 20
132.571
 30
0.000000
  70
    32
  0
VERTEX
  8
0
  5
12A6
 10
43.6523
 20
132.593
 30
0.000000
  70
    32
  0
VERTEX
  8
0
  5
12A7
 10
43.6224
 20
132.615
 30
0.000000
  70
    32
  0
VERTEX
  8
0
  5
12A8
 10
43.5932
 20
132.637
 30
0.000000
  70
    32
  0
VERTEX
  8
0
  5
12A9
 10
43.5647
 20
132.660
 30
0.000000
  70
    32
  0
VERTEX
  8
0
  5
12AA
 10
43.5368
 20
132.682
 30
0.000000
  70
    32
  0
VERTEX
  8
0
  5
12AB
 10
43.5097
 20
132.705
 30
0.000000
  70
    32
  0
VERTEX
  8
0
  5
12AC
 10
43.4832
 20
132.727
 30
0.000000
  70
    32
  0
VERTEX
  8
0
  5
12AD
 10
43.4573
 20
132.750
 30
0.000000
  70
    32
  0
VERTEX
  8
0
  5
12AE
 10
43.4322
 20
132.773
 30
0.000000
  70
    32
  0
VERTEX
  8
0
  5
12AF
 10
43.4078
 20
132.796
 30
0.000000
  70
    32
  0
VERTEX
  8
0
  5
12B0
 10
43.3840
 20
132.819
 30
0.000000
  70
    32
  0
VERTEX
  8
0
  5
12B1
 10
43.3610
 20
132.842
 30
0.000000
  70
    32
  0
VERTEX
  8
0
  5
12B2
 10
43.3386
 20
132.865
 30
0.000000
  70
    32
  0
VERTEX
  8
0
  5
12B3
 10
43.3169
 20
132.888
 30
0.000000
  70
    32
  0
VERTEX
  8
0
  5
12B4
 10
43.2960
 20
132.912
 30
0.000000
  70
    32
  0
VERTEX
  8
0
  5
12B5
 10
43.2757
 20
132.935
 30
0.000000
  70
    32
  0
VERTEX
  8
0
  5
12B6
 10
43.2562
 20
132.959
 30
0.000000
  70
    32
  0
VERTEX
  8
0
  5
12B7
 10
43.2373
 20
132.982
 30
0.000000
  70
    32
  0
VERTEX
  8
0
  5
12B8
 10
43.2192
 20
133.006
 30
0.000000
  70
    32
  0
VERTEX
  8
0
  5
12B9
 10
43.2017
 20
133.029
 30
0.000000
  70
    32
  0
VERTEX
  8
0
  5
12BA
 10
43.1850
 20
133.053
 30
0.000000
  70
    32
  0
VERTEX
  8
0
  5
12BB
 10
43.1690
 20
133.077
 30
0.000000
  70
    32
  0
VERTEX
  8
0
  5
12BC
 10
43.1537
 20
133.101
 30
0.000000
  70
    32
  0
VERTEX
  8
0
  5
12BD
 10
43.1392
 20
133.125
 30
0.000000
  70
    32
  0
VERTEX
  8
0
  5
12BE
 10
43.1253
 20
133.148
 30
0.000000
  70
    32
  0
VERTEX
  8
0
  5
12BF
 10
43.1122
 20
133.172
 30
0.000000
  70
    32
  0
VERTEX
  8
0
  5
12C0
 10
43.0998
 20
133.196
 30
0.000000
  70
    32
  0
VERTEX
  8
0
  5
12C1
 10
43.0881
 20
133.221
 30
0.000000
  70
    32
  0
VERTEX
  8
0
  5
12C2
 10
43.0771
 20
133.245
 30
0.000000
  70
    32
  0
VERTEX
  8
0
  5
12C3
 10
43.0669
 20
133.269
 30
0.000000
  70
    32
  0
VERTEX
  8
0
  5
12C4
 10
43.0573
 20
133.293
 30
0.000000
  70
    32
  0
VERTEX
  8
0
  5
12C5
 10
43.0486
 20
133.317
 30
0.000000
  70
    32
  0
VERTEX
  8
0
  5
12C6
 10
43.0405
 20
133.341
 30
0.000000
  70
    32
  0
VERTEX
  8
0
  5
12C7
 10
43.0332
 20
133.366
 30
0.000000
  70
    32
  0
VERTEX
  8
0
  5
12C8
 10
43.0266
 20
133.390
 30
0.000000
  70
    32
  0
VERTEX
  8
0
  5
12C9
 10
43.0207
 20
133.414
 30
0.000000
  70
    32
  0
VERTEX
  8
0
  5
12CA
 10
43.0156
 20
133.439
 30
0.000000
  70
    32
  0
VERTEX
  8
0
  5
12CB
 10
43.0111
 20
133.463
 30
0.000000
  70
    32
  0
VERTEX
  8
0
  5
12CC
 10
43.0075
 20
133.487
 30
0.000000
  70
    32
  0
VERTEX
  8
0
  5
12CD
 10
43.0045
 20
133.512
 30
0.000000
  70
    32
  0
VERTEX
  8
0
  5
12CE
 10
43.0023
 20
133.536
 30
0.000000
  70
    32
  0
VERTEX
  8
0
  5
12CF
 10
43.0008
 20
133.560
 30
0.000000
  70
    32
  0
VERTEX
  8
0
  5
12D0
 10
43.0001
 20
133.585
 30
0.000000
  70
    32
  0
VERTEX
  8
0
  5
12D1
 10
43.0001
 20
133.609
 30
0.000000
  70
    32
  0
VERTEX
  8
0
  5
12D2
 10
43.0008
 20
133.634
 30
0.000000
  70
    32
  0
VERTEX
  8
0
  5
12D3
 10
43.0023
 20
133.658
 30
0.000000
  70
    32
  0
VERTEX
  8
0
  5
12D4
 10
43.0045
 20
133.682
 30
0.000000
  70
    32
  0
VERTEX
  8
0
  5
12D5
 10
43.0074
 20
133.707
 30
0.000000
  70
    32
  0
VERTEX
  8
0
  5
12D6
 10
43.0110
 20
133.731
 30
0.000000
  70
    32
  0
VERTEX
  8
0
  5
12D7
 10
43.0154
 20
133.755
 30
0.000000
  70
    32
  0
VERTEX
  8
0
  5
12D8
 10
43.0205
 20
133.780
 30
0.000000
  70
    32
  0
VERTEX
  8
0
  5
12D9
 10
43.0264
 20
133.804
 30
0.000000
  70
    32
  0
VERTEX
  8
0
  5
12DA
 10
43.0330
 20
133.828
 30
0.000000
  70
    32
  0
VERTEX
  8
0
  5
12DB
 10
43.0403
 20
133.853
 30
0.000000
  70
    32
  0
VERTEX
  8
0
  5
12DC
 10
43.0483
 20
133.877
 30
0.000000
  70
    32
  0
VERTEX
  8
0
  5
12DD
 10
43.0571
 20
133.901
 30
0.000000
  70
    32
  0
VERTEX
  8
0
  5
12DE
 10
43.0666
 20
133.925
 30
0.000000
  70
    32
  0
VERTEX
  8
0
  5
12DF
 10
43.0768
 20
133.949
 30
0.000000
  70
    32
  0
VERTEX
  8
0
  5
12E0
 10
43.0877
 20
133.974
 30
0.000000
  70
    32
  0
VERTEX
  8
0
  5
12E1
 10
43.0994
 20
133.998
 30
0.000000
  70
    32
  0
VERTEX
  8
0
  5
12E2
 10
43.1118
 20
134.022
 30
0.000000
  70
    32
  0
VERTEX
  8
0
  5
12E3
 10
43.1249
 20
134.046
 30
0.000000
  70
    32
  0
VERTEX
  8
0
  5
12E4
 10
43.1387
 20
134.070
 30
0.000000
  70
    32
  0
VERTEX
  8
0
  5
12E5
 10
43.1533
 20
134.093
 30
0.000000
  70
    32
  0
VERTEX
  8
0
  5
12E6
 10
43.1686
 20
134.117
 30
0.000000
  70
    32
  0
VERTEX
  8
0
  5
12E7
 10
43.1845
 20
134.141
 30
0.000000
  70
    32
  0
VERTEX
  8
0
  5
12E8
 10
43.2012
 20
134.165
 30
0.000000
  70
    32
  0
VERTEX
  8
0
  5
12E9
 10
43.2187
 20
134.188
 30
0.000000
  70
    32
  0
VERTEX
  8
0
  5
12EA
 10
43.2368
 20
134.212
 30
0.000000
  70
    32
  0
VERTEX
  8
0
  5
12EB
 10
43.2556
 20
134.236
 30
0.000000
  70
    32
  0
VERTEX
  8
0
  5
12EC
 10
43.2751
 20
134.259
 30
0.000000
  70
    32
  0
VERTEX
  8
0
  5
12ED
 10
43.2954
 20
134.282
 30
0.000000
  70
    32
  0
VERTEX
  8
0
  5
12EE
 10
43.3163
 20
134.306
 30
0.000000
  70
    32
  0
VERTEX
  8
0
  5
12EF
 10
43.3380
 20
134.329
 30
0.000000
  70
    32
  0
VERTEX
  8
0
  5
12F0
 10
43.3603
 20
134.352
 30
0.000000
  70
    32
  0
VERTEX
  8
0
  5
12F1
 10
43.3834
 20
134.375
 30
0.000000
  70
    32
  0
VERTEX
  8
0
  5
12F2
 10
43.4071
 20
134.398
 30
0.000000
  70
    32
  0
VERTEX
  8
0
  5
12F3
 10
43.4315
 20
134.421
 30
0.000000
  70
    32
  0
VERTEX
  8
0
  5
12F4
 10
43.4566
 20
134.444
 30
0.000000
  70
    32
  0
VERTEX
  8
0
  5
12F5
 10
43.4824
 20
134.467
 30
0.000000
  70
    32
  0
VERTEX
  8
0
  5
12F6
 10
43.5089
 20
134.490
 30
0.000000
  70
    32
  0
VERTEX
  8
0
  5
12F7
 10
43.5360
 20
134.512
 30
0.000000
  70
    32
  0
VERTEX
  8
0
  5
12F8
 10
43.5639
 20
134.535
 30
0.000000
  70
    32
  0
VERTEX
  8
0
  5
12F9
 10
43.5924
 20
134.557
 30
0.000000
  70
    32
  0
VERTEX
  8
0
  5
12FA
 10
43.6216
 20
134.579
 30
0.000000
  70
    32
  0
VERTEX
  8
0
  5
12FB
 10
43.6514
 20
134.601
 30
0.000000
  70
    32
  0
VERTEX
  8
0
  5
12FC
 10
43.6819
 20
134.623
 30
0.000000
  70
    32
  0
VERTEX
  8
0
  5
12FD
 10
43.7131
 20
134.645
 30
0.000000
  70
    32
  0
VERTEX
  8
0
  5
12FE
 10
43.7449
 20
134.667
 30
0.000000
  70
    32
  0
VERTEX
  8
0
  5
12FF
 10
43.7774
 20
134.689
 30
0.000000
  70
    32
  0
VERTEX
  8
0
  5
1300
 10
43.8106
 20
134.711
 30
0.000000
  70
    32
  0
VERTEX
  8
0
  5
1301
 10
43.8443
 20
134.732
 30
0.000000
  70
    32
  0
VERTEX
  8
0
  5
1302
 10
43.8788
 20
134.754
 30
0.000000
  70
    32
  0
VERTEX
  8
0
  5
1303
 10
43.9138
 20
134.775
 30
0.000000
  70
    32
  0
VERTEX
  8
0
  5
1304
 10
43.9496
 20
134.796
 30
0.000000
  70
    32
  0
VERTEX
  8
0
  5
1305
 10
43.9859
 20
134.817
 30
0.000000
  70
    32
  0
VERTEX
  8
0
  5
1306
 10
44.0229
 20
134.838
 30
0.000000
  70
    32
  0
VERTEX
  8
0
  5
1307
 10
44.0605
 20
134.859
 30
0.000000
  70
    32
  0
VERTEX
  8
0
  5
1308
 10
44.0987
 20
134.879
 30
0.000000
  70
    32
  0
VERTEX
  8
0
  5
1309
 10
44.1375
 20
134.900
 30
0.000000
  70
    32
  0
VERTEX
  8
0
  5
130A
 10
44.1770
 20
134.920
 30
0.000000
  70
    32
  0
VERTEX
  8
0
  5
130B
 10
44.2171
 20
134.940
 30
0.000000
  70
    32
  0
VERTEX
  8
0
  5
130C
 10
44.2577
 20
134.960
 30
0.000000
  70
    32
  0
VERTEX
  8
0
  5
130D
 10
44.2990
 20
134.980
 30
0.000000
  70
    32
  0
VERTEX
  8
0
  5
130E
 10
44.3409
 20
135.000
 30
0.000000
  70
    32
  0
VERTEX
  8
0
  5
130F
 10
44.3833
 20
135.020
 30
0.000000
  70
    32
  0
SEQEND
  8
0
  5
1310
  0
LINE
  5
F86
  8
0
 10
213.50579207781871
 20
132.46987237250571
 30
0.0
 11
213.48545792086259
 21
132.72176856723419
 31
0.0
  0
ARC
  5
F87
  8
0
 10
210.0
 20
139.98240772410429
 30
0.0
 40
1.0
 50
235.7681785130147
 51
304.23182148698521
  0
LINE
  5
F88
  8
0
 10
206.20826072685449
 20
140.2440257006615
 30
0.0
 11
205.92141283210859
 21
139.10219762711719
 31
0.0
  0
LINE
  5
F89
  8
0
 10
206.47015455044689
 20
140.87651390155509
 30
0.0
 11
206.20826072685449
 21
140.2440257006615
 31
0.0
  0
LINE
  5
F8A
  8
0
 10
213.79173927314551
 20
140.2440257006615
 30
0.0
 11
214.07858716789141
 21
139.10219762711719
 31
0.0
  0
ARC
  5
F8B
  8
0
 10
213.34506010687451
 20
140.80000000000001
 30
0.0
 40
0.2
 50
22.492934975536439
 51
90.0
  0
LINE
  5
F8C
  8
0
 10
213.52984544955319
 20
140.87651390155509
 30
0.0
 11
213.79173927314551
 21
140.2440257006615
 31
0.0
  0
ARC
  5
F8D
  8
0
 10
213.38203395988521
 20
140.6017124980701
 30
0.0
 40
0.4
 50
95.303685279422737
 51
111.73075130857239
  0
LINE
  5
F8E
  8
0
 10
213.23393580780149
 20
140.9732860942114
 30
0.0
 11
210.5737362033563
 21
139.16325567981539
 31
0.0
  0
LINE
  5
F8F
  8
0
 10
206.76606419219851
 20
140.9732860942114
 30
0.0
 11
209.4262637966437
 21
139.16325567981539
 31
0.0
  0
ARC
  5
F90
  8
0
 10
206.61796604011471
 20
140.6017124980701
 30
0.0
 40
0.4
 50
68.269248691427563
 51
84.696314720577249
  0
ARC
  5
F91
  8
0
 10
206.65493989312549
 20
140.80000000000001
 30
0.0
 40
0.2
 50
90.0
 51
157.50706502446349
  0
POLYLINE
  5
F92
  8
0
 10
210.59327588173477
 20
137.26340291689985
 30
0.0
 66
     1
 70
     8
  0
VERTEX
  8
0
  5
1311
 10
210.593
 20
137.263
 30
0.000000
  70
    32
  0
VERTEX
  8
0
  5
1312
 10
210.586
 20
137.274
 30
0.000000
  70
    32
  0
VERTEX
  8
0
  5
1313
 10
210.578
 20
137.285
 30
0.000000
  70
    32
  0
VERTEX
  8
0
  5
1314
 10
210.571
 20
137.295
 30
0.000000
  70
    32
  0
VERTEX
  8
0
  5
1315
 10
210.563
 20
137.305
 30
0.000000
  70
    32
  0
VERTEX
  8
0
  5
1316
 10
210.555
 20
137.315
 30
0.000000
  70
    32
  0
VERTEX
  8
0
  5
1317
 10
210.547
 20
137.325
 30
0.000000
  70
    32
  0
VERTEX
  8
0
  5
1318
 10
210.539
 20
137.335
 30
0.000000
  70
    32
  0
VERTEX
  8
0
  5
1319
 10
210.531
 20
137.345
 30
0.000000
  70
    32
  0
VERTEX
  8
0
  5
131A
 10
210.523
 20
137.355
 30
0.000000
  70
    32
  0
VERTEX
  8
0
  5
131B
 10
210.515
 20
137.364
 30
0.000000
  70
    32
  0
VERTEX
  8
0
  5
131C
 10
210.506
 20
137.373
 30
0.000000
  70
    32
  0
VERTEX
  8
0
  5
131D
 10
210.498
 20
137.382
 30
0.000000
  70
    32
  0
VERTEX
  8
0
  5
131E
 10
210.490
 20
137.391
 30
0.000000
  70
    32
  0
VERTEX
  8
0
  5
131F
 10
210.481
 20
137.400
 30
0.000000
  70
    32
  0
VERTEX
  8
0
  5
1320
 10
210.473
 20
137.409
 30
0.000000
  70
    32
  0
VERTEX
  8
0
  5
1321
 10
210.464
 20
137.417
 30
0.000000
  70
    32
  0
VERTEX
  8
0
  5
1322
 10
210.455
 20
137.426
 30
0.000000
  70
    32
  0
VERTEX
  8
0
  5
1323
 10
210.447
 20
137.434
 30
0.000000
  70
    32
  0
VERTEX
  8
0
  5
1324
 10
210.438
 20
137.442
 30
0.000000
  70
    32
  0
VERTEX
  8
0
  5
1325
 10
210.429
 20
137.450
 30
0.000000
  70
    32
  0
VERTEX
  8
0
  5
1326
 10
210.420
 20
137.457
 30
0.000000
  70
    32
  0
VERTEX
  8
0
  5
1327
 10
210.411
 20
137.465
 30
0.000000
  70
    32
  0
VERTEX
  8
0
  5
1328
 10
210.402
 20
137.472
 30
0.000000
  70
    32
  0
VERTEX
  8
0
  5
1329
 10
210.393
 20
137.479
 30
0.000000
  70
    32
  0
VERTEX
  8
0
  5
132A
 10
210.384
 20
137.486
 30
0.000000
  70
    32
  0
VERTEX
  8
0
  5
132B
 10
210.375
 20
137.493
 30
0.000000
  70
    32
  0
VERTEX
  8
0
  5
132C
 10
210.366
 20
137.500
 30
0.000000
  70
    32
  0
VERTEX
  8
0
  5
132D
 10
210.356
 20
137.507
 30
0.000000
  70
    32
  0
VERTEX
  8
0
  5
132E
 10
210.347
 20
137.513
 30
0.000000
  70
    32
  0
VERTEX
  8
0
  5
132F
 10
210.338
 20
137.519
 30
0.000000
  70
    32
  0
VERTEX
  8
0
  5
1330
 10
210.328
 20
137.525
 30
0.000000
  70
    32
  0
VERTEX
  8
0
  5
1331
 10
210.319
 20
137.531
 30
0.000000
  70
    32
  0
VERTEX
  8
0
  5
1332
 10
210.309
 20
137.537
 30
0.000000
  70
    32
  0
VERTEX
  8
0
  5
1333
 10
210.300
 20
137.542
 30
0.000000
  70
    32
  0
VERTEX
  8
0
  5
1334
 10
210.290
 20
137.548
 30
0.000000
  70
    32
  0
VERTEX
  8
0
  5
1335
 10
210.280
 20
137.553
 30
0.000000
  70
    32
  0
VERTEX
  8
0
  5
1336
 10
210.271
 20
137.558
 30
0.000000
  70
    32
  0
VERTEX
  8
0
  5
1337
 10
210.261
 20
137.563
 30
0.000000
  70
    32
  0
VERTEX
  8
0
  5
1338
 10
210.251
 20
137.567
 30
0.000000
  70
    32
  0
VERTEX
  8
0
  5
1339
 10
210.242
 20
137.572
 30
0.000000
  70
    32
  0
VERTEX
  8
0
  5
133A
 10
210.232
 20
137.576
 30
0.000000
  70
    32
  0
VERTEX
  8
0
  5
133B
 10
210.222
 20
137.580
 30
0.000000
  70
    32
  0
VERTEX
  8
0
  5
133C
 10
210.212
 20
137.584
 30
0.000000
  70
    32
  0
VERTEX
  8
0
  5
133D
 10
210.202
 20
137.588
 30
0.000000
  70
    32
  0
VERTEX
  8
0
  5
133E
 10
210.192
 20
137.591
 30
0.000000
  70
    32
  0
VERTEX
  8
0
  5
133F
 10
210.182
 20
137.595
 30
0.000000
  70
    32
  0
VERTEX
  8
0
  5
1340
 10
210.172
 20
137.598
 30
0.000000
  70
    32
  0
VERTEX
  8
0
  5
1341
 10
210.162
 20
137.601
 30
0.000000
  70
    32
  0
VERTEX
  8
0
  5
1342
 10
210.152
 20
137.604
 30
0.000000
  70
    32
  0
VERTEX
  8
0
  5
1343
 10
210.142
 20
137.607
 30
0.000000
  70
    32
  0
VERTEX
  8
0
  5
1344
 10
210.132
 20
137.609
 30
0.000000
  70
    32
  0
VERTEX
  8
0
  5
1345
 10
210.122
 20
137.611
 30
0.000000
  70
    32
  0
VERTEX
  8
0
  5
1346
 10
210.112
 20
137.613
 30
0.000000
  70
    32
  0
VERTEX
  8
0
  5
1347
 10
210.102
 20
137.615
 30
0.000000
  70
    32
  0
VERTEX
  8
0
  5
1348
 10
210.092
 20
137.617
 30
0.000000
  70
    32
  0
VERTEX
  8
0
  5
1349
 10
210.081
 20
137.619
 30
0.000000
  70
    32
  0
VERTEX
  8
0
  5
134A
 10
210.071
 20
137.620
 30
0.000000
  70
    32
  0
VERTEX
  8
0
  5
134B
 10
210.061
 20
137.621
 30
0.000000
  70
    32
  0
VERTEX
  8
0
  5
134C
 10
210.051
 20
137.622
 30
0.000000
  70
    32
  0
VERTEX
  8
0
  5
134D
 10
210.041
 20
137.623
 30
0.000000
  70
    32
  0
VERTEX
  8
0
  5
134E
 10
210.031
 20
137.624
 30
0.000000
  70
    32
  0
VERTEX
  8
0
  5
134F
 10
210.020
 20
137.624
 30
0.000000
  70
    32
  0
VERTEX
  8
0
  5
1350
 10
210.010
 20
137.625
 30
0.000000
  70
    32
  0
VERTEX
  8
0
  5
1351
 10
210.000
 20
137.625
 30
0.000000
  70
    32
  0
VERTEX
  8
0
  5
1352
 10
209.990
 20
137.625
 30
0.000000
  70
    32
  0
VERTEX
  8
0
  5
1353
 10
209.980
 20
137.624
 30
0.000000
  70
    32
  0
VERTEX
  8
0
  5
1354
 10
209.969
 20
137.624
 30
0.000000
  70
    32
  0
VERTEX
  8
0
  5
1355
 10
209.959
 20
137.623
 30
0.000000
  70
    32
  0
VERTEX
  8
0
  5
1356
 10
209.949
 20
137.622
 30
0.000000
  70
    32
  0
VERTEX
  8
0
  5
1357
 10
209.939
 20
137.621
 30
0.000000
  70
    32
  0
VERTEX
  8
0
  5
1358
 10
209.929
 20
137.620
 30
0.000000
  70
    32
  0
VERTEX
  8
0
  5
1359
 10
209.919
 20
137.619
 30
0.000000
  70
    32
  0
VERTEX
  8
0
  5
135A
 10
209.908
 20
137.617
 30
0.000000
  70
    32
  0
VERTEX
  8
0
  5
135B
 10
209.898
 20
137.615
 30
0.000000
  70
    32
  0
VERTEX
  8
0
  5
135C
 10
209.888
 20
137.613
 30
0.000000
  70
    32
  0
VERTEX
  8
0
  5
135D
 10
209.878
 20
137.611
 30
0.000000
  70
    32
  0
VERTEX
  8
0
  5
135E
 10
209.868
 20
137.609
 30
0.000000
  70
    32
  0
VERTEX
  8
0
  5
135F
 10
209.858
 20
137.607
 30
0.000000
  70
    32
  0
VERTEX
  8
0
  5
1360
 10
209.848
 20
137.604
 30
0.000000
  70
    32
  0
VERTEX
  8
0
  5
1361
 10
209.838
 20
137.601
 30
0.000000
  70
    32
  0
VERTEX
  8
0
  5
1362
 10
209.828
 20
137.598
 30
0.000000
  70
    32
  0
VERTEX
  8
0
  5
1363
 10
209.818
 20
137.595
 30
0.000000
  70
    32
  0
VERTEX
  8
0
  5
1364
 10
209.808
 20
137.591
 30
0.000000
  70
    32
  0
VERTEX
  8
0
  5
1365
 10
209.798
 20
137.588
 30
0.000000
  70
    32
  0
VERTEX
  8
0
  5
1366
 10
209.788
 20
137.584
 30
0.000000
  70
    32
  0
VERTEX
  8
0
  5
1367
 10
209.778
 20
137.580
 30
0.000000
  70
    32
  0
VERTEX
  8
0
  5
1368
 10
209.768
 20
137.576
 30
0.000000
  70
    32
  0
VERTEX
  8
0
  5
1369
 10
209.758
 20
137.572
 30
0.000000
  70
    32
  0
VERTEX
  8
0
  5
136A
 10
209.749
 20
137.567
 30
0.000000
  70
    32
  0
VERTEX
  8
0
  5
136B
 10
209.739
 20
137.563
 30
0.000000
  70
    32
  0
VERTEX
  8
0
  5
136C
 10
209.729
 20
137.558
 30
0.000000
  70
    32
  0
VERTEX
  8
0
  5
136D
 10
209.720
 20
137.553
 30
0.000000
  70
    32
  0
VERTEX
  8
0
  5
136E
 10
209.710
 20
137.548
 30
0.000000
  70
    32
  0
VERTEX
  8
0
  5
136F
 10
209.700
 20
137.542
 30
0.000000
  70
    32
  0
VERTEX
  8
0
  5
1370
 10
209.691
 20
137.537
 30
0.000000
  70
    32
  0
VERTEX
  8
0
  5
1371
 10
209.681
 20
137.531
 30
0.000000
  70
    32
  0
VERTEX
  8
0
  5
1372
 10
209.672
 20
137.525
 30
0.000000
  70
    32
  0
VERTEX
  8
0
  5
1373
 10
209.662
 20
137.519
 30
0.000000
  70
    32
  0
VERTEX
  8
0
  5
1374
 10
209.653
 20
137.513
 30
0.000000
  70
    32
  0
VERTEX
  8
0
  5
1375
 10
209.644
 20
137.507
 30
0.000000
  70
    32
  0
VERTEX
  8
0
  5
1376
 10
209.634
 20
137.500
 30
0.000000
  70
    32
  0
VERTEX
  8
0
  5
1377
 10
209.625
 20
137.493
 30
0.000000
  70
    32
  0
VERTEX
  8
0
  5
1378
 10
209.616
 20
137.486
 30
0.000000
  70
    32
  0
VERTEX
  8
0
  5
1379
 10
209.607
 20
137.479
 30
0.000000
  70
    32
  0
VERTEX
  8
0
  5
137A
 10
209.598
 20
137.472
 30
0.000000
  70
    32
  0
VERTEX
  8
0
  5
137B
 10
209.589
 20
137.465
 30
0.000000
  70
    32
  0
VERTEX
  8
0
  5
137C
 10
209.580
 20
137.457
 30
0.000000
  70
    32
  0
VERTEX
  8
0
  5
137D
 10
209.571
 20
137.450
 30
0.000000
  70
    32
  0
VERTEX
  8
0
  5
137E
 10
209.562
 20
137.442
 30
0.000000
  70
    32
  0
VERTEX
  8
0
  5
137F
 10
209.553
 20
137.434
 30
0.000000
  70
    32
  0
VERTEX
  8
0
  5
1380
 10
209.545
 20
137.426
 30
0.000000
  70
    32
  0
VERTEX
  8
0
  5
1381
 10
209.536
 20
137.417
 30
0.000000
  70
    32
  0
VERTEX
  8
0
  5
1382
 10
209.527
 20
137.409
 30
0.000000
  70
    32
  0
VERTEX
  8
0
  5
1383
 10
209.519
 20
137.400
 30
0.000000
  70
    32
  0
VERTEX
  8
0
  5
1384
 10
209.510
 20
137.391
 30
0.000000
  70
    32
  0
VERTEX
  8
0
  5
1385
 10
209.502
 20
137.382
 30
0.000000
  70
    32
  0
VERTEX
  8
0
  5
1386
 10
209.494
 20
137.373
 30
0.000000
  70
    32
  0
VERTEX
  8
0
  5
1387
 10
209.485
 20
137.364
 30
0.000000
  70
    32
  0
VERTEX
  8
0
  5
1388
 10
209.477
 20
137.355
 30
0.000000
  70
    32
  0
VERTEX
  8
0
  5
1389
 10
209.469
 20
137.345
 30
0.000000
  70
    32
  0
VERTEX
  8
0
  5
138A
 10
209.461
 20
137.335
 30
0.000000
  70
    32
  0
VERTEX
  8
0
  5
138B
 10
209.453
 20
137.325
 30
0.000000
  70
    32
  0
VERTEX
  8
0
  5
138C
 10
209.445
 20
137.315
 30
0.000000
  70
    32
  0
VERTEX
  8
0
  5
138D
 10
209.437
 20
137.305
 30
0.000000
  70
    32
  0
VERTEX
  8
0
  5
138E
 10
209.429
 20
137.295
 30
0.000000
  70
    32
  0
VERTEX
  8
0
  5
138F
 10
209.422
 20
137.285
 30
0.000000
  70
    32
  0
VERTEX
  8
0
  5
1390
 10
209.414
 20
137.274
 30
0.000000
  70
    32
  0
VERTEX
  8
0
  5
1391
 10
209.407
 20
137.263
 30
0.000000
  70
    32
  0
SEQEND
  8
0
  5
1392
  0
ARC
  5
F93
  8
0
 10
195.49087149284361
 20
124.15167604076321
 30
0.0
 40
20.0
 50
26.540009007946299
 51
40.964124611726163
  0
ARC
  5
F94
  8
0
 10
212.48870029340139
 20
132.64130595418899
 30
0.0
 40
1.0
 50
4.6151572348128918
 51
26.540009007946299
  0
LINE
  5
F95
  8
0
 10
213.50579207781871
 20
132.46987237250571
 30
0.0
 11
213.53574220341679
 21
132.17833594473339
 31
0.0
  0
ARC
  5
F96
  8
0
 10
224.5091285071563
 20
124.15167604076321
 30
0.0
 40
20.0
 50
139.03587538850161
 51
153.45999099205329
  0
LINE
  5
F97
  8
0
 10
206.49420792218129
 20
132.46987237250571
 30
0.0
 11
206.46425779658321
 21
132.17833594473339
 31
0.0
  0
LINE
  5
F98
  8
0
 10
206.49420792218129
 20
132.46987237250571
 30
0.0
 11
206.51454207913741
 21
132.72176856723419
 31
0.0
  0
ARC
  5
F99
  8
0
 10
207.51129970659861
 20
132.64130595418899
 30
0.0
 40
1.0
 50
153.45999099205369
 51
175.3848427651871
  0
ARC
  5
F9A
  8
0
 10
213.9954121186162
 20
129.05000000000001
 30
0.0
 40
0.05
 50
187.4530187104076
 51
270.00000000001631
  0
ARC
  5
F9B
  8
0
 10
206.0045878813838
 20
129.05000000000001
 30
0.0
 40
0.05
 50
269.9999999999838
 51
352.54698128959222
  0
LINE
  5
F9C
  8
0
 10
206.0541654592181
 20
129.04351434073661
 30
0.0
 11
206.46425779658321
 21
132.17833594473339
 31
0.0
  0
LINE
  5
F9D
  8
0
 10
214.08151303112751
 20
136.4583197567934
 30
0.0
 11
215.4741300527069
 21
135.00856930127571
 31
0.0
  0
LINE
  5
F9E
  8
0
 10
215.47413005270681
 20
135.0085693012758
 30
0.0
 11
216.26556777584031
 21
134.6502382423192
 31
0.0
  0
ARC
  5
F9F
  8
0
 10
215.75
 20
133.511515331109
 30
0.0
 40
1.25
 50
0.0
 51
65.640901373420121
  0
LINE
  5
FA0
  8
0
 10
205.91848696887249
 20
136.4583197567934
 30
0.0
 11
204.5258699472931
 21
135.00856930127571
 31
0.0
  0
ARC
  5
FA1
  8
0
 10
204.25
 20
133.511515331109
 30
0.0
 40
1.25
 50
114.35909862657989
 51
180.0
  0
LINE
  5
FA2
  8
0
 10
204.52586994729319
 20
135.0085693012758
 30
0.0
 11
203.73443222415969
 21
134.6502382423192
 31
0.0
  0
POLYLINE
  5
FA3
  8
0
 10
206.42699909606583
 20
128.49815851957203
 30
0.0
 66
     1
 70
     8
  0
VERTEX
  8
0
  5
1393
 10
206.427
 20
128.498
 30
0.000000
  70
    32
  0
VERTEX
  8
0
  5
1394
 10
206.427
 20
128.504
 30
0.000000
  70
    32
  0
VERTEX
  8
0
  5
1395
 10
206.427
 20
128.510
 30
0.000000
  70
    32
  0
VERTEX
  8
0
  5
1396
 10
206.427
 20
128.517
 30
0.000000
  70
    32
  0
VERTEX
  8
0
  5
1397
 10
206.427
 20
128.523
 30
0.000000
  70
    32
  0
VERTEX
  8
0
  5
1398
 10
206.427
 20
128.529
 30
0.000000
  70
    32
  0
VERTEX
  8
0
  5
1399
 10
206.427
 20
128.535
 30
0.000000
  70
    32
  0
VERTEX
  8
0
  5
139A
 10
206.426
 20
128.541
 30
0.000000
  70
    32
  0
VERTEX
  8
0
  5
139B
 10
206.426
 20
128.547
 30
0.000000
  70
    32
  0
VERTEX
  8
0
  5
139C
 10
206.426
 20
128.553
 30
0.000000
  70
    32
  0
VERTEX
  8
0
  5
139D
 10
206.426
 20
128.560
 30
0.000000
  70
    32
  0
VERTEX
  8
0
  5
139E
 10
206.425
 20
128.566
 30
0.000000
  70
    32
  0
VERTEX
  8
0
  5
139F
 10
206.425
 20
128.572
 30
0.000000
  70
    32
  0
VERTEX
  8
0
  5
13A0
 10
206.425
 20
128.578
 30
0.000000
  70
    32
  0
VERTEX
  8
0
  5
13A1
 10
206.424
 20
128.584
 30
0.000000
  70
    32
  0
VERTEX
  8
0
  5
13A2
 10
206.424
 20
128.590
 30
0.000000
  70
    32
  0
VERTEX
  8
0
  5
13A3
 10
206.424
 20
128.596
 30
0.000000
  70
    32
  0
VERTEX
  8
0
  5
13A4
 10
206.423
 20
128.602
 30
0.000000
  70
    32
  0
VERTEX
  8
0
  5
13A5
 10
206.423
 20
128.608
 30
0.000000
  70
    32
  0
VERTEX
  8
0
  5
13A6
 10
206.422
 20
128.614
 30
0.000000
  70
    32
  0
VERTEX
  8
0
  5
13A7
 10
206.422
 20
128.620
 30
0.000000
  70
    32
  0
VERTEX
  8
0
  5
13A8
 10
206.421
 20
128.626
 30
0.000000
  70
    32
  0
VERTEX
  8
0
  5
13A9
 10
206.421
 20
128.632
 30
0.000000
  70
    32
  0
VERTEX
  8
0
  5
13AA
 10
206.420
 20
128.638
 30
0.000000
  70
    32
  0
VERTEX
  8
0
  5
13AB
 10
206.420
 20
128.644
 30
0.000000
  70
    32
  0
VERTEX
  8
0
  5
13AC
 10
206.419
 20
128.650
 30
0.000000
  70
    32
  0
VERTEX
  8
0
  5
13AD
 10
206.418
 20
128.656
 30
0.000000
  70
    32
  0
VERTEX
  8
0
  5
13AE
 10
206.418
 20
128.661
 30
0.000000
  70
    32
  0
VERTEX
  8
0
  5
13AF
 10
206.417
 20
128.667
 30
0.000000
  70
    32
  0
VERTEX
  8
0
  5
13B0
 10
206.416
 20
128.673
 30
0.000000
  70
    32
  0
VERTEX
  8
0
  5
13B1
 10
206.415
 20
128.679
 30
0.000000
  70
    32
  0
VERTEX
  8
0
  5
13B2
 10
206.415
 20
128.685
 30
0.000000
  70
    32
  0
VERTEX
  8
0
  5
13B3
 10
206.414
 20
128.690
 30
0.000000
  70
    32
  0
VERTEX
  8
0
  5
13B4
 10
206.413
 20
128.696
 30
0.000000
  70
    32
  0
VERTEX
  8
0
  5
13B5
 10
206.412
 20
128.702
 30
0.000000
  70
    32
  0
VERTEX
  8
0
  5
13B6
 10
206.411
 20
128.707
 30
0.000000
  70
    32
  0
VERTEX
  8
0
  5
13B7
 10
206.410
 20
128.713
 30
0.000000
  70
    32
  0
VERTEX
  8
0
  5
13B8
 10
206.410
 20
128.718
 30
0.000000
  70
    32
  0
VERTEX
  8
0
  5
13B9
 10
206.409
 20
128.724
 30
0.000000
  70
    32
  0
VERTEX
  8
0
  5
13BA
 10
206.408
 20
128.729
 30
0.000000
  70
    32
  0
VERTEX
  8
0
  5
13BB
 10
206.407
 20
128.735
 30
0.000000
  70
    32
  0
VERTEX
  8
0
  5
13BC
 10
206.406
 20
128.740
 30
0.000000
  70
    32
  0
VERTEX
  8
0
  5
13BD
 10
206.405
 20
128.746
 30
0.000000
  70
    32
  0
VERTEX
  8
0
  5
13BE
 10
206.404
 20
128.751
 30
0.000000
  70
    32
  0
VERTEX
  8
0
  5
13BF
 10
206.402
 20
128.756
 30
0.000000
  70
    32
  0
VERTEX
  8
0
  5
13C0
 10
206.401
 20
128.761
 30
0.000000
  70
    32
  0
VERTEX
  8
0
  5
13C1
 10
206.400
 20
128.767
 30
0.000000
  70
    32
  0
VERTEX
  8
0
  5
13C2
 10
206.399
 20
128.772
 30
0.000000
  70
    32
  0
VERTEX
  8
0
  5
13C3
 10
206.398
 20
128.777
 30
0.000000
  70
    32
  0
VERTEX
  8
0
  5
13C4
 10
206.397
 20
128.782
 30
0.000000
  70
    32
  0
VERTEX
  8
0
  5
13C5
 10
206.396
 20
128.787
 30
0.000000
  70
    32
  0
VERTEX
  8
0
  5
13C6
 10
206.394
 20
128.792
 30
0.000000
  70
    32
  0
VERTEX
  8
0
  5
13C7
 10
206.393
 20
128.797
 30
0.000000
  70
    32
  0
VERTEX
  8
0
  5
13C8
 10
206.392
 20
128.802
 30
0.000000
  70
    32
  0
VERTEX
  8
0
  5
13C9
 10
206.390
 20
128.807
 30
0.000000
  70
    32
  0
VERTEX
  8
0
  5
13CA
 10
206.389
 20
128.812
 30
0.000000
  70
    32
  0
VERTEX
  8
0
  5
13CB
 10
206.388
 20
128.817
 30
0.000000
  70
    32
  0
VERTEX
  8
0
  5
13CC
 10
206.386
 20
128.821
 30
0.000000
  70
    32
  0
VERTEX
  8
0
  5
13CD
 10
206.385
 20
128.826
 30
0.000000
  70
    32
  0
VERTEX
  8
0
  5
13CE
 10
206.384
 20
128.831
 30
0.000000
  70
    32
  0
VERTEX
  8
0
  5
13CF
 10
206.382
 20
128.835
 30
0.000000
  70
    32
  0
VERTEX
  8
0
  5
13D0
 10
206.381
 20
128.840
 30
0.000000
  70
    32
  0
VERTEX
  8
0
  5
13D1
 10
206.379
 20
128.844
 30
0.000000
  70
    32
  0
VERTEX
  8
0
  5
13D2
 10
206.378
 20
128.849
 30
0.000000
  70
    32
  0
VERTEX
  8
0
  5
13D3
 10
206.376
 20
128.853
 30
0.000000
  70
    32
  0
VERTEX
  8
0
  5
13D4
 10
206.375
 20
128.857
 30
0.000000
  70
    32
  0
VERTEX
  8
0
  5
13D5
 10
206.373
 20
128.862
 30
0.000000
  70
    32
  0
VERTEX
  8
0
  5
13D6
 10
206.372
 20
128.866
 30
0.000000
  70
    32
  0
VERTEX
  8
0
  5
13D7
 10
206.370
 20
128.870
 30
0.000000
  70
    32
  0
VERTEX
  8
0
  5
13D8
 10
206.369
 20
128.874
 30
0.000000
  70
    32
  0
VERTEX
  8
0
  5
13D9
 10
206.367
 20
128.878
 30
0.000000
  70
    32
  0
VERTEX
  8
0
  5
13DA
 10
206.366
 20
128.882
 30
0.000000
  70
    32
  0
VERTEX
  8
0
  5
13DB
 10
206.364
 20
128.886
 30
0.000000
  70
    32
  0
VERTEX
  8
0
  5
13DC
 10
206.362
 20
128.890
 30
0.000000
  70
    32
  0
VERTEX
  8
0
  5
13DD
 10
206.361
 20
128.894
 30
0.000000
  70
    32
  0
VERTEX
  8
0
  5
13DE
 10
206.359
 20
128.898
 30
0.000000
  70
    32
  0
VERTEX
  8
0
  5
13DF
 10
206.357
 20
128.901
 30
0.000000
  70
    32
  0
VERTEX
  8
0
  5
13E0
 10
206.356
 20
128.905
 30
0.000000
  70
    32
  0
VERTEX
  8
0
  5
13E1
 10
206.354
 20
128.908
 30
0.000000
  70
    32
  0
VERTEX
  8
0
  5
13E2
 10
206.352
 20
128.912
 30
0.000000
  70
    32
  0
VERTEX
  8
0
  5
13E3
 10
206.350
 20
128.915
 30
0.000000
  70
    32
  0
VERTEX
  8
0
  5
13E4
 10
206.349
 20
128.919
 30
0.000000
  70
    32
  0
VERTEX
  8
0
  5
13E5
 10
206.347
 20
128.922
 30
0.000000
  70
    32
  0
VERTEX
  8
0
  5
13E6
 10
206.345
 20
128.925
 30
0.000000
  70
    32
  0
VERTEX
  8
0
  5
13E7
 10
206.343
 20
128.929
 30
0.000000
  70
    32
  0
VERTEX
  8
0
  5
13E8
 10
206.341
 20
128.932
 30
0.000000
  70
    32
  0
VERTEX
  8
0
  5
13E9
 10
206.340
 20
128.935
 30
0.000000
  70
    32
  0
VERTEX
  8
0
  5
13EA
 10
206.338
 20
128.938
 30
0.000000
  70
    32
  0
VERTEX
  8
0
  5
13EB
 10
206.336
 20
128.941
 30
0.000000
  70
    32
  0
VERTEX
  8
0
  5
13EC
 10
206.334
 20
128.944
 30
0.000000
  70
    32
  0
VERTEX
  8
0
  5
13ED
 10
206.332
 20
128.946
 30
0.000000
  70
    32
  0
VERTEX
  8
0
  5
13EE
 10
206.330
 20
128.949
 30
0.000000
  70
    32
  0
VERTEX
  8
0
  5
13EF
 10
206.328
 20
128.952
 30
0.000000
  70
    32
  0
VERTEX
  8
0
  5
13F0
 10
206.326
 20
128.954
 30
0.000000
  70
    32
  0
VERTEX
  8
0
  5
13F1
 10
206.324
 20
128.957
 30
0.000000
  70
    32
  0
VERTEX
  8
0
  5
13F2
 10
206.322
 20
128.959
 30
0.000000
  70
    32
  0
VERTEX
  8
0
  5
13F3
 10
206.321
 20
128.962
 30
0.000000
  70
    32
  0
VERTEX
  8
0
  5
13F4
 10
206.319
 20
128.964
 30
0.000000
  70
    32
  0
VERTEX
  8
0
  5
13F5
 10
206.317
 20
128.966
 30
0.000000
  70
    32
  0
VERTEX
  8
0
  5
13F6
 10
206.315
 20
128.969
 30
0.000000
  70
    32
  0
VERTEX
  8
0
  5
13F7
 10
206.313
 20
128.971
 30
0.000000
  70
    32
  0
VERTEX
  8
0
  5
13F8
 10
206.311
 20
128.973
 30
0.000000
  70
    32
  0
VERTEX
  8
0
  5
13F9
 10
206.309
 20
128.975
 30
0.000000
  70
    32
  0
VERTEX
  8
0
  5
13FA
 10
206.307
 20
128.977
 30
0.000000
  70
    32
  0
VERTEX
  8
0
  5
13FB
 10
206.305
 20
128.978
 30
0.000000
  70
    32
  0
VERTEX
  8
0
  5
13FC
 10
206.303
 20
128.980
 30
0.000000
  70
    32
  0
VERTEX
  8
0
  5
13FD
 10
206.301
 20
128.982
 30
0.000000
  70
    32
  0
VERTEX
  8
0
  5
13FE
 10
206.299
 20
128.983
 30
0.000000
  70
    32
  0
VERTEX
  8
0
  5
13FF
 10
206.296
 20
128.985
 30
0.000000
  70
    32
  0
VERTEX
  8
0
  5
1400
 10
206.294
 20
128.986
 30
0.000000
  70
    32
  0
VERTEX
  8
0
  5
1401
 10
206.292
 20
128.988
 30
0.000000
  70
    32
  0
VERTEX
  8
0
  5
1402
 10
206.290
 20
128.989
 30
0.000000
  70
    32
  0
VERTEX
  8
0
  5
1403
 10
206.288
 20
128.990
 30
0.000000
  70
    32
  0
VERTEX
  8
0
  5
1404
 10
206.286
 20
128.992
 30
0.000000
  70
    32
  0
VERTEX
  8
0
  5
1405
 10
206.284
 20
128.993
 30
0.000000
  70
    32
  0
VERTEX
  8
0
  5
1406
 10
206.282
 20
128.994
 30
0.000000
  70
    32
  0
VERTEX
  8
0
  5
1407
 10
206.280
 20
128.995
 30
0.000000
  70
    32
  0
VERTEX
  8
0
  5
1408
 10
206.278
 20
128.995
 30
0.000000
  70
    32
  0
VERTEX
  8
0
  5
1409
 10
206.276
 20
128.996
 30
0.000000
  70
    32
  0
VERTEX
  8
0
  5
140A
 10
206.274
 20
128.997
 30
0.000000
  70
    32
  0
VERTEX
  8
0
  5
140B
 10
206.271
 20
128.998
 30
0.000000
  70
    32
  0
VERTEX
  8
0
  5
140C
 10
206.269
 20
128.998
 30
0.000000
  70
    32
  0
VERTEX
  8
0
  5
140D
 10
206.267
 20
128.999
 30
0.000000
  70
    32
  0
VERTEX
  8
0
  5
140E
 10
206.265
 20
128.999
 30
0.000000
  70
    32
  0
VERTEX
  8
0
  5
140F
 10
206.263
 20
128.999
 30
0.000000
  70
    32
  0
VERTEX
  8
0
  5
1410
 10
206.261
 20
129.000
 30
0.000000
  70
    32
  0
VERTEX
  8
0
  5
1411
 10
206.259
 20
129.000
 30
0.000000
  70
    32
  0
VERTEX
  8
0
  5
1412
 10
206.257
 20
129.000
 30
0.000000
  70
    32
  0
VERTEX
  8
0
  5
1413
 10
206.255
 20
129.000
 30
0.000000
  70
    32
  0
SEQEND
  8
0
  5
1414
  0
ARC
  5
FA4
  8
0
 10
196.4602028125143
 20
129.31238916130039
 30
0.0
 40
10.0
 50
331.23365111884692
 51
355.32963180574518
  0
ARC
  5
FA5
  8
0
 10
223.53979718748559
 20
129.31238916130039
 30
0.0
 40
10.0
 50
184.67036819425479
 51
208.76634888115311
  0
POLYLINE
  5
FA6
  8
0
 10
213.57300090393417
 20
128.49815851957203
 30
0.0
 66
     1
 70
     8
  0
VERTEX
  8
0
  5
1415
 10
213.573
 20
128.498
 30
0.000000
  70
    32
  0
VERTEX
  8
0
  5
1416
 10
213.573
 20
128.504
 30
0.000000
  70
    32
  0
VERTEX
  8
0
  5
1417
 10
213.573
 20
128.510
 30
0.000000
  70
    32
  0
VERTEX
  8
0
  5
1418
 10
213.573
 20
128.517
 30
0.000000
  70
    32
  0
VERTEX
  8
0
  5
1419
 10
213.573
 20
128.523
 30
0.000000
  70
    32
  0
VERTEX
  8
0
  5
141A
 10
213.573
 20
128.529
 30
0.000000
  70
    32
  0
VERTEX
  8
0
  5
141B
 10
213.573
 20
128.535
 30
0.000000
  70
    32
  0
VERTEX
  8
0
  5
141C
 10
213.574
 20
128.541
 30
0.000000
  70
    32
  0
VERTEX
  8
0
  5
141D
 10
213.574
 20
128.547
 30
0.000000
  70
    32
  0
VERTEX
  8
0
  5
141E
 10
213.574
 20
128.553
 30
0.000000
  70
    32
  0
VERTEX
  8
0
  5
141F
 10
213.574
 20
128.560
 30
0.000000
  70
    32
  0
VERTEX
  8
0
  5
1420
 10
213.575
 20
128.566
 30
0.000000
  70
    32
  0
VERTEX
  8
0
  5
1421
 10
213.575
 20
128.572
 30
0.000000
  70
    32
  0
VERTEX
  8
0
  5
1422
 10
213.575
 20
128.578
 30
0.000000
  70
    32
  0
VERTEX
  8
0
  5
1423
 10
213.576
 20
128.584
 30
0.000000
  70
    32
  0
VERTEX
  8
0
  5
1424
 10
213.576
 20
128.590
 30
0.000000
  70
    32
  0
VERTEX
  8
0
  5
1425
 10
213.576
 20
128.596
 30
0.000000
  70
    32
  0
VERTEX
  8
0
  5
1426
 10
213.577
 20
128.602
 30
0.000000
  70
    32
  0
VERTEX
  8
0
  5
1427
 10
213.577
 20
128.608
 30
0.000000
  70
    32
  0
VERTEX
  8
0
  5
1428
 10
213.578
 20
128.614
 30
0.000000
  70
    32
  0
VERTEX
  8
0
  5
1429
 10
213.578
 20
128.620
 30
0.000000
  70
    32
  0
VERTEX
  8
0
  5
142A
 10
213.579
 20
128.626
 30
0.000000
  70
    32
  0
VERTEX
  8
0
  5
142B
 10
213.579
 20
128.632
 30
0.000000
  70
    32
  0
VERTEX
  8
0
  5
142C
 10
213.580
 20
128.638
 30
0.000000
  70
    32
  0
VERTEX
  8
0
  5
142D
 10
213.580
 20
128.644
 30
0.000000
  70
    32
  0
VERTEX
  8
0
  5
142E
 10
213.581
 20
128.650
 30
0.000000
  70
    32
  0
VERTEX
  8
0
  5
142F
 10
213.582
 20
128.656
 30
0.000000
  70
    32
  0
VERTEX
  8
0
  5
1430
 10
213.582
 20
128.661
 30
0.000000
  70
    32
  0
VERTEX
  8
0
  5
1431
 10
213.583
 20
128.667
 30
0.000000
  70
    32
  0
VERTEX
  8
0
  5
1432
 10
213.584
 20
128.673
 30
0.000000
  70
    32
  0
VERTEX
  8
0
  5
1433
 10
213.585
 20
128.679
 30
0.000000
  70
    32
  0
VERTEX
  8
0
  5
1434
 10
213.585
 20
128.685
 30
0.000000
  70
    32
  0
VERTEX
  8
0
  5
1435
 10
213.586
 20
128.690
 30
0.000000
  70
    32
  0
VERTEX
  8
0
  5
1436
 10
213.587
 20
128.696
 30
0.000000
  70
    32
  0
VERTEX
  8
0
  5
1437
 10
213.588
 20
128.702
 30
0.000000
  70
    32
  0
VERTEX
  8
0
  5
1438
 10
213.589
 20
128.707
 30
0.000000
  70
    32
  0
VERTEX
  8
0
  5
1439
 10
213.590
 20
128.713
 30
0.000000
  70
    32
  0
VERTEX
  8
0
  5
143A
 10
213.590
 20
128.718
 30
0.000000
  70
    32
  0
VERTEX
  8
0
  5
143B
 10
213.591
 20
128.724
 30
0.000000
  70
    32
  0
VERTEX
  8
0
  5
143C
 10
213.592
 20
128.729
 30
0.000000
  70
    32
  0
VERTEX
  8
0
  5
143D
 10
213.593
 20
128.735
 30
0.000000
  70
    32
  0
VERTEX
  8
0
  5
143E
 10
213.594
 20
128.740
 30
0.000000
  70
    32
  0
VERTEX
  8
0
  5
143F
 10
213.595
 20
128.746
 30
0.000000
  70
    32
  0
VERTEX
  8
0
  5
1440
 10
213.596
 20
128.751
 30
0.000000
  70
    32
  0
VERTEX
  8
0
  5
1441
 10
213.598
 20
128.756
 30
0.000000
  70
    32
  0
VERTEX
  8
0
  5
1442
 10
213.599
 20
128.761
 30
0.000000
  70
    32
  0
VERTEX
  8
0
  5
1443
 10
213.600
 20
128.767
 30
0.000000
  70
    32
  0
VERTEX
  8
0
  5
1444
 10
213.601
 20
128.772
 30
0.000000
  70
    32
  0
VERTEX
  8
0
  5
1445
 10
213.602
 20
128.777
 30
0.000000
  70
    32
  0
VERTEX
  8
0
  5
1446
 10
213.603
 20
128.782
 30
0.000000
  70
    32
  0
VERTEX
  8
0
  5
1447
 10
213.604
 20
128.787
 30
0.000000
  70
    32
  0
VERTEX
  8
0
  5
1448
 10
213.606
 20
128.792
 30
0.000000
  70
    32
  0
VERTEX
  8
0
  5
1449
 10
213.607
 20
128.797
 30
0.000000
  70
    32
  0
VERTEX
  8
0
  5
144A
 10
213.608
 20
128.802
 30
0.000000
  70
    32
  0
VERTEX
  8
0
  5
144B
 10
213.610
 20
128.807
 30
0.000000
  70
    32
  0
VERTEX
  8
0
  5
144C
 10
213.611
 20
128.812
 30
0.000000
  70
    32
  0
VERTEX
  8
0
  5
144D
 10
213.612
 20
128.817
 30
0.000000
  70
    32
  0
VERTEX
  8
0
  5
144E
 10
213.614
 20
128.821
 30
0.000000
  70
    32
  0
VERTEX
  8
0
  5
144F
 10
213.615
 20
128.826
 30
0.000000
  70
    32
  0
VERTEX
  8
0
  5
1450
 10
213.616
 20
128.831
 30
0.000000
  70
    32
  0
VERTEX
  8
0
  5
1451
 10
213.618
 20
128.835
 30
0.000000
  70
    32
  0
VERTEX
  8
0
  5
1452
 10
213.619
 20
128.840
 30
0.000000
  70
    32
  0
VERTEX
  8
0
  5
1453
 10
213.621
 20
128.844
 30
0.000000
  70
    32
  0
VERTEX
  8
0
  5
1454
 10
213.622
 20
128.849
 30
0.000000
  70
    32
  0
VERTEX
  8
0
  5
1455
 10
213.624
 20
128.853
 30
0.000000
  70
    32
  0
VERTEX
  8
0
  5
1456
 10
213.625
 20
128.857
 30
0.000000
  70
    32
  0
VERTEX
  8
0
  5
1457
 10
213.627
 20
128.862
 30
0.000000
  70
    32
  0
VERTEX
  8
0
  5
1458
 10
213.628
 20
128.866
 30
0.000000
  70
    32
  0
VERTEX
  8
0
  5
1459
 10
213.630
 20
128.870
 30
0.000000
  70
    32
  0
VERTEX
  8
0
  5
145A
 10
213.631
 20
128.874
 30
0.000000
  70
    32
  0
VERTEX
  8
0
  5
145B
 10
213.633
 20
128.878
 30
0.000000
  70
    32
  0
VERTEX
  8
0
  5
145C
 10
213.634
 20
128.882
 30
0.000000
  70
    32
  0
VERTEX
  8
0
  5
145D
 10
213.636
 20
128.886
 30
0.000000
  70
    32
  0
VERTEX
  8
0
  5
145E
 10
213.638
 20
128.890
 30
0.000000
  70
    32
  0
VERTEX
  8
0
  5
145F
 10
213.639
 20
128.894
 30
0.000000
  70
    32
  0
VERTEX
  8
0
  5
1460
 10
213.641
 20
128.898
 30
0.000000
  70
    32
  0
VERTEX
  8
0
  5
1461
 10
213.643
 20
128.901
 30
0.000000
  70
    32
  0
VERTEX
  8
0
  5
1462
 10
213.644
 20
128.905
 30
0.000000
  70
    32
  0
VERTEX
  8
0
  5
1463
 10
213.646
 20
128.908
 30
0.000000
  70
    32
  0
VERTEX
  8
0
  5
1464
 10
213.648
 20
128.912
 30
0.000000
  70
    32
  0
VERTEX
  8
0
  5
1465
 10
213.650
 20
128.915
 30
0.000000
  70
    32
  0
VERTEX
  8
0
  5
1466
 10
213.651
 20
128.919
 30
0.000000
  70
    32
  0
VERTEX
  8
0
  5
1467
 10
213.653
 20
128.922
 30
0.000000
  70
    32
  0
VERTEX
  8
0
  5
1468
 10
213.655
 20
128.925
 30
0.000000
  70
    32
  0
VERTEX
  8
0
  5
1469
 10
213.657
 20
128.929
 30
0.000000
  70
    32
  0
VERTEX
  8
0
  5
146A
 10
213.659
 20
128.932
 30
0.000000
  70
    32
  0
VERTEX
  8
0
  5
146B
 10
213.660
 20
128.935
 30
0.000000
  70
    32
  0
VERTEX
  8
0
  5
146C
 10
213.662
 20
128.938
 30
0.000000
  70
    32
  0
VERTEX
  8
0
  5
146D
 10
213.664
 20
128.941
 30
0.000000
  70
    32
  0
VERTEX
  8
0
  5
146E
 10
213.666
 20
128.944
 30
0.000000
  70
    32
  0
VERTEX
  8
0
  5
146F
 10
213.668
 20
128.946
 30
0.000000
  70
    32
  0
VERTEX
  8
0
  5
1470
 10
213.670
 20
128.949
 30
0.000000
  70
    32
  0
VERTEX
  8
0
  5
1471
 10
213.672
 20
128.952
 30
0.000000
  70
    32
  0
VERTEX
  8
0
  5
1472
 10
213.674
 20
128.954
 30
0.000000
  70
    32
  0
VERTEX
  8
0
  5
1473
 10
213.676
 20
128.957
 30
0.000000
  70
    32
  0
VERTEX
  8
0
  5
1474
 10
213.678
 20
128.959
 30
0.000000
  70
    32
  0
VERTEX
  8
0
  5
1475
 10
213.679
 20
128.962
 30
0.000000
  70
    32
  0
VERTEX
  8
0
  5
1476
 10
213.681
 20
128.964
 30
0.000000
  70
    32
  0
VERTEX
  8
0
  5
1477
 10
213.683
 20
128.966
 30
0.000000
  70
    32
  0
VERTEX
  8
0
  5
1478
 10
213.685
 20
128.969
 30
0.000000
  70
    32
  0
VERTEX
  8
0
  5
1479
 10
213.687
 20
128.971
 30
0.000000
  70
    32
  0
VERTEX
  8
0
  5
147A
 10
213.689
 20
128.973
 30
0.000000
  70
    32
  0
VERTEX
  8
0
  5
147B
 10
213.691
 20
128.975
 30
0.000000
  70
    32
  0
VERTEX
  8
0
  5
147C
 10
213.693
 20
128.977
 30
0.000000
  70
    32
  0
VERTEX
  8
0
  5
147D
 10
213.695
 20
128.978
 30
0.000000
  70
    32
  0
VERTEX
  8
0
  5
147E
 10
213.697
 20
128.980
 30
0.000000
  70
    32
  0
VERTEX
  8
0
  5
147F
 10
213.699
 20
128.982
 30
0.000000
  70
    32
  0
VERTEX
  8
0
  5
1480
 10
213.701
 20
128.983
 30
0.000000
  70
    32
  0
VERTEX
  8
0
  5
1481
 10
213.704
 20
128.985
 30
0.000000
  70
    32
  0
VERTEX
  8
0
  5
1482
 10
213.706
 20
128.986
 30
0.000000
  70
    32
  0
VERTEX
  8
0
  5
1483
 10
213.708
 20
128.988
 30
0.000000
  70
    32
  0
VERTEX
  8
0
  5
1484
 10
213.710
 20
128.989
 30
0.000000
  70
    32
  0
VERTEX
  8
0
  5
1485
 10
213.712
 20
128.990
 30
0.000000
  70
    32
  0
VERTEX
  8
0
  5
1486
 10
213.714
 20
128.992
 30
0.000000
  70
    32
  0
VERTEX
  8
0
  5
1487
 10
213.716
 20
128.993
 30
0.000000
  70
    32
  0
VERTEX
  8
0
  5
1488
 10
213.718
 20
128.994
 30
0.000000
  70
    32
  0
VERTEX
  8
0
  5
1489
 10
213.720
 20
128.995
 30
0.000000
  70
    32
  0
VERTEX
  8
0
  5
148A
 10
213.722
 20
128.995
 30
0.000000
  70
    32
  0
VERTEX
  8
0
  5
148B
 10
213.724
 20
128.996
 30
0.000000
  70
    32
  0
VERTEX
  8
0
  5
148C
 10
213.726
 20
128.997
 30
0.000000
  70
    32
  0
VERTEX
  8
0
  5
148D
 10
213.729
 20
128.998
 30
0.000000
  70
    32
  0
VERTEX
  8
0
  5
148E
 10
213.731
 20
128.998
 30
0.000000
  70
    32
  0
VERTEX
  8
0
  5
148F
 10
213.733
 20
128.999
 30
0.000000
  70
    32
  0
VERTEX
  8
0
  5
1490
 10
213.735
 20
128.999
 30
0.000000
  70
    32
  0
VERTEX
  8
0
  5
1491
 10
213.737
 20
128.999
 30
0.000000
  70
    32
  0
VERTEX
  8
0
  5
1492
 10
213.739
 20
129.000
 30
0.000000
  70
    32
  0
VERTEX
  8
0
  5
1493
 10
213.741
 20
129.000
 30
0.000000
  70
    32
  0
VERTEX
  8
0
  5
1494
 10
213.743
 20
129.000
 30
0.000000
  70
    32
  0
VERTEX
  8
0
  5
1495
 10
213.745
 20
129.000
 30
0.000000
  70
    32
  0
SEQEND
  8
0
  5
1496
  0
LINE
  5
FA7
  8
0
 10
217.0
 20
133.511515331109
 30
0.0
 11
216.5
 21
114.0
 31
0.0
  0
LINE
  5
FA8
  8
0
 10
203.0
 20
133.511515331109
 30
0.0
 11
203.5
 21
114.0
 31
0.0
  0
LINE
  5
FD2
  8
0
 10
53.99999999999995
 20
133.91820323027551
 30
0.0
 11
53.99999999999995
 21
132.79409930029621
 31
0.0
  0
LINE
  5
FD3
  8
0
 10
46.00000000000005
 20
133.91820323027559
 30
0.0
 11
46.0
 21
132.79409930029621
 31
0.0
  0
LINE
  5
FD4
  8
0
 10
52.756791613452087
 20
134.5
 30
0.0
 11
47.243208386547849
 21
134.5
 31
0.0
  0
CIRCLE
  5
FD5
  8
0
 10
120.0
 20
184.5
 30
0.0
 40
4.0
  0
ARC
  5
FD6
  8
0
 10
118.1693380939881
 20
185.55693314423129
 30
0.0
 40
0.6912500000000005
 50
309.68887794065978
 51
16.65824177277711
  0
ARC
  5
FD7
  8
0
 10
119.20999999999999
 20
185.86832013797951
 30
0.0
 40
0.3949999999999998
 50
43.341758227220929
 51
196.6582417727771
  0
ARC
  5
FD8
  8
0
 10
120.0
 20
186.6138662884625
 30
0.0
 40
0.6912499999999989
 50
223.34175822722091
 51
316.65824177277909
  0
ARC
  5
FD9
  8
0
 10
120.79000000000001
 20
185.86832013797951
 30
0.0
 40
0.3950000000000002
 50
343.3417582272229
 51
136.65824177277901
  0
ARC
  5
FDA
  8
0
 10
118.1693380939881
 20
183.44306685576879
 30
0.0
 40
0.691250000000001
 50
343.3417582272229
 51
50.311122059331687
  0
ARC
  5
FDB
  8
0
 10
119.20999999999999
 20
183.1316798620206
 30
0.0
 40
0.3950000000000001
 50
163.3417582272229
 51
316.65824177277909
  0
ARC
  5
FDC
  8
0
 10
120.0
 20
182.38613371153761
 30
0.0
 40
0.6912500000000003
 50
43.341758227220929
 51
136.65824177277489
  0
ARC
  5
FDD
  8
0
 10
120.79000000000001
 20
183.1316798620206
 30
0.0
 40
0.3949999999999998
 50
223.34175822722091
 51
16.65824177277711
  0
ARC
  5
FDE
  8
0
 10
121.830661906012
 20
183.44306685576879
 30
0.0
 40
0.6912500000000003
 50
129.68887794066831
 51
196.6582417727771
  0
ARC
  5
FDF
  8
0
 10
121.830661906012
 20
185.55693314423129
 30
0.0
 40
0.6912500000000011
 50
163.3417582272229
 51
230.3111220593442
  0
ARC
  5
FE0
  8
0
 10
49.999999999999943
 20
126.98999999999999
 30
0.0
 40
8.0
 50
60.000000000000021
 51
69.842683784424494
  0
LINE
  5
FE1
  8
0
 10
46.00000000000005
 20
133.91820323027559
 30
0.0
 11
53.99999999999995
 21
133.91820323027551
 31
0.0
  0
ARC
  5
FE2
  8
0
 10
49.999999999999943
 20
126.98999999999999
 30
0.0
 40
8.0
 50
110.15731621557551
 51
119.9999999999999
  0
LINE
  5
FE3
  8
0
 10
117.25
 20
183.97499999999999
 30
0.0
 11
118.6107830991341
 21
183.97499999999999
 31
0.0
  0
LINE
  5
FE4
  8
0
 10
117.25
 20
185.02500000000001
 30
0.0
 11
118.6107830991339
 21
185.02500000000001
 31
0.0
  0
LINE
  5
FE5
  8
0
 10
121.3892169008661
 20
185.02500000000001
 30
0.0
 11
122.75
 21
185.02500000000001
 31
0.0
  0
LINE
  5
FE6
  8
0
 10
121.389216900866
 20
183.97499999999999
 30
0.0
 11
122.75
 21
183.97500000000011
 31
0.0
  0
ARC
  5
FE7
  8
0
 10
120.0
 20
184.5
 30
0.0
 40
2.7567916134521511
 50
355.97735839170309
 51
4.0226416083006411
  0
LINE
  5
FE8
  8
0
 10
122.75
 20
185.02500000000001
 30
0.0
 11
122.75
 21
183.97500000000011
 31
0.0
  0
LINE
  5
FE9
  8
0
 10
117.25
 20
185.02500000000001
 30
0.0
 11
117.25
 21
183.97499999999999
 31
0.0
  0
ARC
  5
FEA
  8
0
 10
120.0
 20
184.5
 30
0.0
 40
2.7567916134521511
 50
10.978391329938599
 51
169.0216086700618
  0
ARC
  5
FEB
  8
0
 10
120.0
 20
184.5
 30
0.0
 40
2.7567916134521511
 50
190.9783913299382
 51
349.02160867006143
  0
ARC
  5
FEC
  8
0
 10
120.0
 20
184.5
 30
0.0
 40
2.7567916134521511
 50
175.97735839169621
 51
184.02264160830379
  0
ARC
  5
FED
  8
0
 10
120.0
 20
126.98999999999999
 30
0.0
 40
8.0
 50
110.15731621557551
 51
119.9999999999999
  0
LINE
  5
FEE
  8
0
 10
116.0000000000001
 20
133.91820323027559
 30
0.0
 11
120.970272279854
 21
133.91820323027551
 31
0.0
  0
ARC
  5
FEF
  8
0
 10
120.0
 20
126.98999999999999
 30
0.0
 40
8.0
 50
69.728484327266543
 51
69.842683784424494
  0
LINE
  5
FF0
  8
0
 10
122.75679161345209
 20
134.5
 30
0.0
 11
117.24320838654781
 21
134.5
 31
0.0
  0
LINE
  5
FF1
  8
0
 10
116.0000000000001
 20
133.91820323027559
 30
0.0
 11
116.0
 21
132.1965926117548
 31
0.0
  0
POLYLINE
  5
FF2
  8
0
 66
     1
 10
0.0
 20
0.0
 30
0.0
 70
     1
  0
VERTEX
  5
FF3
  8
0
 10
54.705500204431871
 20
133.68560386147499
 30
0.0
 42
0.2172434185878571
  0
VERTEX
  5
FF4
  8
0
 10
54.463387567332347
 20
134.2165433132154
 30
0.0
 42
0.0927145054771177
  0
VERTEX
  5
FF5
  8
0
 10
53.327291103428479
 20
134.88253435468181
 30
0.0
 42
0.0493901968537925
 70
     2
 50
160.21475784141541
  0
VERTEX
  5
FF6
  8
0
 10
51.924218028390783
 20
135.23574664235019
 30
0.0
 42
0.0369961751365321
 50
160.21475784141541
  0
VERTEX
  5
FF7
  8
0
 10
50.0
 20
135.37831919818589
 30
0.0
 42
0.0369961751365343
  0
VERTEX
  5
FF8
  8
0
 10
48.075781971609267
 20
135.23574664235019
 30
0.0
 42
0.049390196853802
  0
VERTEX
  5
FF9
  8
0
 10
46.672708896571457
 20
134.88253435468181
 30
0.0
 42
0.0927145054771286
 70
     2
 50
199.78524215858459
  0
VERTEX
  5
FFA
  8
0
 10
45.536612432667589
 20
134.2165433132154
 30
0.0
 42
0.2172434185878735
 50
199.78524215858459
  0
VERTEX
  5
FFB
  8
0
 10
45.294499795568072
 20
133.68560386147499
 30
0.0
 42
0.2172434185878687
  0
VERTEX
  5
FFC
  8
0
 10
45.536612432667589
 20
133.15466440973461
 30
0.0
 42
0.0927145054771203
  0
VERTEX
  5
FFD
  8
0
 10
46.672708896571457
 20
132.48867336826819
 30
0.0
 42
0.0493901968538118
 70
     2
 50
340.21475784141541
  0
VERTEX
  5
FFE
  8
0
 10
48.075781971609331
 20
132.13546108059981
 30
0.0
 42
0.0369961751365391
 50
340.21475784141541
  0
VERTEX
  5
FFF
  8
0
 10
50.0
 20
131.992888524764
 30
0.0
 42
0.0369961751365416
  0
VERTEX
  5
1000
  8
0
 10
51.924218028390669
 20
132.13546108059981
 30
0.0
 42
0.0493901968538115
  0
VERTEX
  5
1001
  8
0
 10
53.327291103428479
 20
132.48867336826819
 30
0.0
 42
0.092714505477122
 70
     2
 50
19.78524215858458
  0
VERTEX
  5
1002
  8
0
 10
54.463387567332347
 20
133.15466440973461
 30
0.0
 42
0.2172434185878745
 50
19.78524215858458
  0
SEQEND
  5
1003
  8
0
  0
LINE
  5
1008
  8
3
 10
47.541499999999921
 20
108.0
 30
0.0
 11
47.541499999999921
 21
100.4585000000001
 31
0.0
  0
LINE
  5
1009
  8
3
 10
52.458500000000072
 20
108.0
 30
0.0
 11
52.458500000000072
 21
100.4585000000001
 31
0.0
  0
LINE
  5
100A
  8
0
 10
53.0
 20
110.0
 30
0.0
 11
53.0
 21
101.0
 31
0.0
  0
LINE
  5
100B
  8
0
 10
47.0
 20
110.0
 30
0.0
 11
47.0
 21
101.0
 31
0.0
  0
LINE
  5
100C
  8
0
 10
47.0
 20
101.0
 30
0.0
 11
53.0
 21
101.0
 31
0.0
  0
LINE
  5
100D
  8
0
 10
52.0
 20
100.0
 30
0.0
 11
48.0
 21
100.0
 31
0.0
  0
LINE
  5
100E
  8
0
 10
48.0
 20
100.0
 30
0.0
 11
47.0
 21
101.0
 31
0.0
  0
LINE
  5
100F
  8
0
 10
53.0
 20
101.0
 30
0.0
 11
52.0
 21
100.0
 31
0.0
  0
LINE
  5
1010
  8
0
 10
47.0
 20
108.0
 30
0.0
 11
53.0
 21
108.0
 31
0.0
  0
LINE
  5
1011
  8
3
 10
47.541499999999978
 20
108.0
 30
0.0
 11
47.00000000000005
 21
108.9379055122984
 31
0.0
  0
LINE
  5
1012
  8
3
 10
52.458500000000072
 20
108.0
 30
0.0
 11
53.0
 21
108.9379055122984
 31
0.0
  0
LINE
  5
1013
  8
3
 10
117.5414999999999
 20
108.0
 30
0.0
 11
117.5414999999999
 21
100.4585000000001
 31
0.0
  0
LINE
  5
1014
  8
3
 10
122.4585
 20
108.0
 30
0.0
 11
122.4585
 21
100.4585000000001
 31
0.0
  0
LINE
  5
1015
  8
0
 10
123.0
 20
110.0
 30
0.0
 11
123.0
 21
101.0
 31
0.0
  0
LINE
  5
1016
  8
0
 10
117.0
 20
110.0
 30
0.0
 11
117.0
 21
101.0
 31
0.0
  0
LINE
  5
1017
  8
0
 10
117.0
 20
101.0
 30
0.0
 11
123.0
 21
101.0
 31
0.0
  0
LINE
  5
1018
  8
0
 10
122.0
 20
100.0
 30
0.0
 11
118.0
 21
100.0
 31
0.0
  0
LINE
  5
1019
  8
0
 10
118.0
 20
100.0
 30
0.0
 11
117.0
 21
101.0
 31
0.0
  0
LINE
  5
101A
  8
0
 10
123.0
 20
101.0
 30
0.0
 11
122.0
 21
100.0
 31
0.0
  0
LINE
  5
101B
  8
0
 10
117.0
 20
108.0
 30
0.0
 11
123.0
 21
108.0
 31
0.0
  0
LINE
  5
101C
  8
3
 10
117.5415
 20
108.0
 30
0.0
 11
117.0
 21
108.9379055122984
 31
0.0
  0
LINE
  5
101D
  8
3
 10
122.4585
 20
108.0
 30
0.0
 11
123.0
 21
108.9379055122984
 31
0.0
  0
LINE
  5
101E
  8
3
 10
207.5414999999999
 20
108.0
 30
0.0
 11
207.5414999999999
 21
100.4585000000001
 31
0.0
  0
LINE
  5
101F
  8
3
 10
212.4585000000001
 20
108.0
 30
0.0
 11
212.4585000000001
 21
100.4585000000001
 31
0.0
  0
LINE
  5
1020
  8
0
 10
213.0
 20
110.0
 30
0.0
 11
213.0
 21
101.0
 31
0.0
  0
LINE
  5
1021
  8
0
 10
207.0
 20
110.0
 30
0.0
 11
207.0
 21
101.0
 31
0.0
  0
LINE
  5
1022
  8
0
 10
207.0
 20
101.0
 30
0.0
 11
213.0
 21
101.0
 31
0.0
  0
LINE
  5
1023
  8
0
 10
212.0
 20
100.0
 30
0.0
 11
208.0
 21
100.0
 31
0.0
  0
LINE
  5
1024
  8
0
 10
208.0
 20
100.0
 30
0.0
 11
207.0
 21
101.0
 31
0.0
  0
LINE
  5
1025
  8
0
 10
213.0
 20
101.0
 30
0.0
 11
212.0
 21
100.0
 31
0.0
  0
LINE
  5
1026
  8
0
 10
207.0
 20
108.0
 30
0.0
 11
213.0
 21
108.0
 31
0.0
  0
LINE
  5
1027
  8
3
 10
207.5414999999999
 20
108.0
 30
0.0
 11
207.00000000000011
 21
108.9379055122984
 31
0.0
  0
LINE
  5
1028
  8
3
 10
212.4585000000001
 20
108.0
 30
0.0
 11
213.0
 21
108.9379055122984
 31
0.0
  0
CIRCLE
  5
1030
  8
3
 10
120.0
 20
50.0
 30
0.0
 40
2.458500000000015
  0
CIRCLE
  5
1031
  8
0
 10
120.0
 20
50.0
 30
0.0
 40
3.0
  0
ENDSEC
  0
EOF
