  0
SECTION
  2
HEADER
  9
$ACADVER
  1
AC1009
  9
$INSBASE
 10
0.0
 20
0.0
 30
0.0
  9
$EXTMIN
 10
0.0
 20
-2.960436562073669
 30
0.0
  9
$EXTMAX
 10
251.22472198496371
 20
227.0428520699013
 30
0.0
  9
$LIMMIN
 10
0.0
 20
0.0
  9
$LIMMAX
 10
187.5
 20
135.0
  9
$ORTHOMODE
 70
     0
  9
$REGENMODE
 70
     1
  9
$FILLMODE
 70
     1
  9
$QTEXTMODE
 70
     0
  9
$MIRRTEXT
 70
     0
  9
$DRAGMODE
 70
     2
  9
$LTSCALE
 40
5.0
  9
$OSMODE
 70
    55
  9
$ATTMODE
 70
     1
  9
$TEXTSIZE
 40
4.0
  9
$TRACEWID
 40
0.05
  9
$TEXTSTYLE
  7
STANDARD
  9
$CLAYER
  8
0
  9
$CELTYPE
  6
BYLAYER
  9
$CECOLOR
 62
   256
  9
$DIMSCALE
 40
0.5
  9
$DIMASZ
 40
3.0
  9
$DIMEXO
 40
2.0
  9
$DIMDLI
 40
0.38
  9
$DIMRND
 40
0.0
  9
$DIMDLE
 40
0.0
  9
$DIMEXE
 40
2.0
  9
$DIMTP
 40
0.0
  9
$DIMTM
 40
0.0
  9
$DIMTXT
 40
3.0
  9
$DIMCEN
 40
0.0
  9
$DIMTSZ
 40
0.0
  9
$DIMTOL
 70
     0
  9
$DIMLIM
 70
     0
  9
$DIMTIH
 70
     0
  9
$DIMTOH
 70
     0
  9
$DIMSE1
 70
     0
  9
$DIMSE2
 70
     0
  9
$DIMTAD
 70
     1
  9
$DIMZIN
 70
     0
  9
$DIMBLK
  1

  9
$DIMASO
 70
     0
  9
$DIMSHO
 70
     0
  9
$DIMPOST
  1

  9
$DIMAPOST
  1

  9
$DIMALT
 70
     0
  9
$DIMALTD
 70
     2
  9
$DIMALTF
 40
25.399999999999999
  9
$DIMLFAC
 40
1.0
  9
$DIMTOFL
 70
     0
  9
$DIMTVP
 40
1.6000000000000001
  9
$DIMTIX
 70
     1
  9
$DIMSOXD
 70
     0
  9
$DIMSAH
 70
     0
  9
$DIMBLK1
  1

  9
$DIMBLK2
  1

  9
$DIMSTYLE
  2
STANDARD
  9
$DIMCLRD
 70
     0
  9
$DIMCLRE
 70
     0
  9
$DIMCLRT
 70
     0
  9
$DIMTFAC
 40
1.0
  9
$DIMGAP
 40
0.09
  9
$LUNITS
 70
     2
  9
$LUPREC
 70
     4
  9
$SKETCHINC
 40
0.1
  9
$FILLETRAD
 40
1.25
  9
$AUNITS
 70
     0
  9
$AUPREC
 70
     0
  9
$MENU
  1
E:\r13\win\SUPPORT\ACAD
  9
$ELEVATION
 40
0.0
  9
$PELEVATION
 40
0.0
  9
$THICKNESS
 40
0.0
  9
$LIMCHECK
 70
     0
  9
$BLIPMODE
 70
     0
  9
$CHAMFERA
 40
0.0
  9
$CHAMFERB
 40
0.0
  9
$SKPOLY
 70
     0
  9
$TDCREATE
 40
2449840.6143865739
  9
$TDUPDATE
 40
2456598.656310752
  9
$TDINDWG
 40
0.2472459144
  9
$TDUSRTIMER
 40
0.2472459144
  9
$USRTIMER
 70
     1
  9
$ANGBASE
 50
0.0
  9
$ANGDIR
 70
     0
  9
$PDMODE
 70
     0
  9
$PDSIZE
 40
0.0
  9
$PLINEWID
 40
0.0
  9
$COORDS
 70
     1
  9
$SPLFRAME
 70
     0
  9
$SPLINETYPE
 70
     6
  9
$SPLINESEGS
 70
     8
  9
$ATTDIA
 70
     0
  9
$ATTREQ
 70
     1
  9
$HANDLING
 70
     1
  9
$HANDSEED
  5
1142
  9
$SURFTAB1
 70
     6
  9
$SURFTAB2
 70
     6
  9
$SURFTYPE
 70
     6
  9
$SURFU
 70
     6
  9
$SURFV
 70
     6
  9
$UCSNAME
  2

  9
$UCSORG
 10
0.0
 20
0.0
 30
0.0
  9
$UCSXDIR
 10
1.0
 20
0.0
 30
0.0
  9
$UCSYDIR
 10
0.0
 20
1.0
 30
0.0
  9
$PUCSNAME
  2

  9
$PUCSORG
 10
0.0
 20
0.0
 30
0.0
  9
$PUCSXDIR
 10
1.0
 20
0.0
 30
0.0
  9
$PUCSYDIR
 10
0.0
 20
1.0
 30
0.0
  9
$USERI1
 70
     0
  9
$USERI2
 70
     1
  9
$USERI3
 70
     1
  9
$USERI4
 70
     0
  9
$USERI5
 70
     0
  9
$USERR1
 40
0.0
  9
$USERR2
 40
0.0
  9
$USERR3
 40
0.0
  9
$USERR4
 40
0.0
  9
$USERR5
 40
0.0
  9
$WORLDVIEW
 70
     1
  9
$SHADEDGE
 70
     3
  9
$SHADEDIF
 70
    70
  9
$TILEMODE
 70
     1
  9
$MAXACTVP
 70
    16
  9
$PLIMCHECK
 70
     0
  9
$PEXTMIN
 10
1.0000000000000000E+020
 20
1.0000000000000000E+020
 30
1.0000000000000000E+020
  9
$PEXTMAX
 10
-1.0000000000000000E+020
 20
-1.0000000000000000E+020
 30
-1.0000000000000000E+020
  9
$PLIMMIN
 10
0.0
 20
0.0
  9
$PLIMMAX
 10
12.0
 20
9.0
  9
$UNITMODE
 70
     0
  9
$VISRETAIN
 70
     0
  9
$PLINEGEN
 70
     0
  9
$PSLTSCALE
 70
     0
  0
ENDSEC
  0
SECTION
  2
TABLES
  0
TABLE
  2
VPORT
 70
     1
  0
VPORT
  2
*ACTIVE
 70
     0
 10
0.0
 20
0.0
 11
1.0
 21
1.0
 12
125.61236157741
 22
146.92902549920299
 13
0.0
 23
0.0
 14
5.0
 24
5.0
 15
5.0
 25
5.0
 16
0.0
 26
0.0
 36
1.0
 17
0.0
 27
0.0
 37
0.0
 40
302.43992373058649
 41
1.7807262569832401
 42
50.0
 43
0.0
 44
0.0
 50
0.0
 51
0.0
 71
     0
 72
   100
 73
     1
 74
     0
 75
     0
 76
     0
 77
     0
 78
     0
  0
ENDTAB
  0
TABLE
  2
LTYPE
 70
     3
  0
LTYPE
  2
CONTINUOUS
 70
     0
  3
Solid Line
 72
    65
 73
     0
 40
0.0
  0
LTYPE
  2
CENTER
 70
     0
  3
____ _ ____ _ ____ _ ____ _ ____ _ ____ _ ____
 72
    65
 73
     4
 40
2.0
 49
1.25
 49
-0.25
 49
0.25
 49
-0.25
  0
LTYPE
  2
PHANTOM2
 70
     0
  3
___ _ _ ___ _ _ ___ _ _ ___ _ _
 72
    65
 73
     6
 40
1.25
 49
0.625
 49
-0.125
 49
0.125
 49
-0.125
 49
0.125
 49
-0.125
  0
ENDTAB
  0
TABLE
  2
LAYER
 70
     3
  0
LAYER
  2
0
 70
     0
 62
     7
  6
CONTINUOUS
  0
LAYER
  2
1
 70
     0
 62
     1
  6
CENTER
  0
LAYER
  2
3
 70
     0
 62
     3
  6
CONTINUOUS
  0
ENDTAB
  0
TABLE
  2
STYLE
 70
     2
  0
STYLE
  2
STANDARD
 70
     0
 40
0.0
 41
1.0
 50
0.0
 71
     0
 42
4.0
  3
TXT
  4
BIGFONT
  0
STYLE
  2
STANDARD1
 70
     0
 40
0.0
 41
1.0
 50
0.0
 71
     0
 42
3.0
  3
txt
  4

  0
ENDTAB
  0
TABLE
  2
VIEW
 70
     1
  0
VIEW
  2
ALL
 70
     0
 40
179.66152299999999
 10
141.903918
 20
89.830760999999995
 41
0.0
 11
0.0
 21
0.0
 31
1.0
 12
0.0
 22
0.0
 32
0.0
 42
0.0
 43
0.0
 44
0.0
 50
0.0
 71
     0
  0
ENDTAB
  0
TABLE
  2
UCS
 70
     0
  0
ENDTAB
  0
TABLE
  2
APPID
 70
     4
  0
APPID
  2
ACAD
 70
     0
  0
APPID
  2
DCO15
 70
     0
  0
APPID
  2
ACAD_MLEADERVER
 70
     0
  0
APPID
  2
ACAD_NAV_VCDISPLAY
 70
     0
  0
ENDTAB
  0
TABLE
  2
DIMSTYLE
 70
     1
  0
DIMSTYLE
  2
STANDARD
 70
     0
  3

  4

  5

  6

  7

 40
1.0
 41
0.18
 42
0.0625
 43
0.38
 44
0.18
 45
0.0
 46
0.0
 47
0.0
 48
0.0
140
0.18
141
0.09
142
0.0
143
25.399999999999999
144
1.0
145
0.0
146
1.0
147
0.09
 71
     0
 72
     0
 73
     1
 74
     1
 75
     0
 76
     0
 77
     0
 78
     0
170
     0
171
     2
172
     0
173
     0
174
     0
175
     0
176
     0
177
     0
178
     0
  0
ENDTAB
  0
ENDSEC
  0
SECTION
  2
BLOCKS
  0
BLOCK
  8
0
  2
$MODEL_SPACE
 70
     0
 10
0.0
 20
0.0
 30
0.0
  3
$MODEL_SPACE
  1

  0
ENDBLK
  5
1BD
  8
0
  0
BLOCK
 67
     1
  8
0
  2
$PAPER_SPACE
 70
     0
 10
0.0
 20
0.0
 30
0.0
  3
$PAPER_SPACE
  1

  0
ENDBLK
  5
1BB
 67
     1
  8
0
  0
ENDSEC
  0
SECTION
  2
ENTITIES
  0
LINE
  5
502
  8
0
 10
100.5269466189486
 20
137.97893375426929
 30
0.0
 11
100.5269466189486
 21
141.97893375426929
 31
0.0
  0
LINE
  5
503
  8
0
 10
90.526946618948642
 20
141.97893375426929
 30
0.0
 11
90.526946618948642
 21
137.97893375426929
 31
0.0
  0
LINE
  5
50B
  8
0
 10
90.526946618948642
 20
137.97893375426929
 30
0.0
 11
100.5269466189486
 21
137.97893375426929
 31
0.0
  0
LINE
  5
511
  8
1
 10
95.526946618948642
 20
173.84597517328541
 30
0.0
 11
95.526946618948656
 21
82.97893375426932
 31
0.0
  0
LINE
  5
512
  8
0
 10
98.872006725823184
 20
168.97893375426941
 30
0.0
 11
92.181886512074115
 21
168.97893375426941
 31
0.0
  0
LINE
  5
52F
  8
0
 10
102.0269466189486
 20
141.97893375426929
 30
0.0
 11
89.026946618948642
 21
141.97893375426929
 31
0.0
  0
LINE
  5
535
  8
0
 10
160.09150045066221
 20
137.97893375426929
 30
0.0
 11
160.09150045066221
 21
141.97893375426929
 31
0.0
  0
LINE
  5
536
  8
0
 10
150.0915004506621
 20
141.97893375426929
 30
0.0
 11
150.0915004506621
 21
137.97893375426929
 31
0.0
  0
LINE
  5
53E
  8
0
 10
150.0915004506621
 20
137.97893375426929
 30
0.0
 11
160.09150045066221
 21
137.97893375426929
 31
0.0
  0
LINE
  5
544
  8
0
 10
195.09150045066221
 20
165.60361108858899
 30
0.0
 11
195.09150045066221
 21
166.47583628757869
 31
0.0
  0
LINE
  5
545
  8
0
 10
148.58150045066219
 20
156.8105904764455
 30
0.0
 11
148.58150045066219
 21
141.97893375426929
 31
0.0
  0
LINE
  5
546
  8
0
 10
161.58150045066219
 20
141.97893375426929
 30
0.0
 11
161.58150045066219
 21
152.44325728148911
 31
0.0
  0
LINE
  5
549
  8
0
 10
190.39550780420481
 20
160.0920579004752
 30
0.0
 11
180.72914811194289
 21
157.3567538189765
 31
0.0
  0
LINE
  5
554
  8
0
 10
178.00634564153719
 20
156.97893375426941
 30
0.0
 11
173.04072175157961
 21
156.97893375426941
 31
0.0
  0
LINE
  5
555
  8
0
 10
161.58150045066219
 20
141.97893375426929
 30
0.0
 11
148.58150045066219
 21
141.97893375426929
 31
0.0
  0
LINE
  5
55A
  8
1
 10
155.09150045066221
 20
168.15893375426941
 30
0.0
 11
155.09150045066229
 21
82.978933754269349
 31
0.0
  0
LINE
  5
55E
  8
0
 10
248.1705565257457
 20
157.02244809500601
 30
0.0
 11
247.7604641883805
 21
160.1572696990028
 31
0.0
  0
LINE
  5
55F
  8
0
 10
248.30623501609131
 20
167.0694846764832
 30
0.0
 11
248.30623501609131
 21
156.97893375426941
 31
0.0
  0
LINE
  5
561
  8
0
 10
240.14320895383631
 20
167.0694846764832
 30
0.0
 11
240.14320895383631
 21
156.97893375426941
 31
0.0
  0
LINE
  5
563
  8
1
 10
244.22472198496379
 20
173.84597517328541
 30
0.0
 11
244.22472198496379
 21
82.97893375426932
 31
0.0
  0
LINE
  5
564
  8
0
 10
249.22472198496371
 20
137.97893375426929
 30
0.0
 11
249.22472198496371
 21
141.97893375426929
 31
0.0
  0
LINE
  5
565
  8
0
 10
239.22472198496379
 20
141.97893375426929
 30
0.0
 11
239.22472198496379
 21
137.97893375426929
 31
0.0
  0
LINE
  5
56A
  8
0
 10
239.22472198496379
 20
137.97893375426929
 30
0.0
 11
249.22472198496371
 21
137.97893375426929
 31
0.0
  0
LINE
  5
574
  8
0
 10
250.72472198496379
 20
141.97893375426929
 30
0.0
 11
237.72472198496379
 21
141.97893375426929
 31
0.0
  0
LINE
  5
575
  8
0
 10
240.31792533067761
 20
157.32086091282929
 30
0.0
 11
248.13151863925
 21
157.32086091282929
 31
0.0
  0
LINE
  5
576
  8
0
 10
248.30965730694621
 20
156.97893375426941
 30
0.0
 11
240.14320895383631
 21
156.9789337542681
 31
0.0
  0
LINE
  5
583
  8
0
 10
247.56978209183831
 20
168.97893375426941
 30
0.0
 11
240.86066984712491
 21
168.97893375426941
 31
0.0
  0
LINE
  5
586
  8
0
 10
240.688979781547
 20
160.1572696990028
 30
0.0
 11
247.7604641883805
 21
160.1572696990028
 31
0.0
  0
LINE
  5
587
  8
0
 10
240.72472198496371
 20
168.79456750125681
 30
0.0
 11
240.72472198496371
 21
160.5205574349425
 31
0.0
  0
LINE
  5
591
  8
0
 10
247.72472198496379
 20
168.79456750125681
 30
0.0
 11
247.72472198496379
 21
160.5205574349425
 31
0.0
  0
LINE
  5
59A
  8
0
 10
148.59150045066221
 20
212.46993543697269
 30
0.0
 11
148.59150045066221
 21
217.61576870282971
 31
0.0
  0
CIRCLE
  5
5B6
  8
0
 10
155.09150045066221
 20
44.990997301702151
 30
0.0
 40
6.5000000000000027
  0
LINE
  5
5C6
  8
1
 10
155.1015004506622
 20
227.0428520699013
 30
0.0
 11
155.1015004506622
 21
203.04285206990119
 31
0.0
  0
LINE
  5
5C7
  8
1
 10
200.1015034674075
 20
215.04285206990119
 30
0.0
 11
143.59150045066221
 21
215.04285206990119
 31
0.0
  0
LINE
  5
5CB
  8
1
 10
155.1015004506622
 20
56.99049640446384
 30
0.0
 11
155.1015004506622
 21
32.991498198940491
 31
0.0
  0
CIRCLE
  5
5CD
  8
0
 10
155.1015004506622
 20
44.990997301702151
 30
0.0
 40
4.989999999999994
  0
LINE
  5
5E5
  8
1
 10
143.59150045066221
 20
44.990997301702151
 30
0.0
 11
200.1015034674075
 21
44.990997301702151
 31
0.0
  0
ARC
  5
62F
  8
0
 10
155.1015004506622
 20
215.04285206990119
 30
0.0
 40
7.0
 50
201.56518501524261
 51
308.53132429037919
  0
ARC
  5
630
  8
0
 10
155.1015004506622
 20
215.04285206990119
 30
0.0
 40
7.0
 50
51.468675709620783
 51
158.43481498475739
  0
ARC
  5
633
  8
0
 10
191.6015004506622
 20
215.04285206990119
 30
0.0
 40
3.5
 50
270.0
 51
90.0
  0
LINE
  5
636
  8
0
 10
175.89252120663531
 20
219.1243651010287
 30
0.0
 11
191.73044566112981
 21
218.54047599661169
 31
0.0
  0
LINE
  5
637
  8
0
 10
175.89252120663531
 20
210.9613390387737
 30
0.0
 11
191.6015004506622
 21
211.54285206990119
 31
0.0
  0
CIRCLE
  5
642
  8
0
 10
155.38387832309729
 20
215.04285206990119
 30
0.0
 40
4.6971000970094821
  0
ARC
  5
6CE
  8
0
 10
170.13723357836079
 20
248.55515702947159
 30
0.0
 40
30.0
 50
249.1551953734386
 51
281.16030063920113
  0
ARC
  5
6D0
  8
0
 10
170.13723357836079
 20
181.5305471103309
 30
0.0
 40
30.0
 50
78.839699360798974
 51
110.8448046265614
  0
LINE
  5
6E7
  8
0
 10
175.89252120663531
 20
49.072510332829687
 30
0.0
 11
191.73044566112969
 21
48.488621228412619
 31
0.0
  0
ARC
  5
6E8
  8
0
 10
191.6015004506622
 20
44.990997301702151
 30
0.0
 40
3.5
 50
270.0
 51
90.0
  0
ARC
  5
6E9
  8
0
 10
170.13723357836079
 20
78.503302261272523
 30
0.0
 40
30.0
 50
249.1551953734386
 51
281.16030063920113
  0
LINE
  5
6EA
  8
0
 10
175.89252120663531
 20
40.909484270574659
 30
0.0
 11
191.6015004506622
 21
41.490997301702151
 31
0.0
  0
ARC
  5
6EB
  8
0
 10
170.13723357836079
 20
11.478692342131829
 30
0.0
 40
30.0
 50
78.839699360798974
 51
110.8448046265614
  0
ARC
  5
6EC
  8
0
 10
155.1015004506622
 20
44.990997301702151
 30
0.0
 40
7.0
 50
201.56518501524261
 51
308.53132429037919
  0
ARC
  5
6ED
  8
0
 10
155.1015004506622
 20
44.990997301702151
 30
0.0
 40
7.0
 50
51.468675709620783
 51
158.43481498475739
  0
LINE
  5
6EE
  8
0
 10
148.59150045066221
 20
42.418080668773683
 30
0.0
 11
148.59150045066221
 21
47.563913934630641
 31
0.0
  0
ARC
  5
6F3
  8
0
 10
202.66449413348309
 20
19.3201880838287
 30
0.0
 40
150.0
 50
93.915861512303536
 51
110.1986696099367
  0
ARC
  5
701
  8
0
 10
192.59150045066221
 20
166.47583628757869
 30
0.0
 40
2.5
 50
0.0
 51
93.915861512302882
  0
ARC
  5
702
  8
0
 10
152.08150045066219
 20
156.8105904764455
 30
0.0
 40
3.5
 50
110.198669609936
 51
180.0
  0
LINE
  5
703
  8
0
 10
101.0114148534774
 20
160.09534411722481
 30
0.0
 11
97.291479071160012
 21
160.09534411722481
 31
0.0
  0
LINE
  5
713
  8
0
 10
90.042478384419823
 20
160.09534411722481
 30
0.0
 11
93.762414166737258
 21
160.09534411722481
 31
0.0
  0
LINE
  5
716
  8
0
 10
99.611881940931113
 20
167.03667721223599
 30
0.0
 11
99.611881940931113
 21
164.56552388173759
 31
0.0
  0
ARC
  5
719
  8
0
 10
189.10259992332141
 20
165.9511012704759
 30
0.0
 40
6.0
 50
282.44396201272468
 51
356.51437909834618
  0
ARC
  5
71E
  8
0
 10
178.00634564153719
 20
166.97893375426929
 30
0.0
 40
10.0
 50
270.0
 51
285.80000000000001
  0
ARC
  5
726
  8
0
 10
191.92873350295159
 20
100.6837610892924
 30
0.0
 40
60.0
 50
112.1950152906777
 51
120.38362357021521
  0
ARC
  5
728
  8
0
 10
173.04072175157961
 20
146.97893375426929
 30
0.0
 40
10.0
 50
90.0
 51
112.1950152906778
  0
LINE
  5
72C
  8
0
 10
102.0269466189486
 20
141.97893375426929
 30
0.0
 11
102.5269466189486
 21
161.57633126244249
 31
0.0
  0
POLYLINE
  5
72D
  8
0
 10
101.01141485347746
 20
160.09534411722478
 30
0.0
 66
     1
 70
     8
  0
VERTEX
  8
0
  5
EB8
 10
101.011
 20
160.095
 30
0.000000
  70
    32
  0
VERTEX
  8
0
  5
EB9
 10
101.056
 20
160.115
 30
0.000000
  70
    32
  0
VERTEX
  8
0
  5
EBA
 10
101.099
 20
160.134
 30
0.000000
  70
    32
  0
VERTEX
  8
0
  5
EBB
 10
101.142
 20
160.153
 30
0.000000
  70
    32
  0
VERTEX
  8
0
  5
EBC
 10
101.185
 20
160.173
 30
0.000000
  70
    32
  0
VERTEX
  8
0
  5
EBD
 10
101.227
 20
160.193
 30
0.000000
  70
    32
  0
VERTEX
  8
0
  5
EBE
 10
101.268
 20
160.213
 30
0.000000
  70
    32
  0
VERTEX
  8
0
  5
EBF
 10
101.309
 20
160.233
 30
0.000000
  70
    32
  0
VERTEX
  8
0
  5
EC0
 10
101.349
 20
160.253
 30
0.000000
  70
    32
  0
VERTEX
  8
0
  5
EC1
 10
101.388
 20
160.273
 30
0.000000
  70
    32
  0
VERTEX
  8
0
  5
EC2
 10
101.427
 20
160.294
 30
0.000000
  70
    32
  0
VERTEX
  8
0
  5
EC3
 10
101.465
 20
160.315
 30
0.000000
  70
    32
  0
VERTEX
  8
0
  5
EC4
 10
101.503
 20
160.335
 30
0.000000
  70
    32
  0
VERTEX
  8
0
  5
EC5
 10
101.540
 20
160.356
 30
0.000000
  70
    32
  0
VERTEX
  8
0
  5
EC6
 10
101.576
 20
160.377
 30
0.000000
  70
    32
  0
VERTEX
  8
0
  5
EC7
 10
101.612
 20
160.398
 30
0.000000
  70
    32
  0
VERTEX
  8
0
  5
EC8
 10
101.647
 20
160.420
 30
0.000000
  70
    32
  0
VERTEX
  8
0
  5
EC9
 10
101.682
 20
160.441
 30
0.000000
  70
    32
  0
VERTEX
  8
0
  5
ECA
 10
101.715
 20
160.462
 30
0.000000
  70
    32
  0
VERTEX
  8
0
  5
ECB
 10
101.749
 20
160.484
 30
0.000000
  70
    32
  0
VERTEX
  8
0
  5
ECC
 10
101.781
 20
160.506
 30
0.000000
  70
    32
  0
VERTEX
  8
0
  5
ECD
 10
101.813
 20
160.528
 30
0.000000
  70
    32
  0
VERTEX
  8
0
  5
ECE
 10
101.844
 20
160.550
 30
0.000000
  70
    32
  0
VERTEX
  8
0
  5
ECF
 10
101.875
 20
160.572
 30
0.000000
  70
    32
  0
VERTEX
  8
0
  5
ED0
 10
101.905
 20
160.594
 30
0.000000
  70
    32
  0
VERTEX
  8
0
  5
ED1
 10
101.934
 20
160.616
 30
0.000000
  70
    32
  0
VERTEX
  8
0
  5
ED2
 10
101.962
 20
160.639
 30
0.000000
  70
    32
  0
VERTEX
  8
0
  5
ED3
 10
101.990
 20
160.661
 30
0.000000
  70
    32
  0
VERTEX
  8
0
  5
ED4
 10
102.017
 20
160.684
 30
0.000000
  70
    32
  0
VERTEX
  8
0
  5
ED5
 10
102.044
 20
160.706
 30
0.000000
  70
    32
  0
VERTEX
  8
0
  5
ED6
 10
102.070
 20
160.729
 30
0.000000
  70
    32
  0
VERTEX
  8
0
  5
ED7
 10
102.095
 20
160.752
 30
0.000000
  70
    32
  0
VERTEX
  8
0
  5
ED8
 10
102.119
 20
160.775
 30
0.000000
  70
    32
  0
VERTEX
  8
0
  5
ED9
 10
102.143
 20
160.798
 30
0.000000
  70
    32
  0
VERTEX
  8
0
  5
EDA
 10
102.166
 20
160.821
 30
0.000000
  70
    32
  0
VERTEX
  8
0
  5
EDB
 10
102.188
 20
160.844
 30
0.000000
  70
    32
  0
VERTEX
  8
0
  5
EDC
 10
102.210
 20
160.867
 30
0.000000
  70
    32
  0
VERTEX
  8
0
  5
EDD
 10
102.231
 20
160.891
 30
0.000000
  70
    32
  0
VERTEX
  8
0
  5
EDE
 10
102.251
 20
160.914
 30
0.000000
  70
    32
  0
VERTEX
  8
0
  5
EDF
 10
102.271
 20
160.937
 30
0.000000
  70
    32
  0
VERTEX
  8
0
  5
EE0
 10
102.290
 20
160.961
 30
0.000000
  70
    32
  0
VERTEX
  8
0
  5
EE1
 10
102.308
 20
160.985
 30
0.000000
  70
    32
  0
VERTEX
  8
0
  5
EE2
 10
102.325
 20
161.008
 30
0.000000
  70
    32
  0
VERTEX
  8
0
  5
EE3
 10
102.342
 20
161.032
 30
0.000000
  70
    32
  0
VERTEX
  8
0
  5
EE4
 10
102.358
 20
161.056
 30
0.000000
  70
    32
  0
VERTEX
  8
0
  5
EE5
 10
102.373
 20
161.080
 30
0.000000
  70
    32
  0
VERTEX
  8
0
  5
EE6
 10
102.388
 20
161.103
 30
0.000000
  70
    32
  0
VERTEX
  8
0
  5
EE7
 10
102.402
 20
161.127
 30
0.000000
  70
    32
  0
VERTEX
  8
0
  5
EE8
 10
102.415
 20
161.151
 30
0.000000
  70
    32
  0
VERTEX
  8
0
  5
EE9
 10
102.427
 20
161.175
 30
0.000000
  70
    32
  0
VERTEX
  8
0
  5
EEA
 10
102.439
 20
161.199
 30
0.000000
  70
    32
  0
VERTEX
  8
0
  5
EEB
 10
102.450
 20
161.224
 30
0.000000
  70
    32
  0
VERTEX
  8
0
  5
EEC
 10
102.460
 20
161.248
 30
0.000000
  70
    32
  0
VERTEX
  8
0
  5
EED
 10
102.470
 20
161.272
 30
0.000000
  70
    32
  0
VERTEX
  8
0
  5
EEE
 10
102.478
 20
161.296
 30
0.000000
  70
    32
  0
VERTEX
  8
0
  5
EEF
 10
102.486
 20
161.320
 30
0.000000
  70
    32
  0
VERTEX
  8
0
  5
EF0
 10
102.494
 20
161.345
 30
0.000000
  70
    32
  0
VERTEX
  8
0
  5
EF1
 10
102.500
 20
161.369
 30
0.000000
  70
    32
  0
VERTEX
  8
0
  5
EF2
 10
102.506
 20
161.393
 30
0.000000
  70
    32
  0
VERTEX
  8
0
  5
EF3
 10
102.511
 20
161.418
 30
0.000000
  70
    32
  0
VERTEX
  8
0
  5
EF4
 10
102.516
 20
161.442
 30
0.000000
  70
    32
  0
VERTEX
  8
0
  5
EF5
 10
102.519
 20
161.466
 30
0.000000
  70
    32
  0
VERTEX
  8
0
  5
EF6
 10
102.522
 20
161.491
 30
0.000000
  70
    32
  0
VERTEX
  8
0
  5
EF7
 10
102.525
 20
161.515
 30
0.000000
  70
    32
  0
VERTEX
  8
0
  5
EF8
 10
102.526
 20
161.539
 30
0.000000
  70
    32
  0
VERTEX
  8
0
  5
EF9
 10
102.527
 20
161.564
 30
0.000000
  70
    32
  0
VERTEX
  8
0
  5
EFA
 10
102.527
 20
161.588
 30
0.000000
  70
    32
  0
VERTEX
  8
0
  5
EFB
 10
102.526
 20
161.613
 30
0.000000
  70
    32
  0
VERTEX
  8
0
  5
EFC
 10
102.525
 20
161.637
 30
0.000000
  70
    32
  0
VERTEX
  8
0
  5
EFD
 10
102.522
 20
161.661
 30
0.000000
  70
    32
  0
VERTEX
  8
0
  5
EFE
 10
102.520
 20
161.686
 30
0.000000
  70
    32
  0
VERTEX
  8
0
  5
EFF
 10
102.516
 20
161.710
 30
0.000000
  70
    32
  0
VERTEX
  8
0
  5
F00
 10
102.512
 20
161.734
 30
0.000000
  70
    32
  0
VERTEX
  8
0
  5
F01
 10
102.506
 20
161.759
 30
0.000000
  70
    32
  0
VERTEX
  8
0
  5
F02
 10
102.501
 20
161.783
 30
0.000000
  70
    32
  0
VERTEX
  8
0
  5
F03
 10
102.494
 20
161.807
 30
0.000000
  70
    32
  0
VERTEX
  8
0
  5
F04
 10
102.487
 20
161.832
 30
0.000000
  70
    32
  0
VERTEX
  8
0
  5
F05
 10
102.479
 20
161.856
 30
0.000000
  70
    32
  0
VERTEX
  8
0
  5
F06
 10
102.470
 20
161.880
 30
0.000000
  70
    32
  0
VERTEX
  8
0
  5
F07
 10
102.460
 20
161.904
 30
0.000000
  70
    32
  0
VERTEX
  8
0
  5
F08
 10
102.450
 20
161.928
 30
0.000000
  70
    32
  0
VERTEX
  8
0
  5
F09
 10
102.439
 20
161.952
 30
0.000000
  70
    32
  0
VERTEX
  8
0
  5
F0A
 10
102.428
 20
161.977
 30
0.000000
  70
    32
  0
VERTEX
  8
0
  5
F0B
 10
102.415
 20
162.001
 30
0.000000
  70
    32
  0
VERTEX
  8
0
  5
F0C
 10
102.402
 20
162.025
 30
0.000000
  70
    32
  0
VERTEX
  8
0
  5
F0D
 10
102.388
 20
162.048
 30
0.000000
  70
    32
  0
VERTEX
  8
0
  5
F0E
 10
102.374
 20
162.072
 30
0.000000
  70
    32
  0
VERTEX
  8
0
  5
F0F
 10
102.358
 20
162.096
 30
0.000000
  70
    32
  0
VERTEX
  8
0
  5
F10
 10
102.342
 20
162.120
 30
0.000000
  70
    32
  0
VERTEX
  8
0
  5
F11
 10
102.326
 20
162.144
 30
0.000000
  70
    32
  0
VERTEX
  8
0
  5
F12
 10
102.308
 20
162.167
 30
0.000000
  70
    32
  0
VERTEX
  8
0
  5
F13
 10
102.290
 20
162.191
 30
0.000000
  70
    32
  0
VERTEX
  8
0
  5
F14
 10
102.271
 20
162.215
 30
0.000000
  70
    32
  0
VERTEX
  8
0
  5
F15
 10
102.252
 20
162.238
 30
0.000000
  70
    32
  0
VERTEX
  8
0
  5
F16
 10
102.232
 20
162.261
 30
0.000000
  70
    32
  0
VERTEX
  8
0
  5
F17
 10
102.211
 20
162.285
 30
0.000000
  70
    32
  0
VERTEX
  8
0
  5
F18
 10
102.189
 20
162.308
 30
0.000000
  70
    32
  0
VERTEX
  8
0
  5
F19
 10
102.167
 20
162.331
 30
0.000000
  70
    32
  0
VERTEX
  8
0
  5
F1A
 10
102.144
 20
162.354
 30
0.000000
  70
    32
  0
VERTEX
  8
0
  5
F1B
 10
102.120
 20
162.377
 30
0.000000
  70
    32
  0
VERTEX
  8
0
  5
F1C
 10
102.095
 20
162.400
 30
0.000000
  70
    32
  0
VERTEX
  8
0
  5
F1D
 10
102.070
 20
162.423
 30
0.000000
  70
    32
  0
VERTEX
  8
0
  5
F1E
 10
102.045
 20
162.446
 30
0.000000
  70
    32
  0
VERTEX
  8
0
  5
F1F
 10
102.018
 20
162.468
 30
0.000000
  70
    32
  0
VERTEX
  8
0
  5
F20
 10
101.991
 20
162.491
 30
0.000000
  70
    32
  0
VERTEX
  8
0
  5
F21
 10
101.963
 20
162.513
 30
0.000000
  70
    32
  0
VERTEX
  8
0
  5
F22
 10
101.935
 20
162.536
 30
0.000000
  70
    32
  0
VERTEX
  8
0
  5
F23
 10
101.905
 20
162.558
 30
0.000000
  70
    32
  0
VERTEX
  8
0
  5
F24
 10
101.876
 20
162.580
 30
0.000000
  70
    32
  0
VERTEX
  8
0
  5
F25
 10
101.845
 20
162.602
 30
0.000000
  70
    32
  0
VERTEX
  8
0
  5
F26
 10
101.814
 20
162.624
 30
0.000000
  70
    32
  0
VERTEX
  8
0
  5
F27
 10
101.782
 20
162.646
 30
0.000000
  70
    32
  0
VERTEX
  8
0
  5
F28
 10
101.750
 20
162.668
 30
0.000000
  70
    32
  0
VERTEX
  8
0
  5
F29
 10
101.716
 20
162.690
 30
0.000000
  70
    32
  0
VERTEX
  8
0
  5
F2A
 10
101.683
 20
162.711
 30
0.000000
  70
    32
  0
VERTEX
  8
0
  5
F2B
 10
101.648
 20
162.732
 30
0.000000
  70
    32
  0
VERTEX
  8
0
  5
F2C
 10
101.613
 20
162.754
 30
0.000000
  70
    32
  0
VERTEX
  8
0
  5
F2D
 10
101.577
 20
162.775
 30
0.000000
  70
    32
  0
VERTEX
  8
0
  5
F2E
 10
101.541
 20
162.796
 30
0.000000
  70
    32
  0
VERTEX
  8
0
  5
F2F
 10
101.504
 20
162.817
 30
0.000000
  70
    32
  0
VERTEX
  8
0
  5
F30
 10
101.466
 20
162.838
 30
0.000000
  70
    32
  0
VERTEX
  8
0
  5
F31
 10
101.428
 20
162.858
 30
0.000000
  70
    32
  0
VERTEX
  8
0
  5
F32
 10
101.389
 20
162.879
 30
0.000000
  70
    32
  0
VERTEX
  8
0
  5
F33
 10
101.350
 20
162.899
 30
0.000000
  70
    32
  0
VERTEX
  8
0
  5
F34
 10
101.310
 20
162.919
 30
0.000000
  70
    32
  0
VERTEX
  8
0
  5
F35
 10
101.269
 20
162.939
 30
0.000000
  70
    32
  0
VERTEX
  8
0
  5
F36
 10
101.228
 20
162.959
 30
0.000000
  70
    32
  0
VERTEX
  8
0
  5
F37
 10
101.186
 20
162.979
 30
0.000000
  70
    32
  0
VERTEX
  8
0
  5
F38
 10
101.144
 20
162.999
 30
0.000000
  70
    32
  0
SEQEND
  8
0
  5
F39
  0
LINE
  5
72F
  8
0
 10
89.026946618948642
 20
141.97893375426929
 30
0.0
 11
88.526946618948628
 21
161.57633126244249
 31
0.0
  0
ARC
  5
734
  8
0
 10
100.6266312645011
 20
165.84345099217509
 30
0.0
 40
1.5
 50
135.62248582632071
 51
194.54190412830249
  0
ARC
  5
76A
  8
0
 10
106.7259844078898
 20
170.0582634924686
 30
0.0
 40
9.0
 50
219.44968032693691
 51
231.6645676099084
  0
ARC
  5
76B
  8
0
 10
103.8503079474205
 20
167.23841398374699
 30
0.0
 40
5.0
 50
200.75171325611291
 51
215.43300582698109
  0
LINE
  5
771
  8
0
 10
99.056792068501736
 20
168.85544765582449
 30
0.0
 11
99.318685892094152
 21
168.2229594549309
 31
0.0
  0
LINE
  5
772
  8
0
 10
99.318685892094152
 20
168.2229594549309
 30
0.0
 11
99.605533786840112
 21
167.08113138138651
 31
0.0
  0
ARC
  5
775
  8
0
 10
99.41156100975337
 20
167.0324019062277
 30
0.0
 40
0.2
 50
315.62248582632043
 51
14.10191193147306
  0
ARC
  5
776
  8
0
 10
98.872006725823184
 20
168.77893375426939
 30
0.0
 40
0.2
 50
22.492934975536091
 51
90.0
  0
LINE
  5
786
  8
0
 10
91.735207345803119
 20
168.2229594549309
 30
0.0
 11
91.448359451057158
 21
167.08113138138651
 31
0.0
  0
ARC
  5
787
  8
0
 10
87.203585290476724
 20
167.23841398374699
 30
0.0
 40
5.0
 50
324.56699417301888
 51
339.24828674388721
  0
LINE
  5
788
  8
0
 10
91.442011296966157
 20
167.03667721223599
 30
0.0
 11
91.442011296966157
 21
164.56552388173759
 31
0.0
  0
ARC
  5
789
  8
0
 10
91.642332228143914
 20
167.0324019062277
 30
0.0
 40
0.2
 50
165.8980880685269
 51
224.37751417367971
  0
ARC
  5
78A
  8
0
 10
90.427261973396128
 20
165.84345099217509
 30
0.0
 40
1.5
 50
345.45809587169748
 51
44.377514173679231
  0
LINE
  5
78B
  8
0
 10
91.997101169395563
 20
168.85544765582449
 30
0.0
 11
91.735207345803119
 21
168.2229594549309
 31
0.0
  0
ARC
  5
78C
  8
0
 10
92.181886512074115
 20
168.77893375426939
 30
0.0
 40
0.2
 50
90.0
 51
157.50706502446391
  0
ARC
  5
78D
  8
0
 10
84.327908830007473
 20
170.0582634924686
 30
0.0
 40
9.0
 50
308.33543239009163
 51
320.55031967306309
  0
POLYLINE
  5
78E
  8
0
 10
90.042478384419823
 20
160.09534411722478
 30
0.0
 66
     1
 70
     8
  0
VERTEX
  8
0
  5
F3A
 10
90.0425
 20
160.095
 30
0.000000
  70
    32
  0
VERTEX
  8
0
  5
F3B
 10
89.9982
 20
160.115
 30
0.000000
  70
    32
  0
VERTEX
  8
0
  5
F3C
 10
89.9546
 20
160.134
 30
0.000000
  70
    32
  0
VERTEX
  8
0
  5
F3D
 10
89.9115
 20
160.153
 30
0.000000
  70
    32
  0
VERTEX
  8
0
  5
F3E
 10
89.8690
 20
160.173
 30
0.000000
  70
    32
  0
VERTEX
  8
0
  5
F3F
 10
89.8272
 20
160.193
 30
0.000000
  70
    32
  0
VERTEX
  8
0
  5
F40
 10
89.7859
 20
160.213
 30
0.000000
  70
    32
  0
VERTEX
  8
0
  5
F41
 10
89.7452
 20
160.233
 30
0.000000
  70
    32
  0
VERTEX
  8
0
  5
F42
 10
89.7051
 20
160.253
 30
0.000000
  70
    32
  0
VERTEX
  8
0
  5
F43
 10
89.6656
 20
160.273
 30
0.000000
  70
    32
  0
VERTEX
  8
0
  5
F44
 10
89.6268
 20
160.294
 30
0.000000
  70
    32
  0
VERTEX
  8
0
  5
F45
 10
89.5885
 20
160.315
 30
0.000000
  70
    32
  0
VERTEX
  8
0
  5
F46
 10
89.5509
 20
160.335
 30
0.000000
  70
    32
  0
VERTEX
  8
0
  5
F47
 10
89.5139
 20
160.356
 30
0.000000
  70
    32
  0
VERTEX
  8
0
  5
F48
 10
89.4775
 20
160.377
 30
0.000000
  70
    32
  0
VERTEX
  8
0
  5
F49
 10
89.4418
 20
160.398
 30
0.000000
  70
    32
  0
VERTEX
  8
0
  5
F4A
 10
89.4067
 20
160.420
 30
0.000000
  70
    32
  0
VERTEX
  8
0
  5
F4B
 10
89.3723
 20
160.441
 30
0.000000
  70
    32
  0
VERTEX
  8
0
  5
F4C
 10
89.3385
 20
160.462
 30
0.000000
  70
    32
  0
VERTEX
  8
0
  5
F4D
 10
89.3053
 20
160.484
 30
0.000000
  70
    32
  0
VERTEX
  8
0
  5
F4E
 10
89.2728
 20
160.506
 30
0.000000
  70
    32
  0
VERTEX
  8
0
  5
F4F
 10
89.2410
 20
160.528
 30
0.000000
  70
    32
  0
VERTEX
  8
0
  5
F50
 10
89.2098
 20
160.550
 30
0.000000
  70
    32
  0
VERTEX
  8
0
  5
F51
 10
89.1792
 20
160.572
 30
0.000000
  70
    32
  0
VERTEX
  8
0
  5
F52
 10
89.1494
 20
160.594
 30
0.000000
  70
    32
  0
VERTEX
  8
0
  5
F53
 10
89.1202
 20
160.616
 30
0.000000
  70
    32
  0
VERTEX
  8
0
  5
F54
 10
89.0916
 20
160.639
 30
0.000000
  70
    32
  0
VERTEX
  8
0
  5
F55
 10
89.0638
 20
160.661
 30
0.000000
  70
    32
  0
VERTEX
  8
0
  5
F56
 10
89.0366
 20
160.684
 30
0.000000
  70
    32
  0
VERTEX
  8
0
  5
F57
 10
89.0101
 20
160.706
 30
0.000000
  70
    32
  0
VERTEX
  8
0
  5
F58
 10
88.9843
 20
160.729
 30
0.000000
  70
    32
  0
VERTEX
  8
0
  5
F59
 10
88.9592
 20
160.752
 30
0.000000
  70
    32
  0
VERTEX
  8
0
  5
F5A
 10
88.9347
 20
160.775
 30
0.000000
  70
    32
  0
VERTEX
  8
0
  5
F5B
 10
88.9110
 20
160.798
 30
0.000000
  70
    32
  0
VERTEX
  8
0
  5
F5C
 10
88.8879
 20
160.821
 30
0.000000
  70
    32
  0
VERTEX
  8
0
  5
F5D
 10
88.8656
 20
160.844
 30
0.000000
  70
    32
  0
VERTEX
  8
0
  5
F5E
 10
88.8439
 20
160.867
 30
0.000000
  70
    32
  0
VERTEX
  8
0
  5
F5F
 10
88.8229
 20
160.891
 30
0.000000
  70
    32
  0
VERTEX
  8
0
  5
F60
 10
88.8027
 20
160.914
 30
0.000000
  70
    32
  0
VERTEX
  8
0
  5
F61
 10
88.7831
 20
160.937
 30
0.000000
  70
    32
  0
VERTEX
  8
0
  5
F62
 10
88.7643
 20
160.961
 30
0.000000
  70
    32
  0
VERTEX
  8
0
  5
F63
 10
88.7461
 20
160.985
 30
0.000000
  70
    32
  0
VERTEX
  8
0
  5
F64
 10
88.7287
 20
161.008
 30
0.000000
  70
    32
  0
VERTEX
  8
0
  5
F65
 10
88.7120
 20
161.032
 30
0.000000
  70
    32
  0
VERTEX
  8
0
  5
F66
 10
88.6960
 20
161.056
 30
0.000000
  70
    32
  0
VERTEX
  8
0
  5
F67
 10
88.6807
 20
161.080
 30
0.000000
  70
    32
  0
VERTEX
  8
0
  5
F68
 10
88.6661
 20
161.103
 30
0.000000
  70
    32
  0
VERTEX
  8
0
  5
F69
 10
88.6522
 20
161.127
 30
0.000000
  70
    32
  0
VERTEX
  8
0
  5
F6A
 10
88.6391
 20
161.151
 30
0.000000
  70
    32
  0
VERTEX
  8
0
  5
F6B
 10
88.6267
 20
161.175
 30
0.000000
  70
    32
  0
VERTEX
  8
0
  5
F6C
 10
88.6150
 20
161.199
 30
0.000000
  70
    32
  0
VERTEX
  8
0
  5
F6D
 10
88.6040
 20
161.224
 30
0.000000
  70
    32
  0
VERTEX
  8
0
  5
F6E
 10
88.5938
 20
161.248
 30
0.000000
  70
    32
  0
VERTEX
  8
0
  5
F6F
 10
88.5843
 20
161.272
 30
0.000000
  70
    32
  0
VERTEX
  8
0
  5
F70
 10
88.5755
 20
161.296
 30
0.000000
  70
    32
  0
VERTEX
  8
0
  5
F71
 10
88.5674
 20
161.320
 30
0.000000
  70
    32
  0
VERTEX
  8
0
  5
F72
 10
88.5601
 20
161.345
 30
0.000000
  70
    32
  0
VERTEX
  8
0
  5
F73
 10
88.5535
 20
161.369
 30
0.000000
  70
    32
  0
VERTEX
  8
0
  5
F74
 10
88.5476
 20
161.393
 30
0.000000
  70
    32
  0
VERTEX
  8
0
  5
F75
 10
88.5425
 20
161.418
 30
0.000000
  70
    32
  0
VERTEX
  8
0
  5
F76
 10
88.5381
 20
161.442
 30
0.000000
  70
    32
  0
VERTEX
  8
0
  5
F77
 10
88.5344
 20
161.466
 30
0.000000
  70
    32
  0
VERTEX
  8
0
  5
F78
 10
88.5315
 20
161.491
 30
0.000000
  70
    32
  0
VERTEX
  8
0
  5
F79
 10
88.5293
 20
161.515
 30
0.000000
  70
    32
  0
VERTEX
  8
0
  5
F7A
 10
88.5278
 20
161.539
 30
0.000000
  70
    32
  0
VERTEX
  8
0
  5
F7B
 10
88.5270
 20
161.564
 30
0.000000
  70
    32
  0
VERTEX
  8
0
  5
F7C
 10
88.5270
 20
161.588
 30
0.000000
  70
    32
  0
VERTEX
  8
0
  5
F7D
 10
88.5278
 20
161.613
 30
0.000000
  70
    32
  0
VERTEX
  8
0
  5
F7E
 10
88.5292
 20
161.637
 30
0.000000
  70
    32
  0
VERTEX
  8
0
  5
F7F
 10
88.5314
 20
161.661
 30
0.000000
  70
    32
  0
VERTEX
  8
0
  5
F80
 10
88.5343
 20
161.686
 30
0.000000
  70
    32
  0
VERTEX
  8
0
  5
F81
 10
88.5380
 20
161.710
 30
0.000000
  70
    32
  0
VERTEX
  8
0
  5
F82
 10
88.5424
 20
161.734
 30
0.000000
  70
    32
  0
VERTEX
  8
0
  5
F83
 10
88.5475
 20
161.759
 30
0.000000
  70
    32
  0
VERTEX
  8
0
  5
F84
 10
88.5533
 20
161.783
 30
0.000000
  70
    32
  0
VERTEX
  8
0
  5
F85
 10
88.5599
 20
161.807
 30
0.000000
  70
    32
  0
VERTEX
  8
0
  5
F86
 10
88.5672
 20
161.832
 30
0.000000
  70
    32
  0
VERTEX
  8
0
  5
F87
 10
88.5753
 20
161.856
 30
0.000000
  70
    32
  0
VERTEX
  8
0
  5
F88
 10
88.5840
 20
161.880
 30
0.000000
  70
    32
  0
VERTEX
  8
0
  5
F89
 10
88.5935
 20
161.904
 30
0.000000
  70
    32
  0
VERTEX
  8
0
  5
F8A
 10
88.6037
 20
161.928
 30
0.000000
  70
    32
  0
VERTEX
  8
0
  5
F8B
 10
88.6147
 20
161.952
 30
0.000000
  70
    32
  0
VERTEX
  8
0
  5
F8C
 10
88.6263
 20
161.977
 30
0.000000
  70
    32
  0
VERTEX
  8
0
  5
F8D
 10
88.6387
 20
162.001
 30
0.000000
  70
    32
  0
VERTEX
  8
0
  5
F8E
 10
88.6519
 20
162.025
 30
0.000000
  70
    32
  0
VERTEX
  8
0
  5
F8F
 10
88.6657
 20
162.048
 30
0.000000
  70
    32
  0
VERTEX
  8
0
  5
F90
 10
88.6802
 20
162.072
 30
0.000000
  70
    32
  0
VERTEX
  8
0
  5
F91
 10
88.6955
 20
162.096
 30
0.000000
  70
    32
  0
VERTEX
  8
0
  5
F92
 10
88.7115
 20
162.120
 30
0.000000
  70
    32
  0
VERTEX
  8
0
  5
F93
 10
88.7282
 20
162.144
 30
0.000000
  70
    32
  0
VERTEX
  8
0
  5
F94
 10
88.7456
 20
162.167
 30
0.000000
  70
    32
  0
VERTEX
  8
0
  5
F95
 10
88.7637
 20
162.191
 30
0.000000
  70
    32
  0
VERTEX
  8
0
  5
F96
 10
88.7826
 20
162.215
 30
0.000000
  70
    32
  0
VERTEX
  8
0
  5
F97
 10
88.8021
 20
162.238
 30
0.000000
  70
    32
  0
VERTEX
  8
0
  5
F98
 10
88.8223
 20
162.261
 30
0.000000
  70
    32
  0
VERTEX
  8
0
  5
F99
 10
88.8433
 20
162.285
 30
0.000000
  70
    32
  0
VERTEX
  8
0
  5
F9A
 10
88.8649
 20
162.308
 30
0.000000
  70
    32
  0
VERTEX
  8
0
  5
F9B
 10
88.8873
 20
162.331
 30
0.000000
  70
    32
  0
VERTEX
  8
0
  5
F9C
 10
88.9103
 20
162.354
 30
0.000000
  70
    32
  0
VERTEX
  8
0
  5
F9D
 10
88.9340
 20
162.377
 30
0.000000
  70
    32
  0
VERTEX
  8
0
  5
F9E
 10
88.9584
 20
162.400
 30
0.000000
  70
    32
  0
VERTEX
  8
0
  5
F9F
 10
88.9836
 20
162.423
 30
0.000000
  70
    32
  0
VERTEX
  8
0
  5
FA0
 10
89.0094
 20
162.446
 30
0.000000
  70
    32
  0
VERTEX
  8
0
  5
FA1
 10
89.0358
 20
162.468
 30
0.000000
  70
    32
  0
VERTEX
  8
0
  5
FA2
 10
89.0630
 20
162.491
 30
0.000000
  70
    32
  0
VERTEX
  8
0
  5
FA3
 10
89.0908
 20
162.513
 30
0.000000
  70
    32
  0
VERTEX
  8
0
  5
FA4
 10
89.1193
 20
162.536
 30
0.000000
  70
    32
  0
VERTEX
  8
0
  5
FA5
 10
89.1485
 20
162.558
 30
0.000000
  70
    32
  0
VERTEX
  8
0
  5
FA6
 10
89.1784
 20
162.580
 30
0.000000
  70
    32
  0
VERTEX
  8
0
  5
FA7
 10
89.2089
 20
162.602
 30
0.000000
  70
    32
  0
VERTEX
  8
0
  5
FA8
 10
89.2400
 20
162.624
 30
0.000000
  70
    32
  0
VERTEX
  8
0
  5
FA9
 10
89.2719
 20
162.646
 30
0.000000
  70
    32
  0
VERTEX
  8
0
  5
FAA
 10
89.3044
 20
162.668
 30
0.000000
  70
    32
  0
VERTEX
  8
0
  5
FAB
 10
89.3375
 20
162.690
 30
0.000000
  70
    32
  0
VERTEX
  8
0
  5
FAC
 10
89.3713
 20
162.711
 30
0.000000
  70
    32
  0
VERTEX
  8
0
  5
FAD
 10
89.4057
 20
162.732
 30
0.000000
  70
    32
  0
VERTEX
  8
0
  5
FAE
 10
89.4408
 20
162.754
 30
0.000000
  70
    32
  0
VERTEX
  8
0
  5
FAF
 10
89.4765
 20
162.775
 30
0.000000
  70
    32
  0
VERTEX
  8
0
  5
FB0
 10
89.5128
 20
162.796
 30
0.000000
  70
    32
  0
VERTEX
  8
0
  5
FB1
 10
89.5498
 20
162.817
 30
0.000000
  70
    32
  0
VERTEX
  8
0
  5
FB2
 10
89.5874
 20
162.838
 30
0.000000
  70
    32
  0
VERTEX
  8
0
  5
FB3
 10
89.6256
 20
162.858
 30
0.000000
  70
    32
  0
VERTEX
  8
0
  5
FB4
 10
89.6645
 20
162.879
 30
0.000000
  70
    32
  0
VERTEX
  8
0
  5
FB5
 10
89.7039
 20
162.899
 30
0.000000
  70
    32
  0
VERTEX
  8
0
  5
FB6
 10
89.7440
 20
162.919
 30
0.000000
  70
    32
  0
VERTEX
  8
0
  5
FB7
 10
89.7847
 20
162.939
 30
0.000000
  70
    32
  0
VERTEX
  8
0
  5
FB8
 10
89.8260
 20
162.959
 30
0.000000
  70
    32
  0
VERTEX
  8
0
  5
FB9
 10
89.8678
 20
162.979
 30
0.000000
  70
    32
  0
VERTEX
  8
0
  5
FBA
 10
89.9103
 20
162.999
 30
0.000000
  70
    32
  0
SEQEND
  8
0
  5
FBB
  0
LINE
  5
9BE
  8
0
 10
247.73051406278239
 20
160.448806126775
 30
0.0
 11
247.71017990582629
 21
160.7007023215036
 31
0.0
  0
ARC
  5
A0C
  8
0
 10
244.22472198496379
 20
167.9613414783737
 30
0.0
 40
1.0
 50
235.76817851301581
 51
304.2318214869839
  0
LINE
  5
A4C
  8
0
 10
240.4329827118182
 20
168.2229594549309
 30
0.0
 11
240.14613481707229
 21
167.08113138138651
 31
0.0
  0
LINE
  5
A51
  8
0
 10
240.69487653541071
 20
168.85544765582449
 30
0.0
 11
240.4329827118182
 21
168.2229594549309
 31
0.0
  0
LINE
  5
A53
  8
0
 10
248.0164612581093
 20
168.2229594549309
 30
0.0
 11
248.30330915285529
 21
167.08113138138651
 31
0.0
  0
ARC
  5
A58
  8
0
 10
247.56978209183831
 20
168.77893375426939
 30
0.0
 40
0.2
 50
22.492934975536091
 51
90.0
  0
LINE
  5
A59
  8
0
 10
247.7545674345169
 20
168.85544765582449
 30
0.0
 11
248.0164612581093
 21
168.2229594549309
 31
0.0
  0
ARC
  5
A63
  8
0
 10
247.606755944849
 20
168.58064625233951
 30
0.0
 40
0.4
 50
95.303685279422695
 51
111.7307513085735
  0
LINE
  5
A66
  8
0
 10
247.45865779276519
 20
168.95221984848081
 30
0.0
 11
244.79845818832021
 21
167.14218943408471
 31
0.0
  0
LINE
  5
A67
  8
0
 10
240.99078617716239
 20
168.95221984848081
 30
0.0
 11
243.65098578160729
 21
167.14218943408471
 31
0.0
  0
ARC
  5
A68
  8
0
 10
240.8426880250785
 20
168.58064625233951
 30
0.0
 40
0.4
 50
68.269248691426469
 51
84.696314720577305
  0
ARC
  5
A69
  8
0
 10
240.87966187808919
 20
168.77893375426939
 30
0.0
 40
0.2
 50
90.0
 51
157.50706502446391
  0
POLYLINE
  5
A84
  8
0
 10
244.81799786669856
 20
165.24233667116926
 30
0.0
 66
     1
 70
     8
  0
VERTEX
  8
0
  5
FBC
 10
244.818
 20
165.242
 30
0.000000
  70
    32
  0
VERTEX
  8
0
  5
FBD
 10
244.810
 20
165.253
 30
0.000000
  70
    32
  0
VERTEX
  8
0
  5
FBE
 10
244.803
 20
165.264
 30
0.000000
  70
    32
  0
VERTEX
  8
0
  5
FBF
 10
244.795
 20
165.274
 30
0.000000
  70
    32
  0
VERTEX
  8
0
  5
FC0
 10
244.787
 20
165.284
 30
0.000000
  70
    32
  0
VERTEX
  8
0
  5
FC1
 10
244.780
 20
165.294
 30
0.000000
  70
    32
  0
VERTEX
  8
0
  5
FC2
 10
244.772
 20
165.304
 30
0.000000
  70
    32
  0
VERTEX
  8
0
  5
FC3
 10
244.764
 20
165.314
 30
0.000000
  70
    32
  0
VERTEX
  8
0
  5
FC4
 10
244.756
 20
165.324
 30
0.000000
  70
    32
  0
VERTEX
  8
0
  5
FC5
 10
244.748
 20
165.333
 30
0.000000
  70
    32
  0
VERTEX
  8
0
  5
FC6
 10
244.739
 20
165.343
 30
0.000000
  70
    32
  0
VERTEX
  8
0
  5
FC7
 10
244.731
 20
165.352
 30
0.000000
  70
    32
  0
VERTEX
  8
0
  5
FC8
 10
244.723
 20
165.361
 30
0.000000
  70
    32
  0
VERTEX
  8
0
  5
FC9
 10
244.714
 20
165.370
 30
0.000000
  70
    32
  0
VERTEX
  8
0
  5
FCA
 10
244.706
 20
165.379
 30
0.000000
  70
    32
  0
VERTEX
  8
0
  5
FCB
 10
244.697
 20
165.388
 30
0.000000
  70
    32
  0
VERTEX
  8
0
  5
FCC
 10
244.689
 20
165.396
 30
0.000000
  70
    32
  0
VERTEX
  8
0
  5
FCD
 10
244.680
 20
165.404
 30
0.000000
  70
    32
  0
VERTEX
  8
0
  5
FCE
 10
244.671
 20
165.413
 30
0.000000
  70
    32
  0
VERTEX
  8
0
  5
FCF
 10
244.663
 20
165.421
 30
0.000000
  70
    32
  0
VERTEX
  8
0
  5
FD0
 10
244.654
 20
165.429
 30
0.000000
  70
    32
  0
VERTEX
  8
0
  5
FD1
 10
244.645
 20
165.436
 30
0.000000
  70
    32
  0
VERTEX
  8
0
  5
FD2
 10
244.636
 20
165.444
 30
0.000000
  70
    32
  0
VERTEX
  8
0
  5
FD3
 10
244.627
 20
165.451
 30
0.000000
  70
    32
  0
VERTEX
  8
0
  5
FD4
 10
244.618
 20
165.458
 30
0.000000
  70
    32
  0
VERTEX
  8
0
  5
FD5
 10
244.609
 20
165.465
 30
0.000000
  70
    32
  0
VERTEX
  8
0
  5
FD6
 10
244.600
 20
165.472
 30
0.000000
  70
    32
  0
VERTEX
  8
0
  5
FD7
 10
244.590
 20
165.479
 30
0.000000
  70
    32
  0
VERTEX
  8
0
  5
FD8
 10
244.581
 20
165.486
 30
0.000000
  70
    32
  0
VERTEX
  8
0
  5
FD9
 10
244.572
 20
165.492
 30
0.000000
  70
    32
  0
VERTEX
  8
0
  5
FDA
 10
244.562
 20
165.498
 30
0.000000
  70
    32
  0
VERTEX
  8
0
  5
FDB
 10
244.553
 20
165.504
 30
0.000000
  70
    32
  0
VERTEX
  8
0
  5
FDC
 10
244.543
 20
165.510
 30
0.000000
  70
    32
  0
VERTEX
  8
0
  5
FDD
 10
244.534
 20
165.516
 30
0.000000
  70
    32
  0
VERTEX
  8
0
  5
FDE
 10
244.524
 20
165.521
 30
0.000000
  70
    32
  0
VERTEX
  8
0
  5
FDF
 10
244.515
 20
165.527
 30
0.000000
  70
    32
  0
VERTEX
  8
0
  5
FE0
 10
244.505
 20
165.532
 30
0.000000
  70
    32
  0
VERTEX
  8
0
  5
FE1
 10
244.495
 20
165.537
 30
0.000000
  70
    32
  0
VERTEX
  8
0
  5
FE2
 10
244.486
 20
165.542
 30
0.000000
  70
    32
  0
VERTEX
  8
0
  5
FE3
 10
244.476
 20
165.546
 30
0.000000
  70
    32
  0
VERTEX
  8
0
  5
FE4
 10
244.466
 20
165.551
 30
0.000000
  70
    32
  0
VERTEX
  8
0
  5
FE5
 10
244.456
 20
165.555
 30
0.000000
  70
    32
  0
VERTEX
  8
0
  5
FE6
 10
244.447
 20
165.559
 30
0.000000
  70
    32
  0
VERTEX
  8
0
  5
FE7
 10
244.437
 20
165.563
 30
0.000000
  70
    32
  0
VERTEX
  8
0
  5
FE8
 10
244.427
 20
165.567
 30
0.000000
  70
    32
  0
VERTEX
  8
0
  5
FE9
 10
244.417
 20
165.570
 30
0.000000
  70
    32
  0
VERTEX
  8
0
  5
FEA
 10
244.407
 20
165.574
 30
0.000000
  70
    32
  0
VERTEX
  8
0
  5
FEB
 10
244.397
 20
165.577
 30
0.000000
  70
    32
  0
VERTEX
  8
0
  5
FEC
 10
244.387
 20
165.580
 30
0.000000
  70
    32
  0
VERTEX
  8
0
  5
FED
 10
244.377
 20
165.583
 30
0.000000
  70
    32
  0
VERTEX
  8
0
  5
FEE
 10
244.367
 20
165.585
 30
0.000000
  70
    32
  0
VERTEX
  8
0
  5
FEF
 10
244.357
 20
165.588
 30
0.000000
  70
    32
  0
VERTEX
  8
0
  5
FF0
 10
244.347
 20
165.590
 30
0.000000
  70
    32
  0
VERTEX
  8
0
  5
FF1
 10
244.337
 20
165.592
 30
0.000000
  70
    32
  0
VERTEX
  8
0
  5
FF2
 10
244.326
 20
165.594
 30
0.000000
  70
    32
  0
VERTEX
  8
0
  5
FF3
 10
244.316
 20
165.596
 30
0.000000
  70
    32
  0
VERTEX
  8
0
  5
FF4
 10
244.306
 20
165.598
 30
0.000000
  70
    32
  0
VERTEX
  8
0
  5
FF5
 10
244.296
 20
165.599
 30
0.000000
  70
    32
  0
VERTEX
  8
0
  5
FF6
 10
244.286
 20
165.600
 30
0.000000
  70
    32
  0
VERTEX
  8
0
  5
FF7
 10
244.276
 20
165.601
 30
0.000000
  70
    32
  0
VERTEX
  8
0
  5
FF8
 10
244.265
 20
165.602
 30
0.000000
  70
    32
  0
VERTEX
  8
0
  5
FF9
 10
244.255
 20
165.603
 30
0.000000
  70
    32
  0
VERTEX
  8
0
  5
FFA
 10
244.245
 20
165.603
 30
0.000000
  70
    32
  0
VERTEX
  8
0
  5
FFB
 10
244.235
 20
165.603
 30
0.000000
  70
    32
  0
VERTEX
  8
0
  5
FFC
 10
244.225
 20
165.604
 30
0.000000
  70
    32
  0
VERTEX
  8
0
  5
FFD
 10
244.215
 20
165.603
 30
0.000000
  70
    32
  0
VERTEX
  8
0
  5
FFE
 10
244.204
 20
165.603
 30
0.000000
  70
    32
  0
VERTEX
  8
0
  5
FFF
 10
244.194
 20
165.603
 30
0.000000
  70
    32
  0
VERTEX
  8
0
  5
1000
 10
244.184
 20
165.602
 30
0.000000
  70
    32
  0
VERTEX
  8
0
  5
1001
 10
244.174
 20
165.601
 30
0.000000
  70
    32
  0
VERTEX
  8
0
  5
1002
 10
244.164
 20
165.600
 30
0.000000
  70
    32
  0
VERTEX
  8
0
  5
1003
 10
244.153
 20
165.599
 30
0.000000
  70
    32
  0
VERTEX
  8
0
  5
1004
 10
244.143
 20
165.598
 30
0.000000
  70
    32
  0
VERTEX
  8
0
  5
1005
 10
244.133
 20
165.596
 30
0.000000
  70
    32
  0
VERTEX
  8
0
  5
1006
 10
244.123
 20
165.594
 30
0.000000
  70
    32
  0
VERTEX
  8
0
  5
1007
 10
244.113
 20
165.592
 30
0.000000
  70
    32
  0
VERTEX
  8
0
  5
1008
 10
244.103
 20
165.590
 30
0.000000
  70
    32
  0
VERTEX
  8
0
  5
1009
 10
244.093
 20
165.588
 30
0.000000
  70
    32
  0
VERTEX
  8
0
  5
100A
 10
244.083
 20
165.585
 30
0.000000
  70
    32
  0
VERTEX
  8
0
  5
100B
 10
244.073
 20
165.583
 30
0.000000
  70
    32
  0
VERTEX
  8
0
  5
100C
 10
244.063
 20
165.580
 30
0.000000
  70
    32
  0
VERTEX
  8
0
  5
100D
 10
244.053
 20
165.577
 30
0.000000
  70
    32
  0
VERTEX
  8
0
  5
100E
 10
244.043
 20
165.574
 30
0.000000
  70
    32
  0
VERTEX
  8
0
  5
100F
 10
244.033
 20
165.570
 30
0.000000
  70
    32
  0
VERTEX
  8
0
  5
1010
 10
244.023
 20
165.567
 30
0.000000
  70
    32
  0
VERTEX
  8
0
  5
1011
 10
244.013
 20
165.563
 30
0.000000
  70
    32
  0
VERTEX
  8
0
  5
1012
 10
244.003
 20
165.559
 30
0.000000
  70
    32
  0
VERTEX
  8
0
  5
1013
 10
243.993
 20
165.555
 30
0.000000
  70
    32
  0
VERTEX
  8
0
  5
1014
 10
243.983
 20
165.551
 30
0.000000
  70
    32
  0
VERTEX
  8
0
  5
1015
 10
243.973
 20
165.546
 30
0.000000
  70
    32
  0
VERTEX
  8
0
  5
1016
 10
243.964
 20
165.542
 30
0.000000
  70
    32
  0
VERTEX
  8
0
  5
1017
 10
243.954
 20
165.537
 30
0.000000
  70
    32
  0
VERTEX
  8
0
  5
1018
 10
243.944
 20
165.532
 30
0.000000
  70
    32
  0
VERTEX
  8
0
  5
1019
 10
243.935
 20
165.527
 30
0.000000
  70
    32
  0
VERTEX
  8
0
  5
101A
 10
243.925
 20
165.521
 30
0.000000
  70
    32
  0
VERTEX
  8
0
  5
101B
 10
243.916
 20
165.516
 30
0.000000
  70
    32
  0
VERTEX
  8
0
  5
101C
 10
243.906
 20
165.510
 30
0.000000
  70
    32
  0
VERTEX
  8
0
  5
101D
 10
243.897
 20
165.504
 30
0.000000
  70
    32
  0
VERTEX
  8
0
  5
101E
 10
243.887
 20
165.498
 30
0.000000
  70
    32
  0
VERTEX
  8
0
  5
101F
 10
243.878
 20
165.492
 30
0.000000
  70
    32
  0
VERTEX
  8
0
  5
1020
 10
243.868
 20
165.486
 30
0.000000
  70
    32
  0
VERTEX
  8
0
  5
1021
 10
243.859
 20
165.479
 30
0.000000
  70
    32
  0
VERTEX
  8
0
  5
1022
 10
243.850
 20
165.472
 30
0.000000
  70
    32
  0
VERTEX
  8
0
  5
1023
 10
243.841
 20
165.465
 30
0.000000
  70
    32
  0
VERTEX
  8
0
  5
1024
 10
243.832
 20
165.458
 30
0.000000
  70
    32
  0
VERTEX
  8
0
  5
1025
 10
243.823
 20
165.451
 30
0.000000
  70
    32
  0
VERTEX
  8
0
  5
1026
 10
243.813
 20
165.444
 30
0.000000
  70
    32
  0
VERTEX
  8
0
  5
1027
 10
243.805
 20
165.436
 30
0.000000
  70
    32
  0
VERTEX
  8
0
  5
1028
 10
243.796
 20
165.429
 30
0.000000
  70
    32
  0
VERTEX
  8
0
  5
1029
 10
243.787
 20
165.421
 30
0.000000
  70
    32
  0
VERTEX
  8
0
  5
102A
 10
243.778
 20
165.413
 30
0.000000
  70
    32
  0
VERTEX
  8
0
  5
102B
 10
243.769
 20
165.404
 30
0.000000
  70
    32
  0
VERTEX
  8
0
  5
102C
 10
243.761
 20
165.396
 30
0.000000
  70
    32
  0
VERTEX
  8
0
  5
102D
 10
243.752
 20
165.388
 30
0.000000
  70
    32
  0
VERTEX
  8
0
  5
102E
 10
243.743
 20
165.379
 30
0.000000
  70
    32
  0
VERTEX
  8
0
  5
102F
 10
243.735
 20
165.370
 30
0.000000
  70
    32
  0
VERTEX
  8
0
  5
1030
 10
243.727
 20
165.361
 30
0.000000
  70
    32
  0
VERTEX
  8
0
  5
1031
 10
243.718
 20
165.352
 30
0.000000
  70
    32
  0
VERTEX
  8
0
  5
1032
 10
243.710
 20
165.343
 30
0.000000
  70
    32
  0
VERTEX
  8
0
  5
1033
 10
243.702
 20
165.333
 30
0.000000
  70
    32
  0
VERTEX
  8
0
  5
1034
 10
243.694
 20
165.324
 30
0.000000
  70
    32
  0
VERTEX
  8
0
  5
1035
 10
243.686
 20
165.314
 30
0.000000
  70
    32
  0
VERTEX
  8
0
  5
1036
 10
243.678
 20
165.304
 30
0.000000
  70
    32
  0
VERTEX
  8
0
  5
1037
 10
243.670
 20
165.294
 30
0.000000
  70
    32
  0
VERTEX
  8
0
  5
1038
 10
243.662
 20
165.284
 30
0.000000
  70
    32
  0
VERTEX
  8
0
  5
1039
 10
243.654
 20
165.274
 30
0.000000
  70
    32
  0
VERTEX
  8
0
  5
103A
 10
243.647
 20
165.264
 30
0.000000
  70
    32
  0
VERTEX
  8
0
  5
103B
 10
243.639
 20
165.253
 30
0.000000
  70
    32
  0
VERTEX
  8
0
  5
103C
 10
243.631
 20
165.242
 30
0.000000
  70
    32
  0
SEQEND
  8
0
  5
103D
  0
ARC
  5
A85
  8
0
 10
229.71559347780749
 20
152.1306097950326
 30
0.0
 40
20.0
 50
26.540009007947351
 51
40.96412461172509
  0
ARC
  5
A86
  8
0
 10
246.7134222783651
 20
160.62023970845831
 30
0.0
 40
1.0
 50
4.6151572348128216
 51
26.540009007947258
  0
LINE
  5
A87
  8
0
 10
247.73051406278239
 20
160.448806126775
 30
0.0
 11
247.7604641883805
 21
160.1572696990028
 31
0.0
  0
ARC
  5
A88
  8
0
 10
258.73385049211998
 20
152.1306097950326
 30
0.0
 40
20.0
 50
139.0358753885001
 51
153.45999099205261
  0
LINE
  5
A89
  8
0
 10
240.71892990714511
 20
160.448806126775
 30
0.0
 11
240.688979781547
 21
160.1572696990028
 31
0.0
  0
LINE
  5
A8A
  8
0
 10
240.71892990714511
 20
160.448806126775
 30
0.0
 11
240.73926406410121
 21
160.7007023215036
 31
0.0
  0
ARC
  5
A8B
  8
0
 10
241.7360216915624
 20
160.62023970845831
 30
0.0
 40
1.0
 50
153.4599909920527
 51
175.38484276518719
  0
ARC
  5
A8F
  8
0
 10
248.22013410357999
 20
157.02893375426939
 30
0.0
 40
0.05
 50
187.4530187104076
 51
270.00000000001683
  0
ARC
  5
A90
  8
0
 10
240.22930986634751
 20
157.02893375426939
 30
0.0
 40
0.05
 50
269.99999999998317
 51
352.5469812895924
  0
LINE
  5
A91
  8
0
 10
240.27888744418189
 20
157.02244809500601
 30
0.0
 11
240.688979781547
 21
160.1572696990028
 31
0.0
  0
LINE
  5
A92
  8
0
 10
248.30623501609131
 20
164.43725351106269
 30
0.0
 11
249.6988520376706
 21
162.98750305554509
 31
0.0
  0
LINE
  5
A93
  8
0
 10
249.6988520376706
 20
162.98750305554509
 30
0.0
 11
250.49028976080399
 21
162.62917199658861
 31
0.0
  0
ARC
  5
A97
  8
0
 10
249.97472198496379
 20
161.4904490853784
 30
0.0
 40
1.25
 50
0.0
 51
65.640901373421741
  0
LINE
  5
A98
  8
0
 10
240.14320895383631
 20
164.43725351106269
 30
0.0
 11
238.75059193225701
 21
162.98750305554509
 31
0.0
  0
ARC
  5
A99
  8
0
 10
238.47472198496379
 20
161.4904490853784
 30
0.0
 40
1.25
 50
114.3590986265782
 51
180.0
  0
LINE
  5
A9A
  8
0
 10
238.75059193225701
 20
162.98750305554509
 30
0.0
 11
237.95915420912351
 21
162.62917199658861
 31
0.0
  0
POLYLINE
  5
AAD
  8
0
 10
240.65172108102962
 20
156.47709227384144
 30
0.0
 66
     1
 70
     8
  0
VERTEX
  8
0
  5
103E
 10
240.652
 20
156.477
 30
0.000000
  70
    32
  0
VERTEX
  8
0
  5
103F
 10
240.652
 20
156.483
 30
0.000000
  70
    32
  0
VERTEX
  8
0
  5
1040
 10
240.652
 20
156.489
 30
0.000000
  70
    32
  0
VERTEX
  8
0
  5
1041
 10
240.652
 20
156.496
 30
0.000000
  70
    32
  0
VERTEX
  8
0
  5
1042
 10
240.652
 20
156.502
 30
0.000000
  70
    32
  0
VERTEX
  8
0
  5
1043
 10
240.651
 20
156.508
 30
0.000000
  70
    32
  0
VERTEX
  8
0
  5
1044
 10
240.651
 20
156.514
 30
0.000000
  70
    32
  0
VERTEX
  8
0
  5
1045
 10
240.651
 20
156.520
 30
0.000000
  70
    32
  0
VERTEX
  8
0
  5
1046
 10
240.651
 20
156.526
 30
0.000000
  70
    32
  0
VERTEX
  8
0
  5
1047
 10
240.651
 20
156.532
 30
0.000000
  70
    32
  0
VERTEX
  8
0
  5
1048
 10
240.650
 20
156.539
 30
0.000000
  70
    32
  0
VERTEX
  8
0
  5
1049
 10
240.650
 20
156.545
 30
0.000000
  70
    32
  0
VERTEX
  8
0
  5
104A
 10
240.650
 20
156.551
 30
0.000000
  70
    32
  0
VERTEX
  8
0
  5
104B
 10
240.650
 20
156.557
 30
0.000000
  70
    32
  0
VERTEX
  8
0
  5
104C
 10
240.649
 20
156.563
 30
0.000000
  70
    32
  0
VERTEX
  8
0
  5
104D
 10
240.649
 20
156.569
 30
0.000000
  70
    32
  0
VERTEX
  8
0
  5
104E
 10
240.648
 20
156.575
 30
0.000000
  70
    32
  0
VERTEX
  8
0
  5
104F
 10
240.648
 20
156.581
 30
0.000000
  70
    32
  0
VERTEX
  8
0
  5
1050
 10
240.648
 20
156.587
 30
0.000000
  70
    32
  0
VERTEX
  8
0
  5
1051
 10
240.647
 20
156.593
 30
0.000000
  70
    32
  0
VERTEX
  8
0
  5
1052
 10
240.647
 20
156.599
 30
0.000000
  70
    32
  0
VERTEX
  8
0
  5
1053
 10
240.646
 20
156.605
 30
0.000000
  70
    32
  0
VERTEX
  8
0
  5
1054
 10
240.645
 20
156.611
 30
0.000000
  70
    32
  0
VERTEX
  8
0
  5
1055
 10
240.645
 20
156.617
 30
0.000000
  70
    32
  0
VERTEX
  8
0
  5
1056
 10
240.644
 20
156.623
 30
0.000000
  70
    32
  0
VERTEX
  8
0
  5
1057
 10
240.644
 20
156.629
 30
0.000000
  70
    32
  0
VERTEX
  8
0
  5
1058
 10
240.643
 20
156.635
 30
0.000000
  70
    32
  0
VERTEX
  8
0
  5
1059
 10
240.642
 20
156.640
 30
0.000000
  70
    32
  0
VERTEX
  8
0
  5
105A
 10
240.642
 20
156.646
 30
0.000000
  70
    32
  0
VERTEX
  8
0
  5
105B
 10
240.641
 20
156.652
 30
0.000000
  70
    32
  0
VERTEX
  8
0
  5
105C
 10
240.640
 20
156.658
 30
0.000000
  70
    32
  0
VERTEX
  8
0
  5
105D
 10
240.639
 20
156.663
 30
0.000000
  70
    32
  0
VERTEX
  8
0
  5
105E
 10
240.639
 20
156.669
 30
0.000000
  70
    32
  0
VERTEX
  8
0
  5
105F
 10
240.638
 20
156.675
 30
0.000000
  70
    32
  0
VERTEX
  8
0
  5
1060
 10
240.637
 20
156.680
 30
0.000000
  70
    32
  0
VERTEX
  8
0
  5
1061
 10
240.636
 20
156.686
 30
0.000000
  70
    32
  0
VERTEX
  8
0
  5
1062
 10
240.635
 20
156.692
 30
0.000000
  70
    32
  0
VERTEX
  8
0
  5
1063
 10
240.634
 20
156.697
 30
0.000000
  70
    32
  0
VERTEX
  8
0
  5
1064
 10
240.633
 20
156.703
 30
0.000000
  70
    32
  0
VERTEX
  8
0
  5
1065
 10
240.632
 20
156.708
 30
0.000000
  70
    32
  0
VERTEX
  8
0
  5
1066
 10
240.631
 20
156.714
 30
0.000000
  70
    32
  0
VERTEX
  8
0
  5
1067
 10
240.630
 20
156.719
 30
0.000000
  70
    32
  0
VERTEX
  8
0
  5
1068
 10
240.629
 20
156.724
 30
0.000000
  70
    32
  0
VERTEX
  8
0
  5
1069
 10
240.628
 20
156.730
 30
0.000000
  70
    32
  0
VERTEX
  8
0
  5
106A
 10
240.627
 20
156.735
 30
0.000000
  70
    32
  0
VERTEX
  8
0
  5
106B
 10
240.626
 20
156.740
 30
0.000000
  70
    32
  0
VERTEX
  8
0
  5
106C
 10
240.625
 20
156.746
 30
0.000000
  70
    32
  0
VERTEX
  8
0
  5
106D
 10
240.624
 20
156.751
 30
0.000000
  70
    32
  0
VERTEX
  8
0
  5
106E
 10
240.623
 20
156.756
 30
0.000000
  70
    32
  0
VERTEX
  8
0
  5
106F
 10
240.621
 20
156.761
 30
0.000000
  70
    32
  0
VERTEX
  8
0
  5
1070
 10
240.620
 20
156.766
 30
0.000000
  70
    32
  0
VERTEX
  8
0
  5
1071
 10
240.619
 20
156.771
 30
0.000000
  70
    32
  0
VERTEX
  8
0
  5
1072
 10
240.618
 20
156.776
 30
0.000000
  70
    32
  0
VERTEX
  8
0
  5
1073
 10
240.616
 20
156.781
 30
0.000000
  70
    32
  0
VERTEX
  8
0
  5
1074
 10
240.615
 20
156.786
 30
0.000000
  70
    32
  0
VERTEX
  8
0
  5
1075
 10
240.614
 20
156.791
 30
0.000000
  70
    32
  0
VERTEX
  8
0
  5
1076
 10
240.613
 20
156.795
 30
0.000000
  70
    32
  0
VERTEX
  8
0
  5
1077
 10
240.611
 20
156.800
 30
0.000000
  70
    32
  0
VERTEX
  8
0
  5
1078
 10
240.610
 20
156.805
 30
0.000000
  70
    32
  0
VERTEX
  8
0
  5
1079
 10
240.608
 20
156.810
 30
0.000000
  70
    32
  0
VERTEX
  8
0
  5
107A
 10
240.607
 20
156.814
 30
0.000000
  70
    32
  0
VERTEX
  8
0
  5
107B
 10
240.606
 20
156.819
 30
0.000000
  70
    32
  0
VERTEX
  8
0
  5
107C
 10
240.604
 20
156.823
 30
0.000000
  70
    32
  0
VERTEX
  8
0
  5
107D
 10
240.603
 20
156.828
 30
0.000000
  70
    32
  0
VERTEX
  8
0
  5
107E
 10
240.601
 20
156.832
 30
0.000000
  70
    32
  0
VERTEX
  8
0
  5
107F
 10
240.600
 20
156.836
 30
0.000000
  70
    32
  0
VERTEX
  8
0
  5
1080
 10
240.598
 20
156.841
 30
0.000000
  70
    32
  0
VERTEX
  8
0
  5
1081
 10
240.597
 20
156.845
 30
0.000000
  70
    32
  0
VERTEX
  8
0
  5
1082
 10
240.595
 20
156.849
 30
0.000000
  70
    32
  0
VERTEX
  8
0
  5
1083
 10
240.593
 20
156.853
 30
0.000000
  70
    32
  0
VERTEX
  8
0
  5
1084
 10
240.592
 20
156.857
 30
0.000000
  70
    32
  0
VERTEX
  8
0
  5
1085
 10
240.590
 20
156.861
 30
0.000000
  70
    32
  0
VERTEX
  8
0
  5
1086
 10
240.589
 20
156.865
 30
0.000000
  70
    32
  0
VERTEX
  8
0
  5
1087
 10
240.587
 20
156.869
 30
0.000000
  70
    32
  0
VERTEX
  8
0
  5
1088
 10
240.585
 20
156.873
 30
0.000000
  70
    32
  0
VERTEX
  8
0
  5
1089
 10
240.584
 20
156.876
 30
0.000000
  70
    32
  0
VERTEX
  8
0
  5
108A
 10
240.582
 20
156.880
 30
0.000000
  70
    32
  0
VERTEX
  8
0
  5
108B
 10
240.580
 20
156.884
 30
0.000000
  70
    32
  0
VERTEX
  8
0
  5
108C
 10
240.579
 20
156.887
 30
0.000000
  70
    32
  0
VERTEX
  8
0
  5
108D
 10
240.577
 20
156.891
 30
0.000000
  70
    32
  0
VERTEX
  8
0
  5
108E
 10
240.575
 20
156.894
 30
0.000000
  70
    32
  0
VERTEX
  8
0
  5
108F
 10
240.573
 20
156.898
 30
0.000000
  70
    32
  0
VERTEX
  8
0
  5
1090
 10
240.572
 20
156.901
 30
0.000000
  70
    32
  0
VERTEX
  8
0
  5
1091
 10
240.570
 20
156.904
 30
0.000000
  70
    32
  0
VERTEX
  8
0
  5
1092
 10
240.568
 20
156.908
 30
0.000000
  70
    32
  0
VERTEX
  8
0
  5
1093
 10
240.566
 20
156.911
 30
0.000000
  70
    32
  0
VERTEX
  8
0
  5
1094
 10
240.564
 20
156.914
 30
0.000000
  70
    32
  0
VERTEX
  8
0
  5
1095
 10
240.562
 20
156.917
 30
0.000000
  70
    32
  0
VERTEX
  8
0
  5
1096
 10
240.561
 20
156.920
 30
0.000000
  70
    32
  0
VERTEX
  8
0
  5
1097
 10
240.559
 20
156.923
 30
0.000000
  70
    32
  0
VERTEX
  8
0
  5
1098
 10
240.557
 20
156.925
 30
0.000000
  70
    32
  0
VERTEX
  8
0
  5
1099
 10
240.555
 20
156.928
 30
0.000000
  70
    32
  0
VERTEX
  8
0
  5
109A
 10
240.553
 20
156.931
 30
0.000000
  70
    32
  0
VERTEX
  8
0
  5
109B
 10
240.551
 20
156.933
 30
0.000000
  70
    32
  0
VERTEX
  8
0
  5
109C
 10
240.549
 20
156.936
 30
0.000000
  70
    32
  0
VERTEX
  8
0
  5
109D
 10
240.547
 20
156.938
 30
0.000000
  70
    32
  0
VERTEX
  8
0
  5
109E
 10
240.545
 20
156.941
 30
0.000000
  70
    32
  0
VERTEX
  8
0
  5
109F
 10
240.543
 20
156.943
 30
0.000000
  70
    32
  0
VERTEX
  8
0
  5
10A0
 10
240.541
 20
156.945
 30
0.000000
  70
    32
  0
VERTEX
  8
0
  5
10A1
 10
240.539
 20
156.947
 30
0.000000
  70
    32
  0
VERTEX
  8
0
  5
10A2
 10
240.537
 20
156.950
 30
0.000000
  70
    32
  0
VERTEX
  8
0
  5
10A3
 10
240.535
 20
156.952
 30
0.000000
  70
    32
  0
VERTEX
  8
0
  5
10A4
 10
240.533
 20
156.954
 30
0.000000
  70
    32
  0
VERTEX
  8
0
  5
10A5
 10
240.531
 20
156.956
 30
0.000000
  70
    32
  0
VERTEX
  8
0
  5
10A6
 10
240.529
 20
156.957
 30
0.000000
  70
    32
  0
VERTEX
  8
0
  5
10A7
 10
240.527
 20
156.959
 30
0.000000
  70
    32
  0
VERTEX
  8
0
  5
10A8
 10
240.525
 20
156.961
 30
0.000000
  70
    32
  0
VERTEX
  8
0
  5
10A9
 10
240.523
 20
156.962
 30
0.000000
  70
    32
  0
VERTEX
  8
0
  5
10AA
 10
240.521
 20
156.964
 30
0.000000
  70
    32
  0
VERTEX
  8
0
  5
10AB
 10
240.519
 20
156.965
 30
0.000000
  70
    32
  0
VERTEX
  8
0
  5
10AC
 10
240.517
 20
156.967
 30
0.000000
  70
    32
  0
VERTEX
  8
0
  5
10AD
 10
240.515
 20
156.968
 30
0.000000
  70
    32
  0
VERTEX
  8
0
  5
10AE
 10
240.513
 20
156.969
 30
0.000000
  70
    32
  0
VERTEX
  8
0
  5
10AF
 10
240.511
 20
156.970
 30
0.000000
  70
    32
  0
VERTEX
  8
0
  5
10B0
 10
240.509
 20
156.972
 30
0.000000
  70
    32
  0
VERTEX
  8
0
  5
10B1
 10
240.507
 20
156.973
 30
0.000000
  70
    32
  0
VERTEX
  8
0
  5
10B2
 10
240.505
 20
156.974
 30
0.000000
  70
    32
  0
VERTEX
  8
0
  5
10B3
 10
240.502
 20
156.974
 30
0.000000
  70
    32
  0
VERTEX
  8
0
  5
10B4
 10
240.500
 20
156.975
 30
0.000000
  70
    32
  0
VERTEX
  8
0
  5
10B5
 10
240.498
 20
156.976
 30
0.000000
  70
    32
  0
VERTEX
  8
0
  5
10B6
 10
240.496
 20
156.977
 30
0.000000
  70
    32
  0
VERTEX
  8
0
  5
10B7
 10
240.494
 20
156.977
 30
0.000000
  70
    32
  0
VERTEX
  8
0
  5
10B8
 10
240.492
 20
156.978
 30
0.000000
  70
    32
  0
VERTEX
  8
0
  5
10B9
 10
240.490
 20
156.978
 30
0.000000
  70
    32
  0
VERTEX
  8
0
  5
10BA
 10
240.488
 20
156.978
 30
0.000000
  70
    32
  0
VERTEX
  8
0
  5
10BB
 10
240.486
 20
156.979
 30
0.000000
  70
    32
  0
VERTEX
  8
0
  5
10BC
 10
240.484
 20
156.979
 30
0.000000
  70
    32
  0
VERTEX
  8
0
  5
10BD
 10
240.481
 20
156.979
 30
0.000000
  70
    32
  0
VERTEX
  8
0
  5
10BE
 10
240.479
 20
156.979
 30
0.000000
  70
    32
  0
SEQEND
  8
0
  5
10BF
  0
ARC
  5
AAE
  8
0
 10
230.68492479747809
 20
157.29132291556971
 30
0.0
 40
10.0
 50
331.23365111884709
 51
355.32963180574501
  0
ARC
  5
AAF
  8
0
 10
257.76451917244941
 20
157.29132291556971
 30
0.0
 40
10.0
 50
184.6703681942551
 51
208.76634888115291
  0
POLYLINE
  5
AB0
  8
0
 10
247.79772288889797
 20
156.47709227384144
 30
0.0
 66
     1
 70
     8
  0
VERTEX
  8
0
  5
10C0
 10
247.798
 20
156.477
 30
0.000000
  70
    32
  0
VERTEX
  8
0
  5
10C1
 10
247.798
 20
156.483
 30
0.000000
  70
    32
  0
VERTEX
  8
0
  5
10C2
 10
247.798
 20
156.489
 30
0.000000
  70
    32
  0
VERTEX
  8
0
  5
10C3
 10
247.798
 20
156.496
 30
0.000000
  70
    32
  0
VERTEX
  8
0
  5
10C4
 10
247.798
 20
156.502
 30
0.000000
  70
    32
  0
VERTEX
  8
0
  5
10C5
 10
247.798
 20
156.508
 30
0.000000
  70
    32
  0
VERTEX
  8
0
  5
10C6
 10
247.798
 20
156.514
 30
0.000000
  70
    32
  0
VERTEX
  8
0
  5
10C7
 10
247.798
 20
156.520
 30
0.000000
  70
    32
  0
VERTEX
  8
0
  5
10C8
 10
247.799
 20
156.526
 30
0.000000
  70
    32
  0
VERTEX
  8
0
  5
10C9
 10
247.799
 20
156.532
 30
0.000000
  70
    32
  0
VERTEX
  8
0
  5
10CA
 10
247.799
 20
156.539
 30
0.000000
  70
    32
  0
VERTEX
  8
0
  5
10CB
 10
247.799
 20
156.545
 30
0.000000
  70
    32
  0
VERTEX
  8
0
  5
10CC
 10
247.800
 20
156.551
 30
0.000000
  70
    32
  0
VERTEX
  8
0
  5
10CD
 10
247.800
 20
156.557
 30
0.000000
  70
    32
  0
VERTEX
  8
0
  5
10CE
 10
247.800
 20
156.563
 30
0.000000
  70
    32
  0
VERTEX
  8
0
  5
10CF
 10
247.801
 20
156.569
 30
0.000000
  70
    32
  0
VERTEX
  8
0
  5
10D0
 10
247.801
 20
156.575
 30
0.000000
  70
    32
  0
VERTEX
  8
0
  5
10D1
 10
247.801
 20
156.581
 30
0.000000
  70
    32
  0
VERTEX
  8
0
  5
10D2
 10
247.802
 20
156.587
 30
0.000000
  70
    32
  0
VERTEX
  8
0
  5
10D3
 10
247.802
 20
156.593
 30
0.000000
  70
    32
  0
VERTEX
  8
0
  5
10D4
 10
247.803
 20
156.599
 30
0.000000
  70
    32
  0
VERTEX
  8
0
  5
10D5
 10
247.803
 20
156.605
 30
0.000000
  70
    32
  0
VERTEX
  8
0
  5
10D6
 10
247.804
 20
156.611
 30
0.000000
  70
    32
  0
VERTEX
  8
0
  5
10D7
 10
247.805
 20
156.617
 30
0.000000
  70
    32
  0
VERTEX
  8
0
  5
10D8
 10
247.805
 20
156.623
 30
0.000000
  70
    32
  0
VERTEX
  8
0
  5
10D9
 10
247.806
 20
156.629
 30
0.000000
  70
    32
  0
VERTEX
  8
0
  5
10DA
 10
247.806
 20
156.635
 30
0.000000
  70
    32
  0
VERTEX
  8
0
  5
10DB
 10
247.807
 20
156.640
 30
0.000000
  70
    32
  0
VERTEX
  8
0
  5
10DC
 10
247.808
 20
156.646
 30
0.000000
  70
    32
  0
VERTEX
  8
0
  5
10DD
 10
247.809
 20
156.652
 30
0.000000
  70
    32
  0
VERTEX
  8
0
  5
10DE
 10
247.809
 20
156.658
 30
0.000000
  70
    32
  0
VERTEX
  8
0
  5
10DF
 10
247.810
 20
156.663
 30
0.000000
  70
    32
  0
VERTEX
  8
0
  5
10E0
 10
247.811
 20
156.669
 30
0.000000
  70
    32
  0
VERTEX
  8
0
  5
10E1
 10
247.812
 20
156.675
 30
0.000000
  70
    32
  0
VERTEX
  8
0
  5
10E2
 10
247.813
 20
156.680
 30
0.000000
  70
    32
  0
VERTEX
  8
0
  5
10E3
 10
247.813
 20
156.686
 30
0.000000
  70
    32
  0
VERTEX
  8
0
  5
10E4
 10
247.814
 20
156.692
 30
0.000000
  70
    32
  0
VERTEX
  8
0
  5
10E5
 10
247.815
 20
156.697
 30
0.000000
  70
    32
  0
VERTEX
  8
0
  5
10E6
 10
247.816
 20
156.703
 30
0.000000
  70
    32
  0
VERTEX
  8
0
  5
10E7
 10
247.817
 20
156.708
 30
0.000000
  70
    32
  0
VERTEX
  8
0
  5
10E8
 10
247.818
 20
156.714
 30
0.000000
  70
    32
  0
VERTEX
  8
0
  5
10E9
 10
247.819
 20
156.719
 30
0.000000
  70
    32
  0
VERTEX
  8
0
  5
10EA
 10
247.820
 20
156.724
 30
0.000000
  70
    32
  0
VERTEX
  8
0
  5
10EB
 10
247.821
 20
156.730
 30
0.000000
  70
    32
  0
VERTEX
  8
0
  5
10EC
 10
247.822
 20
156.735
 30
0.000000
  70
    32
  0
VERTEX
  8
0
  5
10ED
 10
247.823
 20
156.740
 30
0.000000
  70
    32
  0
VERTEX
  8
0
  5
10EE
 10
247.825
 20
156.746
 30
0.000000
  70
    32
  0
VERTEX
  8
0
  5
10EF
 10
247.826
 20
156.751
 30
0.000000
  70
    32
  0
VERTEX
  8
0
  5
10F0
 10
247.827
 20
156.756
 30
0.000000
  70
    32
  0
VERTEX
  8
0
  5
10F1
 10
247.828
 20
156.761
 30
0.000000
  70
    32
  0
VERTEX
  8
0
  5
10F2
 10
247.829
 20
156.766
 30
0.000000
  70
    32
  0
VERTEX
  8
0
  5
10F3
 10
247.830
 20
156.771
 30
0.000000
  70
    32
  0
VERTEX
  8
0
  5
10F4
 10
247.832
 20
156.776
 30
0.000000
  70
    32
  0
VERTEX
  8
0
  5
10F5
 10
247.833
 20
156.781
 30
0.000000
  70
    32
  0
VERTEX
  8
0
  5
10F6
 10
247.834
 20
156.786
 30
0.000000
  70
    32
  0
VERTEX
  8
0
  5
10F7
 10
247.836
 20
156.791
 30
0.000000
  70
    32
  0
VERTEX
  8
0
  5
10F8
 10
247.837
 20
156.795
 30
0.000000
  70
    32
  0
VERTEX
  8
0
  5
10F9
 10
247.838
 20
156.800
 30
0.000000
  70
    32
  0
VERTEX
  8
0
  5
10FA
 10
247.840
 20
156.805
 30
0.000000
  70
    32
  0
VERTEX
  8
0
  5
10FB
 10
247.841
 20
156.810
 30
0.000000
  70
    32
  0
VERTEX
  8
0
  5
10FC
 10
247.842
 20
156.814
 30
0.000000
  70
    32
  0
VERTEX
  8
0
  5
10FD
 10
247.844
 20
156.819
 30
0.000000
  70
    32
  0
VERTEX
  8
0
  5
10FE
 10
247.845
 20
156.823
 30
0.000000
  70
    32
  0
VERTEX
  8
0
  5
10FF
 10
247.847
 20
156.828
 30
0.000000
  70
    32
  0
VERTEX
  8
0
  5
1100
 10
247.848
 20
156.832
 30
0.000000
  70
    32
  0
VERTEX
  8
0
  5
1101
 10
247.850
 20
156.836
 30
0.000000
  70
    32
  0
VERTEX
  8
0
  5
1102
 10
247.851
 20
156.841
 30
0.000000
  70
    32
  0
VERTEX
  8
0
  5
1103
 10
247.853
 20
156.845
 30
0.000000
  70
    32
  0
VERTEX
  8
0
  5
1104
 10
247.854
 20
156.849
 30
0.000000
  70
    32
  0
VERTEX
  8
0
  5
1105
 10
247.856
 20
156.853
 30
0.000000
  70
    32
  0
VERTEX
  8
0
  5
1106
 10
247.858
 20
156.857
 30
0.000000
  70
    32
  0
VERTEX
  8
0
  5
1107
 10
247.859
 20
156.861
 30
0.000000
  70
    32
  0
VERTEX
  8
0
  5
1108
 10
247.861
 20
156.865
 30
0.000000
  70
    32
  0
VERTEX
  8
0
  5
1109
 10
247.862
 20
156.869
 30
0.000000
  70
    32
  0
VERTEX
  8
0
  5
110A
 10
247.864
 20
156.873
 30
0.000000
  70
    32
  0
VERTEX
  8
0
  5
110B
 10
247.866
 20
156.876
 30
0.000000
  70
    32
  0
VERTEX
  8
0
  5
110C
 10
247.867
 20
156.880
 30
0.000000
  70
    32
  0
VERTEX
  8
0
  5
110D
 10
247.869
 20
156.884
 30
0.000000
  70
    32
  0
VERTEX
  8
0
  5
110E
 10
247.871
 20
156.887
 30
0.000000
  70
    32
  0
VERTEX
  8
0
  5
110F
 10
247.873
 20
156.891
 30
0.000000
  70
    32
  0
VERTEX
  8
0
  5
1110
 10
247.874
 20
156.894
 30
0.000000
  70
    32
  0
VERTEX
  8
0
  5
1111
 10
247.876
 20
156.898
 30
0.000000
  70
    32
  0
VERTEX
  8
0
  5
1112
 10
247.878
 20
156.901
 30
0.000000
  70
    32
  0
VERTEX
  8
0
  5
1113
 10
247.880
 20
156.904
 30
0.000000
  70
    32
  0
VERTEX
  8
0
  5
1114
 10
247.882
 20
156.908
 30
0.000000
  70
    32
  0
VERTEX
  8
0
  5
1115
 10
247.883
 20
156.911
 30
0.000000
  70
    32
  0
VERTEX
  8
0
  5
1116
 10
247.885
 20
156.914
 30
0.000000
  70
    32
  0
VERTEX
  8
0
  5
1117
 10
247.887
 20
156.917
 30
0.000000
  70
    32
  0
VERTEX
  8
0
  5
1118
 10
247.889
 20
156.920
 30
0.000000
  70
    32
  0
VERTEX
  8
0
  5
1119
 10
247.891
 20
156.923
 30
0.000000
  70
    32
  0
VERTEX
  8
0
  5
111A
 10
247.893
 20
156.925
 30
0.000000
  70
    32
  0
VERTEX
  8
0
  5
111B
 10
247.895
 20
156.928
 30
0.000000
  70
    32
  0
VERTEX
  8
0
  5
111C
 10
247.896
 20
156.931
 30
0.000000
  70
    32
  0
VERTEX
  8
0
  5
111D
 10
247.898
 20
156.933
 30
0.000000
  70
    32
  0
VERTEX
  8
0
  5
111E
 10
247.900
 20
156.936
 30
0.000000
  70
    32
  0
VERTEX
  8
0
  5
111F
 10
247.902
 20
156.938
 30
0.000000
  70
    32
  0
VERTEX
  8
0
  5
1120
 10
247.904
 20
156.941
 30
0.000000
  70
    32
  0
VERTEX
  8
0
  5
1121
 10
247.906
 20
156.943
 30
0.000000
  70
    32
  0
VERTEX
  8
0
  5
1122
 10
247.908
 20
156.945
 30
0.000000
  70
    32
  0
VERTEX
  8
0
  5
1123
 10
247.910
 20
156.947
 30
0.000000
  70
    32
  0
VERTEX
  8
0
  5
1124
 10
247.912
 20
156.950
 30
0.000000
  70
    32
  0
VERTEX
  8
0
  5
1125
 10
247.914
 20
156.952
 30
0.000000
  70
    32
  0
VERTEX
  8
0
  5
1126
 10
247.916
 20
156.954
 30
0.000000
  70
    32
  0
VERTEX
  8
0
  5
1127
 10
247.918
 20
156.956
 30
0.000000
  70
    32
  0
VERTEX
  8
0
  5
1128
 10
247.920
 20
156.957
 30
0.000000
  70
    32
  0
VERTEX
  8
0
  5
1129
 10
247.922
 20
156.959
 30
0.000000
  70
    32
  0
VERTEX
  8
0
  5
112A
 10
247.924
 20
156.961
 30
0.000000
  70
    32
  0
VERTEX
  8
0
  5
112B
 10
247.926
 20
156.962
 30
0.000000
  70
    32
  0
VERTEX
  8
0
  5
112C
 10
247.928
 20
156.964
 30
0.000000
  70
    32
  0
VERTEX
  8
0
  5
112D
 10
247.930
 20
156.965
 30
0.000000
  70
    32
  0
VERTEX
  8
0
  5
112E
 10
247.932
 20
156.967
 30
0.000000
  70
    32
  0
VERTEX
  8
0
  5
112F
 10
247.934
 20
156.968
 30
0.000000
  70
    32
  0
VERTEX
  8
0
  5
1130
 10
247.937
 20
156.969
 30
0.000000
  70
    32
  0
VERTEX
  8
0
  5
1131
 10
247.939
 20
156.970
 30
0.000000
  70
    32
  0
VERTEX
  8
0
  5
1132
 10
247.941
 20
156.972
 30
0.000000
  70
    32
  0
VERTEX
  8
0
  5
1133
 10
247.943
 20
156.973
 30
0.000000
  70
    32
  0
VERTEX
  8
0
  5
1134
 10
247.945
 20
156.974
 30
0.000000
  70
    32
  0
VERTEX
  8
0
  5
1135
 10
247.947
 20
156.974
 30
0.000000
  70
    32
  0
VERTEX
  8
0
  5
1136
 10
247.949
 20
156.975
 30
0.000000
  70
    32
  0
VERTEX
  8
0
  5
1137
 10
247.951
 20
156.976
 30
0.000000
  70
    32
  0
VERTEX
  8
0
  5
1138
 10
247.953
 20
156.977
 30
0.000000
  70
    32
  0
VERTEX
  8
0
  5
1139
 10
247.955
 20
156.977
 30
0.000000
  70
    32
  0
VERTEX
  8
0
  5
113A
 10
247.957
 20
156.978
 30
0.000000
  70
    32
  0
VERTEX
  8
0
  5
113B
 10
247.960
 20
156.978
 30
0.000000
  70
    32
  0
VERTEX
  8
0
  5
113C
 10
247.962
 20
156.978
 30
0.000000
  70
    32
  0
VERTEX
  8
0
  5
113D
 10
247.964
 20
156.979
 30
0.000000
  70
    32
  0
VERTEX
  8
0
  5
113E
 10
247.966
 20
156.979
 30
0.000000
  70
    32
  0
VERTEX
  8
0
  5
113F
 10
247.968
 20
156.979
 30
0.000000
  70
    32
  0
VERTEX
  8
0
  5
1140
 10
247.970
 20
156.979
 30
0.000000
  70
    32
  0
SEQEND
  8
0
  5
1141
  0
LINE
  5
AB4
  8
0
 10
251.22472198496371
 20
161.4904490853784
 30
0.0
 11
250.72472198496379
 21
141.97893375426929
 31
0.0
  0
LINE
  5
AB5
  8
0
 10
237.22472198496379
 20
161.4904490853784
 30
0.0
 11
237.72472198496379
 21
141.97893375426929
 31
0.0
  0
CIRCLE
  5
AC8
  8
3
 10
155.1015004506622
 20
44.990997301702151
 30
0.0
 40
2.5
  0
CIRCLE
  5
AC9
  8
0
 10
155.1015004506622
 20
44.990997301702151
 30
0.0
 40
3.0
  0
LINE
  5
C6E
  8
0
 10
97.526946618948614
 20
87.978933754269349
 30
0.0
 11
93.526946618948614
 21
87.978933754269363
 31
0.0
  0
LINE
  5
C6F
  8
0
 10
92.526946618948614
 20
137.97893375426929
 30
0.0
 11
92.526946618948614
 21
88.978933754269349
 31
0.0
  0
LINE
  5
C70
  8
3
 10
93.068446618948556
 20
135.97893375426941
 30
0.0
 11
93.068446618948613
 21
88.437433754269392
 31
0.0
  0
LINE
  5
C71
  8
3
 10
97.985446618948743
 20
135.97893375426929
 30
0.0
 11
97.985446618948757
 21
88.437433754269478
 31
0.0
  0
LINE
  5
C72
  8
0
 10
98.526946618948671
 20
137.97893375426929
 30
0.0
 11
98.526946618948372
 21
88.978933754269121
 31
0.0
  0
LINE
  5
C73
  8
0
 10
98.526946618948614
 20
88.978933754269349
 30
0.0
 11
97.526946618948614
 21
87.978933754269349
 31
0.0
  0
LINE
  5
C74
  8
0
 10
93.526946618948614
 20
87.978933754269363
 30
0.0
 11
92.526946618948614
 21
88.978933754269363
 31
0.0
  0
LINE
  5
C75
  8
0
 10
92.526946618948614
 20
88.978933754269363
 30
0.0
 11
98.526946618948614
 21
88.978933754269349
 31
0.0
  0
LINE
  5
C76
  8
0
 10
92.526946618948614
 20
135.97893375426941
 30
0.0
 11
98.526946618948614
 21
135.97893375426929
 31
0.0
  0
LINE
  5
C77
  8
3
 10
97.985446618948743
 20
135.97893375426929
 30
0.0
 11
98.526946618948671
 21
136.91683926656771
 31
0.0
  0
LINE
  5
C78
  8
3
 10
93.068446618948599
 20
135.97893375426929
 30
0.0
 11
92.526946618948671
 21
136.91683926656771
 31
0.0
  0
LINE
  5
C7C
  8
3
 10
152.63300045066211
 20
135.97893375426941
 30
0.0
 11
152.63300045066211
 21
88.437433754269421
 31
0.0
  0
LINE
  5
C7D
  8
3
 10
157.5500004506622
 20
135.97893375426929
 30
0.0
 11
157.550000450662
 21
88.43743375426925
 31
0.0
  0
LINE
  5
C7E
  8
0
 10
158.0915004506621
 20
137.97893375426929
 30
0.0
 11
158.0915004506621
 21
88.978933754269349
 31
0.0
  0
LINE
  5
C7F
  8
0
 10
152.09150045066221
 20
137.97893375426929
 30
0.0
 11
152.09150045066221
 21
88.978933754269349
 31
0.0
  0
LINE
  5
C80
  8
0
 10
152.09150045066221
 20
88.978933754269363
 30
0.0
 11
158.0915004506621
 21
88.978933754269349
 31
0.0
  0
LINE
  5
C81
  8
0
 10
157.09150045066221
 20
87.978933754269349
 30
0.0
 11
153.0915004506621
 21
87.978933754269363
 31
0.0
  0
LINE
  5
C82
  8
0
 10
153.0915004506621
 20
87.978933754269363
 30
0.0
 11
152.09150045066221
 21
88.978933754269363
 31
0.0
  0
LINE
  5
C83
  8
0
 10
158.0915004506621
 20
88.978933754269349
 30
0.0
 11
157.09150045066221
 21
87.978933754269349
 31
0.0
  0
LINE
  5
C84
  8
0
 10
152.09150045066221
 20
135.97893375426941
 30
0.0
 11
158.0915004506621
 21
135.97893375426929
 31
0.0
  0
LINE
  5
C85
  8
3
 10
152.63300045066211
 20
135.97893375426929
 30
0.0
 11
152.09150045066221
 21
136.91683926656771
 31
0.0
  0
LINE
  5
C86
  8
3
 10
157.5500004506622
 20
135.97893375426929
 30
0.0
 11
158.0915004506621
 21
136.91683926656771
 31
0.0
  0
LINE
  5
C88
  8
0
 10
241.22472198496379
 20
137.97893375426929
 30
0.0
 11
241.22472198496371
 21
88.978933754269406
 31
0.0
  0
LINE
  5
C89
  8
0
 10
247.22472198496379
 20
137.97893375426929
 30
0.0
 11
247.22472198496379
 21
88.978933754269349
 31
0.0
  0
LINE
  5
C8A
  8
3
 10
246.68322198496389
 20
135.97893375426929
 30
0.0
 11
246.68322198496389
 21
88.437433754269392
 31
0.0
  0
LINE
  5
C8B
  8
3
 10
241.76622198496369
 20
135.97893375426941
 30
0.0
 11
241.76622198496361
 21
88.437433754269421
 31
0.0
  0
LINE
  5
C8C
  8
0
 10
247.22472198496379
 20
88.978933754269349
 30
0.0
 11
246.22472198496379
 21
87.978933754269349
 31
0.0
  0
LINE
  5
C8D
  8
0
 10
242.22472198496379
 20
87.978933754269363
 30
0.0
 11
241.22472198496379
 21
88.978933754269363
 31
0.0
  0
LINE
  5
C8E
  8
0
 10
246.22472198496379
 20
87.978933754269349
 30
0.0
 11
242.22472198496379
 21
87.978933754269363
 31
0.0
  0
LINE
  5
C8F
  8
0
 10
241.22472198496379
 20
88.978933754269363
 30
0.0
 11
247.22472198496379
 21
88.978933754269349
 31
0.0
  0
LINE
  5
C90
  8
3
 10
246.68322198496389
 20
135.97893375426929
 30
0.0
 11
247.22472198496379
 21
136.91683926656771
 31
0.0
  0
LINE
  5
C91
  8
3
 10
241.76622198496381
 20
135.97893375426929
 30
0.0
 11
241.22472198496379
 21
136.91683926656771
 31
0.0
  0
LINE
  5
C92
  8
0
 10
241.22472198496379
 20
135.97893375426941
 30
0.0
 11
247.22472198496379
 21
135.97893375426929
 31
0.0
  0
LINE
  5
CF7
  8
0
 10
99.526946618948656
 20
161.89713698454489
 30
0.0
 11
99.526946618948656
 21
160.77303305456559
 31
0.0
  0
LINE
  5
CF8
  8
0
 10
91.526946618948728
 20
161.89713698454489
 30
0.0
 11
91.526946618948685
 21
160.77303305456559
 31
0.0
  0
LINE
  5
CFB
  8
0
 10
98.283738232400793
 20
162.47893375426941
 30
0.0
 11
92.770155005496505
 21
162.47893375426941
 31
0.0
  0
CIRCLE
  5
D07
  8
0
 10
155.1015004506622
 20
215.0428520699013
 30
0.0
 40
4.0
  0
ARC
  5
D0A
  8
0
 10
153.27083854465019
 20
216.09978521413251
 30
0.0
 40
0.6912500000000005
 50
309.68887794065949
 51
16.658241772777039
  0
ARC
  5
D0B
  8
0
 10
154.31150045066221
 20
216.4111722078807
 30
0.0
 40
0.3949999999999998
 50
43.341758227222279
 51
196.65824177277699
  0
ARC
  5
D0C
  8
0
 10
155.1015004506622
 20
217.15671835836369
 30
0.0
 40
0.6912499999999989
 50
223.3417582272217
 51
316.65824177277773
  0
ARC
  5
D0D
  8
0
 10
155.89150045066211
 20
216.4111722078807
 30
0.0
 40
0.3950000000000002
 50
343.3417582272229
 51
136.65824177277821
  0
ARC
  5
D0E
  8
0
 10
153.27083854465019
 20
213.98591892567001
 30
0.0
 40
0.691250000000001
 50
343.3417582272229
 51
50.311122059331304
  0
ARC
  5
D0F
  8
0
 10
154.31150045066221
 20
213.67453193192179
 30
0.0
 40
0.3950000000000001
 50
163.3417582272229
 51
316.65824177277773
  0
ARC
  5
D10
  8
0
 10
155.1015004506622
 20
212.9289857814388
 30
0.0
 40
0.6912500000000003
 50
43.341758227222279
 51
136.65824177277651
  0
ARC
  5
D11
  8
0
 10
155.89150045066211
 20
213.67453193192179
 30
0.0
 40
0.3949999999999998
 50
223.3417582272217
 51
16.658241772777039
  0
ARC
  5
D12
  8
0
 10
156.9321623566741
 20
213.98591892567001
 30
0.0
 40
0.6912500000000003
 50
129.6888779406687
 51
196.65824177277699
  0
ARC
  5
D13
  8
0
 10
156.9321623566741
 20
216.09978521413251
 30
0.0
 40
0.6912500000000011
 50
163.3417582272229
 51
230.31112205934281
  0
ARC
  5
D14
  8
0
 10
95.526946618948642
 20
154.96893375426939
 30
0.0
 40
8.0
 50
60.000000000000277
 51
69.842683784424523
  0
LINE
  5
D15
  8
0
 10
91.526946618948728
 20
161.89713698454489
 30
0.0
 11
99.526946618948656
 21
161.89713698454489
 31
0.0
  0
ARC
  5
D16
  8
0
 10
95.526946618948642
 20
154.96893375426939
 30
0.0
 40
8.0
 50
110.15731621557541
 51
119.9999999999997
  0
LINE
  5
D17
  8
0
 10
152.35150045066209
 20
214.51785206990121
 30
0.0
 11
153.71228354979621
 21
214.51785206990121
 31
0.0
  0
LINE
  5
D18
  8
0
 10
152.35150045066209
 20
215.56785206990119
 30
0.0
 11
153.7122835497961
 21
215.56785206990119
 31
0.0
  0
LINE
  5
D19
  8
0
 10
156.49071735152819
 20
215.56785206990119
 30
0.0
 11
157.8515004506622
 21
215.56785206990119
 31
0.0
  0
LINE
  5
D1A
  8
0
 10
156.4907173515281
 20
214.51785206990121
 30
0.0
 11
157.8515004506622
 21
214.51785206990129
 31
0.0
  0
ARC
  5
D1B
  8
0
 10
155.1015004506622
 20
215.0428520699013
 30
0.0
 40
2.7567916134521511
 50
355.97735839170269
 51
4.0226416083006269
  0
LINE
  5
D1C
  8
0
 10
157.85150045066209
 20
215.56785206990119
 30
0.0
 11
157.8515004506622
 21
214.51785206990129
 31
0.0
  0
LINE
  5
D1D
  8
0
 10
152.3515004506622
 20
215.56785206990119
 30
0.0
 11
152.3515004506622
 21
214.51785206990121
 31
0.0
  0
ARC
  5
D1E
  8
0
 10
155.1015004506622
 20
215.0428520699013
 30
0.0
 40
2.7567916134521511
 50
10.9783913299381
 51
169.02160867006199
  0
ARC
  5
D1F
  8
0
 10
155.1015004506622
 20
215.0428520699013
 30
0.0
 40
2.7567916134521511
 50
190.97839132993789
 51
349.02160867006188
  0
ARC
  5
D20
  8
0
 10
155.1015004506622
 20
215.0428520699013
 30
0.0
 40
2.7567916134521511
 50
175.97735839169599
 51
184.0226416083039
  0
LINE
  5
D22
  8
0
 10
151.09150045066221
 20
161.89713698454489
 30
0.0
 11
156.06177273051611
 21
161.89713698454489
 31
0.0
  0
ARC
  5
D23
  8
0
 10
155.09150045066221
 20
154.96893375426939
 30
0.0
 40
8.0
 50
69.728484327266742
 51
69.842683784424523
  0
LINE
  5
D24
  8
0
 10
157.8482920641143
 20
162.47893375426941
 30
0.0
 11
152.33470883721
 21
162.47893375426941
 31
0.0
  0
ARC
  5
D26
  8
0
 10
155.09150045066221
 20
154.96893375426939
 30
0.0
 40
8.0
 50
110.15731621557541
 51
119.9999999999997
  0
LINE
  5
D27
  8
0
 10
151.09150045066221
 20
161.89713698454489
 30
0.0
 11
151.09150045066221
 21
160.17552636602409
 31
0.0
  0
POLYLINE
  5
D2B
  8
0
 66
     1
 10
0.0
 20
0.0
 30
0.0
 70
     1
  0
VERTEX
  5
D2C
  8
0
 10
95.526946618948642
 20
159.97182227904551
 30
0.0
 42
0.0369961751362825
  0
VERTEX
  5
D3B
  8
0
 10
97.451164647339624
 20
160.1143948348803
 30
0.0
 42
0.0493901968535028
  0
VERTEX
  5
D2D
  8
0
 10
98.854237722377135
 20
160.4676071225461
 30
0.0
 42
0.0927145054768078
 70
     2
 50
19.785242158454281
  0
VERTEX
  5
D3C
  8
0
 10
99.990334186282041
 20
161.13359816400859
 30
0.0
 42
0.2172434185888009
 50
19.785242158454281
  0
VERTEX
  5
D2E
  8
0
 10
100.2324468233805
 20
161.66453761574431
 30
0.0
 42
0.217243418588822
  0
VERTEX
  5
D35
  8
0
 10
99.990334186282041
 20
162.19547706748
 30
0.0
 42
0.092714505476826
  0
VERTEX
  5
D2F
  8
0
 10
98.854237722377135
 20
162.8614681089426
 30
0.0
 42
0.0493901968535034
 70
     2
 50
160.21475784154561
  0
VERTEX
  5
D36
  8
0
 10
97.451164647339624
 20
163.2146803966084
 30
0.0
 42
0.0369961751362825
 50
160.21475784154561
  0
VERTEX
  5
D30
  8
0
 10
95.526946618948642
 20
163.35725295244319
 30
0.0
 42
0.0369961751362835
  0
VERTEX
  5
D37
  8
0
 10
93.602728590557717
 20
163.2146803966084
 30
0.0
 42
0.0493901968535076
  0
VERTEX
  5
D31
  8
0
 10
92.199655515520135
 20
162.8614681089426
 30
0.0
 42
0.092714505476805
 70
     2
 50
199.78524215845431
  0
VERTEX
  5
D38
  8
0
 10
91.063559051615229
 20
162.19547706748
 30
0.0
 42
0.2172434185887893
 50
199.78524215845431
  0
VERTEX
  5
D32
  8
0
 10
90.821446414516714
 20
161.66453761574431
 30
0.0
 42
0.2172434185888009
  0
VERTEX
  5
D39
  8
0
 10
91.063559051615243
 20
161.13359816400859
 30
0.0
 42
0.0927145054768073
  0
VERTEX
  5
D33
  8
0
 10
92.199655515520135
 20
160.4676071225461
 30
0.0
 42
0.0493901968534889
 70
     2
 50
340.21475784154569
  0
VERTEX
  5
D3A
  8
0
 10
93.602728590557717
 20
160.11439483488019
 30
0.0
 42
0.0369961751362688
 50
340.21475784154569
  0
SEQEND
  5
D34
  8
0
  0
TEXT
  5
E27
  8
0
 62
     3
 10
0.0
 20
0.0
 30
0.0
 40
10.0
  1
FKR6X50-SV
  7
STANDARD1
  0
ENDSEC
  0
EOF
