  0
SECTION
  2
HEADER
  9
$ACADVER
  1
AC1009
  9
$INSBASE
 10
0.0
 20
0.0
 30
0.0
  9
$EXTMIN
 10
0.0
 20
-2.960436562073669
 30
0.0
  9
$EXTMAX
 10
249.5
 20
252.9999999999998
 30
0.0
  9
$LIMMIN
 10
0.0
 20
0.0
  9
$LIMMAX
 10
187.5
 20
135.0
  9
$ORTHOMODE
 70
     1
  9
$REGENMODE
 70
     1
  9
$FILLMODE
 70
     1
  9
$QTEXTMODE
 70
     0
  9
$MIRRTEXT
 70
     0
  9
$DRAGMODE
 70
     2
  9
$LTSCALE
 40
10.0
  9
$OSMODE
 70
    37
  9
$ATTMODE
 70
     1
  9
$TEXTSIZE
 40
4.0
  9
$TRACEWID
 40
0.05
  9
$TEXTSTYLE
  7
STANDARD
  9
$CLAYER
  8
0
  9
$CELTYPE
  6
BYLAYER
  9
$CECOLOR
 62
   256
  9
$DIMSCALE
 40
0.5
  9
$DIMASZ
 40
3.0
  9
$DIMEXO
 40
2.0
  9
$DIMDLI
 40
0.38
  9
$DIMRND
 40
0.0
  9
$DIMDLE
 40
0.0
  9
$DIMEXE
 40
2.0
  9
$DIMTP
 40
0.0
  9
$DIMTM
 40
0.0
  9
$DIMTXT
 40
3.0
  9
$DIMCEN
 40
0.0
  9
$DIMTSZ
 40
0.0
  9
$DIMTOL
 70
     0
  9
$DIMLIM
 70
     0
  9
$DIMTIH
 70
     0
  9
$DIMTOH
 70
     0
  9
$DIMSE1
 70
     0
  9
$DIMSE2
 70
     0
  9
$DIMTAD
 70
     1
  9
$DIMZIN
 70
     0
  9
$DIMBLK
  1

  9
$DIMASO
 70
     0
  9
$DIMSHO
 70
     0
  9
$DIMPOST
  1

  9
$DIMAPOST
  1

  9
$DIMALT
 70
     0
  9
$DIMALTD
 70
     2
  9
$DIMALTF
 40
25.399999999999999
  9
$DIMLFAC
 40
1.0
  9
$DIMTOFL
 70
     0
  9
$DIMTVP
 40
1.6000000000000001
  9
$DIMTIX
 70
     1
  9
$DIMSOXD
 70
     0
  9
$DIMSAH
 70
     0
  9
$DIMBLK1
  1

  9
$DIMBLK2
  1

  9
$DIMSTYLE
  2
STANDARD
  9
$DIMCLRD
 70
     0
  9
$DIMCLRE
 70
     0
  9
$DIMCLRT
 70
     0
  9
$DIMTFAC
 40
1.0
  9
$DIMGAP
 40
0.09
  9
$LUNITS
 70
     2
  9
$LUPREC
 70
     4
  9
$SKETCHINC
 40
0.1
  9
$FILLETRAD
 40
1.25
  9
$AUNITS
 70
     0
  9
$AUPREC
 70
     0
  9
$MENU
  1
E:\r13\win\SUPPORT\ACAD
  9
$ELEVATION
 40
0.0
  9
$PELEVATION
 40
0.0
  9
$THICKNESS
 40
0.0
  9
$LIMCHECK
 70
     0
  9
$BLIPMODE
 70
     0
  9
$CHAMFERA
 40
0.0
  9
$CHAMFERB
 40
0.0
  9
$SKPOLY
 70
     0
  9
$TDCREATE
 40
2449840.6143865739
  9
$TDUPDATE
 40
2456806.3839088432
  9
$TDINDWG
 40
0.2428967593
  9
$TDUSRTIMER
 40
0.2428967593
  9
$USRTIMER
 70
     1
  9
$ANGBASE
 50
0.0
  9
$ANGDIR
 70
     0
  9
$PDMODE
 70
     0
  9
$PDSIZE
 40
0.0
  9
$PLINEWID
 40
0.0
  9
$COORDS
 70
     1
  9
$SPLFRAME
 70
     0
  9
$SPLINETYPE
 70
     6
  9
$SPLINESEGS
 70
     8
  9
$ATTDIA
 70
     0
  9
$ATTREQ
 70
     1
  9
$HANDLING
 70
     1
  9
$HANDSEED
  5
1685
  9
$SURFTAB1
 70
     6
  9
$SURFTAB2
 70
     6
  9
$SURFTYPE
 70
     6
  9
$SURFU
 70
     6
  9
$SURFV
 70
     6
  9
$UCSNAME
  2

  9
$UCSORG
 10
0.0
 20
0.0
 30
0.0
  9
$UCSXDIR
 10
1.0
 20
0.0
 30
0.0
  9
$UCSYDIR
 10
0.0
 20
1.0
 30
0.0
  9
$PUCSNAME
  2

  9
$PUCSORG
 10
0.0
 20
0.0
 30
0.0
  9
$PUCSXDIR
 10
1.0
 20
0.0
 30
0.0
  9
$PUCSYDIR
 10
0.0
 20
1.0
 30
0.0
  9
$USERI1
 70
     0
  9
$USERI2
 70
     1
  9
$USERI3
 70
     1
  9
$USERI4
 70
     0
  9
$USERI5
 70
     0
  9
$USERR1
 40
0.0
  9
$USERR2
 40
0.0
  9
$USERR3
 40
0.0
  9
$USERR4
 40
0.0
  9
$USERR5
 40
0.0
  9
$WORLDVIEW
 70
     1
  9
$SHADEDGE
 70
     3
  9
$SHADEDIF
 70
    70
  9
$TILEMODE
 70
     1
  9
$MAXACTVP
 70
    16
  9
$PLIMCHECK
 70
     0
  9
$PEXTMIN
 10
1.0000000000000000E+020
 20
1.0000000000000000E+020
 30
1.0000000000000000E+020
  9
$PEXTMAX
 10
-1.0000000000000000E+020
 20
-1.0000000000000000E+020
 30
-1.0000000000000000E+020
  9
$PLIMMIN
 10
0.0
 20
0.0
  9
$PLIMMAX
 10
12.0
 20
9.0
  9
$UNITMODE
 70
     0
  9
$VISRETAIN
 70
     0
  9
$PLINEGEN
 70
     0
  9
$PSLTSCALE
 70
     0
  0
ENDSEC
  0
SECTION
  2
TABLES
  0
TABLE
  2
VPORT
 70
     1
  0
VPORT
  2
*ACTIVE
 70
     0
 10
0.0
 20
0.0
 11
1.0
 21
1.0
 12
235.63977746870651
 22
135.0
 13
0.0
 23
0.0
 14
5.0
 24
5.0
 15
5.0
 25
5.0
 16
0.0
 26
0.0
 36
1.0
 17
0.0
 27
0.0
 37
0.0
 40
270.0
 41
1.7454798331015291
 42
50.0
 43
0.0
 44
0.0
 50
0.0
 51
0.0
 71
     0
 72
   100
 73
     1
 74
     0
 75
     0
 76
     0
 77
     0
 78
     0
  0
ENDTAB
  0
TABLE
  2
LTYPE
 70
     3
  0
LTYPE
  2
CONTINUOUS
 70
     0
  3
Solid Line
 72
    65
 73
     0
 40
0.0
  0
LTYPE
  2
CENTER
 70
     0
  3
____ _ ____ _ ____ _ ____ _ ____ _ ____ _ ____
 72
    65
 73
     4
 40
2.0
 49
1.25
 49
-0.25
 49
0.25
 49
-0.25
  0
LTYPE
  2
PHANTOM2
 70
     0
  3
___ _ _ ___ _ _ ___ _ _ ___ _ _
 72
    65
 73
     6
 40
1.25
 49
0.625
 49
-0.125
 49
0.125
 49
-0.125
 49
0.125
 49
-0.125
  0
ENDTAB
  0
TABLE
  2
LAYER
 70
     3
  0
LAYER
  2
0
 70
     0
 62
     7
  6
CONTINUOUS
  0
LAYER
  2
1
 70
     0
 62
     1
  6
CENTER
  0
LAYER
  2
3
 70
     0
 62
     3
  6
CONTINUOUS
  0
ENDTAB
  0
TABLE
  2
STYLE
 70
     2
  0
STYLE
  2
STANDARD
 70
     0
 40
0.0
 41
1.0
 50
0.0
 71
     0
 42
4.0
  3
TXT
  4
BIGFONT
  0
STYLE
  2
STANDARD1
 70
     0
 40
0.0
 41
1.0
 50
0.0
 71
     0
 42
3.0
  3
txt
  4

  0
ENDTAB
  0
TABLE
  2
VIEW
 70
     1
  0
VIEW
  2
ALL
 70
     0
 40
179.66152299999999
 10
141.903918
 20
89.830760999999995
 41
0.0
 11
0.0
 21
0.0
 31
1.0
 12
0.0
 22
0.0
 32
0.0
 42
0.0
 43
0.0
 44
0.0
 50
0.0
 71
     0
  0
ENDTAB
  0
TABLE
  2
UCS
 70
     0
  0
ENDTAB
  0
TABLE
  2
APPID
 70
     5
  0
APPID
  2
ACAD
 70
     0
  0
APPID
  2
DCO15
 70
     0
  0
APPID
  2
ACAD_MLEADERVER
 70
     0
  0
APPID
  2
ACAD_EXEMPT_FROM_CAD_STANDARDS
 70
     0
  0
APPID
  2
ACAD_NAV_VCDISPLAY
 70
     0
  0
ENDTAB
  0
TABLE
  2
DIMSTYLE
 70
     1
  0
DIMSTYLE
  2
STANDARD
 70
     0
  3

  4

  5

  6

  7

 40
1.0
 41
0.18
 42
0.0625
 43
0.38
 44
0.18
 45
0.0
 46
0.0
 47
0.0
 48
0.0
140
0.18
141
0.09
142
0.0
143
25.399999999999999
144
1.0
145
0.0
146
1.0
147
0.09
 71
     0
 72
     0
 73
     1
 74
     1
 75
     0
 76
     0
 77
     0
 78
     0
170
     0
171
     2
172
     0
173
     0
174
     0
175
     0
176
     0
177
     0
178
     0
  0
ENDTAB
  0
ENDSEC
  0
SECTION
  2
BLOCKS
  0
BLOCK
  8
0
  2
$MODEL_SPACE
 70
     0
 10
0.0
 20
0.0
 30
0.0
  3
$MODEL_SPACE
  1

  0
ENDBLK
  5
1BD
  8
0
  0
BLOCK
 67
     1
  8
0
  2
$PAPER_SPACE
 70
     0
 10
0.0
 20
0.0
 30
0.0
  3
$PAPER_SPACE
  1

  0
ENDBLK
  5
1BB
 67
     1
  8
0
  0
ENDSEC
  0
SECTION
  2
ENTITIES
  0
TEXT
  5
10C8
  8
0
 62
     3
 10
0.0
 20
0.0
 30
0.0
 40
10.0
  1
FKR8X40L-RE
  7
STANDARD1
  0
LINE
  5
11E5
  8
1
 10
190.0
 20
238.4999999999998
 30
0.0
 11
105.5
 21
238.4999999999998
 31
0.0
  0
ARC
  5
11E6
  8
0
 10
120.0
 20
238.4999999999998
 30
0.0
 40
9.5
 50
43.960390333332192
 51
167.09375167335921
  0
ARC
  5
11E7
  8
0
 10
139.36028751864029
 20
193.9160051119085
 30
0.0
 40
40.0
 50
76.417232813750033
 51
108.2431324165663
  0
ARC
  5
11E8
  8
0
 10
139.36028751864029
 20
283.08399488809113
 30
0.0
 40
40.0
 50
251.75686758343369
 51
283.5827671862499
  0
ARC
  5
11E9
  8
0
 10
120.0
 20
238.4999999999998
 30
0.0
 40
9.5
 50
192.90624832664039
 51
316.0396096666725
  0
LINE
  5
11EA
  8
1
 10
120.0
 20
252.9999999999998
 30
0.0
 11
120.0
 21
223.9999999999998
 31
0.0
  0
CIRCLE
  5
11EB
  8
0
 10
120.77271474715469
 20
238.4999999999998
 30
0.0
 40
5.3807200853997337
  0
LINE
  5
11EC
  8
0
 10
110.73999999999999
 20
236.37811404641991
 30
0.0
 11
110.73999999999999
 21
240.62188595357981
 31
0.0
  0
LINE
  5
11ED
  8
0
 10
150.10911167092621
 20
232.6606928650279
 30
0.0
 11
180.25
 21
233.7499999999998
 31
0.0
  0
LINE
  5
11EE
  8
0
 10
150.10911167092621
 20
244.33930713497179
 30
0.0
 11
180.25
 21
243.2499999999998
 31
0.0
  0
ARC
  5
11EF
  8
0
 10
149.92852700679009
 20
237.65743071877591
 30
0.0
 40
5.0
 50
256.41723281374999
 51
272.06979797178479
  0
ARC
  5
11F0
  8
0
 10
149.92852700679009
 20
239.34256928122369
 30
0.0
 40
5.0
 50
87.930202028215163
 51
103.58276718625
  0
ARC
  5
11F1
  8
0
 10
180.25
 20
238.4999999999998
 30
0.0
 40
4.75
 50
270.0
 51
90.0
  0
LINE
  5
11F2
  8
0
 10
110.73999999999999
 20
161.0804555099555
 30
0.0
 11
110.73999999999999
 21
146.4999999999998
 31
0.0
  0
LINE
  5
11F3
  8
0
 10
129.24000000000001
 20
146.4999999999998
 30
0.0
 11
129.24000000000001
 21
157.4999999999998
 31
0.0
  0
LINE
  5
11F4
  8
0
 10
181.21461171506971
 20
172.80869020740829
 30
0.0
 11
173.9526256733584
 21
170.52178141232019
 31
0.0
  0
LINE
  5
11F5
  8
0
 10
170.9488969616329
 20
170.0599999999998
 30
0.0
 11
162.14514045621991
 21
170.0599999999998
 31
0.0
  0
LINE
  5
11F6
  8
0
 10
129.24000000000001
 20
146.4999999999998
 30
0.0
 11
110.73999999999999
 21
146.4999999999998
 31
0.0
  0
LINE
  5
11F7
  8
0
 10
126.75
 20
139.9999999999998
 30
0.0
 11
126.75
 21
146.4999999999998
 31
0.0
  0
LINE
  5
11F8
  8
0
 10
113.25
 20
146.4999999999998
 30
0.0
 11
113.25
 21
139.9999999999998
 31
0.0
  0
LINE
  5
11F9
  8
0
 10
113.25
 20
139.9999999999998
 30
0.0
 11
126.75
 21
139.9999999999998
 31
0.0
  0
LINE
  5
11FA
  8
1
 10
120.0
 20
172.69999999999979
 30
0.0
 11
120.0
 21
94.999999999999801
 31
0.0
  0
ARC
  5
1208
  8
0
 10
120.0
 20
50.0
 30
0.0
 40
9.5
 50
43.960390333332192
 51
167.09375167335921
  0
ARC
  5
1209
  8
0
 10
120.0
 20
50.0
 30
0.0
 40
9.5
 50
192.90624832664039
 51
316.0396096666725
  0
LINE
  5
120A
  8
1
 10
190.0
 20
50.000000000000021
 30
0.0
 11
105.5
 21
50.0
 31
0.0
  0
LINE
  5
120B
  8
1
 10
120.0
 20
64.5
 30
0.0
 11
120.0
 21
35.499999999999993
 31
0.0
  0
LINE
  5
120C
  8
0
 10
110.73999999999999
 20
47.878114046420073
 30
0.0
 11
110.73999999999999
 21
52.121885953579941
 31
0.0
  0
LINE
  5
120D
  8
0
 10
150.10911167092621
 20
44.160692865028061
 30
0.0
 11
180.25
 21
45.249999999999993
 31
0.0
  0
LINE
  5
120E
  8
0
 10
150.10911167092621
 20
55.839307134971982
 30
0.0
 11
180.25
 21
54.750000000000021
 31
0.0
  0
ARC
  5
120F
  8
0
 10
139.36028751864029
 20
5.4160051119087518
 30
0.0
 40
40.0
 50
76.417232813750033
 51
108.2431324165663
  0
ARC
  5
1210
  8
0
 10
149.92852700679009
 20
49.157430718776141
 30
0.0
 40
5.0
 50
256.41723281374999
 51
272.06979797178479
  0
ARC
  5
1211
  8
0
 10
139.36028751864029
 20
94.583994888091297
 30
0.0
 40
40.0
 50
251.75686758343369
 51
283.5827671862499
  0
ARC
  5
1212
  8
0
 10
149.92852700679009
 20
50.842569281223909
 30
0.0
 40
5.0
 50
87.930202028215163
 51
103.58276718625
  0
ARC
  5
1213
  8
0
 10
180.25
 20
50.000000000000021
 30
0.0
 40
4.75
 50
270.0
 51
90.0
  0
CIRCLE
  5
1214
  8
0
 10
120.0
 20
50.0
 30
0.0
 40
9.2500000000000213
  0
LINE
  5
1217
  8
0
 10
56.749999999999993
 20
139.9999999999998
 30
0.0
 11
56.749999999999993
 21
146.4999999999998
 31
0.0
  0
LINE
  5
1218
  8
0
 10
43.249999999999993
 20
146.4999999999998
 30
0.0
 11
43.249999999999993
 21
139.9999999999998
 31
0.0
  0
LINE
  5
1219
  8
0
 10
43.249999999999993
 20
139.9999999999998
 30
0.0
 11
56.749999999999993
 21
139.9999999999998
 31
0.0
  0
LINE
  5
121A
  8
0
 10
43.796561456795857
 20
164.7278057706651
 30
0.0
 11
56.203438543204122
 21
164.7278057706651
 31
0.0
  0
LINE
  5
121B
  8
0
 10
59.249999999999993
 20
146.4999999999998
 30
0.0
 11
40.749999999999993
 21
146.4999999999998
 31
0.0
  0
LINE
  5
121C
  8
1
 10
50.0
 20
187.28503422553661
 30
0.0
 11
50.0
 21
95.000000000000554
 31
0.0
  0
ARC
  5
121D
  8
0
 10
181.51158642223149
 20
179.00008346256939
 30
0.0
 40
3.5
 50
4.6633516321973296
 51
90.395685692583854
  0
ARC
  5
121E
  8
0
 10
204.45262704267361
 20
-46.35060424027116
 30
0.0
 40
230.0
 50
95.73046064705224
 51
113.3881784656366
  0
ARC
  5
121F
  8
0
 10
114.73999999999999
 20
161.0804555099555
 30
0.0
 40
4.0
 50
113.38817846562949
 51
180.0
  0
ARC
  5
1220
  8
0
 10
226.4845059332801
 20
-39.84109066738322
 30
0.0
 40
220.0
 50
107.8410827436654
 51
116.2328670297108
  0
ARC
  5
1221
  8
0
 10
162.14514045621991
 20
160.0599999999998
 30
0.0
 40
10.0
 50
90.0
 51
107.8410827436654
  0
ARC
  5
1222
  8
0
 10
170.9488969616329
 20
180.0599999999998
 30
0.0
 40
10.0
 50
270.0
 51
287.47999999999769
  0
ARC
  5
1223
  8
0
 10
177.11794949318249
 20
179.6801790300552
 30
0.0
 40
8.0
 50
300.80266237156832
 51
350.14910440292931
  0
LINE
  5
1224
  8
0
 10
185.0
 20
179.28463699082141
 30
0.0
 11
185.0
 21
178.3115009057403
 31
0.0
  0
LINE
  5
1225
  8
0
 10
51.837265760614052
 20
165.87558680568691
 30
0.0
 11
48.162734239385927
 21
165.87558680568691
 31
0.0
  0
POLYLINE
  5
1226
  8
0
 10
51.837265760614081
 20
165.87558680568694
 30
0.0
 66
     1
 70
     8
  0
VERTEX
  8
0
  5
147D
 10
51.8373
 20
165.876
 30
0.000000
  70
    32
  0
VERTEX
  8
0
  5
147E
 10
52.0544
 20
165.909
 30
0.000000
  70
    32
  0
VERTEX
  8
0
  5
147F
 10
52.2677
 20
165.947
 30
0.000000
  70
    32
  0
VERTEX
  8
0
  5
1480
 10
52.4767
 20
165.988
 30
0.000000
  70
    32
  0
VERTEX
  8
0
  5
1481
 10
52.6809
 20
166.032
 30
0.000000
  70
    32
  0
VERTEX
  8
0
  5
1482
 10
52.8801
 20
166.081
 30
0.000000
  70
    32
  0
VERTEX
  8
0
  5
1483
 10
53.0738
 20
166.132
 30
0.000000
  70
    32
  0
VERTEX
  8
0
  5
1484
 10
53.2616
 20
166.187
 30
0.000000
  70
    32
  0
VERTEX
  8
0
  5
1485
 10
53.4433
 20
166.245
 30
0.000000
  70
    32
  0
VERTEX
  8
0
  5
1486
 10
53.6184
 20
166.306
 30
0.000000
  70
    32
  0
VERTEX
  8
0
  5
1487
 10
53.7866
 20
166.370
 30
0.000000
  70
    32
  0
VERTEX
  8
0
  5
1488
 10
53.9476
 20
166.437
 30
0.000000
  70
    32
  0
VERTEX
  8
0
  5
1489
 10
54.1011
 20
166.507
 30
0.000000
  70
    32
  0
VERTEX
  8
0
  5
148A
 10
54.2468
 20
166.579
 30
0.000000
  70
    32
  0
VERTEX
  8
0
  5
148B
 10
54.3844
 20
166.654
 30
0.000000
  70
    32
  0
VERTEX
  8
0
  5
148C
 10
54.5137
 20
166.731
 30
0.000000
  70
    32
  0
VERTEX
  8
0
  5
148D
 10
54.6344
 20
166.810
 30
0.000000
  70
    32
  0
VERTEX
  8
0
  5
148E
 10
54.7463
 20
166.891
 30
0.000000
  70
    32
  0
VERTEX
  8
0
  5
148F
 10
54.8492
 20
166.974
 30
0.000000
  70
    32
  0
VERTEX
  8
0
  5
1490
 10
54.9429
 20
167.059
 30
0.000000
  70
    32
  0
VERTEX
  8
0
  5
1491
 10
55.0271
 20
167.145
 30
0.000000
  70
    32
  0
VERTEX
  8
0
  5
1492
 10
55.1018
 20
167.233
 30
0.000000
  70
    32
  0
VERTEX
  8
0
  5
1493
 10
55.1668
 20
167.322
 30
0.000000
  70
    32
  0
VERTEX
  8
0
  5
1494
 10
55.2220
 20
167.412
 30
0.000000
  70
    32
  0
VERTEX
  8
0
  5
1495
 10
55.2673
 20
167.503
 30
0.000000
  70
    32
  0
VERTEX
  8
0
  5
1496
 10
55.3025
 20
167.594
 30
0.000000
  70
    32
  0
VERTEX
  8
0
  5
1497
 10
55.3277
 20
167.686
 30
0.000000
  70
    32
  0
VERTEX
  8
0
  5
1498
 10
55.3427
 20
167.779
 30
0.000000
  70
    32
  0
VERTEX
  8
0
  5
1499
 10
55.3476
 20
167.871
 30
0.000000
  70
    32
  0
VERTEX
  8
0
  5
149A
 10
55.3423
 20
167.964
 30
0.000000
  70
    32
  0
VERTEX
  8
0
  5
149B
 10
55.3268
 20
168.056
 30
0.000000
  70
    32
  0
VERTEX
  8
0
  5
149C
 10
55.3012
 20
168.148
 30
0.000000
  70
    32
  0
VERTEX
  8
0
  5
149D
 10
55.2656
 20
168.240
 30
0.000000
  70
    32
  0
VERTEX
  8
0
  5
149E
 10
55.2199
 20
168.330
 30
0.000000
  70
    32
  0
VERTEX
  8
0
  5
149F
 10
55.1643
 20
168.420
 30
0.000000
  70
    32
  0
VERTEX
  8
0
  5
14A0
 10
55.0989
 20
168.509
 30
0.000000
  70
    32
  0
VERTEX
  8
0
  5
14A1
 10
55.0237
 20
168.597
 30
0.000000
  70
    32
  0
VERTEX
  8
0
  5
14A2
 10
54.9391
 20
168.683
 30
0.000000
  70
    32
  0
VERTEX
  8
0
  5
14A3
 10
54.8450
 20
168.768
 30
0.000000
  70
    32
  0
VERTEX
  8
0
  5
14A4
 10
54.7418
 20
168.851
 30
0.000000
  70
    32
  0
VERTEX
  8
0
  5
14A5
 10
54.6295
 20
168.932
 30
0.000000
  70
    32
  0
VERTEX
  8
0
  5
14A6
 10
54.5084
 20
169.011
 30
0.000000
  70
    32
  0
VERTEX
  8
0
  5
14A7
 10
54.3787
 20
169.088
 30
0.000000
  70
    32
  0
VERTEX
  8
0
  5
14A8
 10
54.2407
 20
169.163
 30
0.000000
  70
    32
  0
VERTEX
  8
0
  5
14A9
 10
54.0947
 20
169.235
 30
0.000000
  70
    32
  0
VERTEX
  8
0
  5
14AA
 10
53.9409
 20
169.304
 30
0.000000
  70
    32
  0
VERTEX
  8
0
  5
14AB
 10
53.7795
 20
169.371
 30
0.000000
  70
    32
  0
VERTEX
  8
0
  5
14AC
 10
53.6110
 20
169.435
 30
0.000000
  70
    32
  0
VERTEX
  8
0
  5
14AD
 10
53.4357
 20
169.496
 30
0.000000
  70
    32
  0
VERTEX
  8
0
  5
14AE
 10
53.2538
 20
169.554
 30
0.000000
  70
    32
  0
VERTEX
  8
0
  5
14AF
 10
53.0657
 20
169.609
 30
0.000000
  70
    32
  0
VERTEX
  8
0
  5
14B0
 10
52.8717
 20
169.660
 30
0.000000
  70
    32
  0
VERTEX
  8
0
  5
14B1
 10
52.6723
 20
169.708
 30
0.000000
  70
    32
  0
VERTEX
  8
0
  5
14B2
 10
52.4679
 20
169.753
 30
0.000000
  70
    32
  0
VERTEX
  8
0
  5
14B3
 10
52.2587
 20
169.794
 30
0.000000
  70
    32
  0
VERTEX
  8
0
  5
14B4
 10
52.0453
 20
169.831
 30
0.000000
  70
    32
  0
VERTEX
  8
0
  5
14B5
 10
51.8279
 20
169.864
 30
0.000000
  70
    32
  0
VERTEX
  8
0
  5
14B6
 10
51.6071
 20
169.894
 30
0.000000
  70
    32
  0
VERTEX
  8
0
  5
14B7
 10
51.3833
 20
169.920
 30
0.000000
  70
    32
  0
VERTEX
  8
0
  5
14B8
 10
51.1568
 20
169.942
 30
0.000000
  70
    32
  0
VERTEX
  8
0
  5
14B9
 10
50.9281
 20
169.960
 30
0.000000
  70
    32
  0
VERTEX
  8
0
  5
14BA
 10
50.6976
 20
169.974
 30
0.000000
  70
    32
  0
VERTEX
  8
0
  5
14BB
 10
50.4658
 20
169.984
 30
0.000000
  70
    32
  0
VERTEX
  8
0
  5
14BC
 10
50.2331
 20
169.990
 30
0.000000
  70
    32
  0
VERTEX
  8
0
  5
14BD
 10
50.0000
 20
169.992
 30
0.000000
  70
    32
  0
VERTEX
  8
0
  5
14BE
 10
49.7669
 20
169.990
 30
0.000000
  70
    32
  0
VERTEX
  8
0
  5
14BF
 10
49.5342
 20
169.984
 30
0.000000
  70
    32
  0
VERTEX
  8
0
  5
14C0
 10
49.3024
 20
169.974
 30
0.000000
  70
    32
  0
VERTEX
  8
0
  5
14C1
 10
49.0719
 20
169.960
 30
0.000000
  70
    32
  0
VERTEX
  8
0
  5
14C2
 10
48.8432
 20
169.942
 30
0.000000
  70
    32
  0
VERTEX
  8
0
  5
14C3
 10
48.6167
 20
169.920
 30
0.000000
  70
    32
  0
VERTEX
  8
0
  5
14C4
 10
48.3929
 20
169.894
 30
0.000000
  70
    32
  0
VERTEX
  8
0
  5
14C5
 10
48.1721
 20
169.864
 30
0.000000
  70
    32
  0
VERTEX
  8
0
  5
14C6
 10
47.9547
 20
169.831
 30
0.000000
  70
    32
  0
VERTEX
  8
0
  5
14C7
 10
47.7413
 20
169.794
 30
0.000000
  70
    32
  0
VERTEX
  8
0
  5
14C8
 10
47.5321
 20
169.753
 30
0.000000
  70
    32
  0
VERTEX
  8
0
  5
14C9
 10
47.3277
 20
169.708
 30
0.000000
  70
    32
  0
VERTEX
  8
0
  5
14CA
 10
47.1283
 20
169.660
 30
0.000000
  70
    32
  0
VERTEX
  8
0
  5
14CB
 10
46.9343
 20
169.609
 30
0.000000
  70
    32
  0
VERTEX
  8
0
  5
14CC
 10
46.7462
 20
169.554
 30
0.000000
  70
    32
  0
VERTEX
  8
0
  5
14CD
 10
46.5643
 20
169.496
 30
0.000000
  70
    32
  0
VERTEX
  8
0
  5
14CE
 10
46.3890
 20
169.435
 30
0.000000
  70
    32
  0
VERTEX
  8
0
  5
14CF
 10
46.2205
 20
169.371
 30
0.000000
  70
    32
  0
VERTEX
  8
0
  5
14D0
 10
46.0591
 20
169.304
 30
0.000000
  70
    32
  0
VERTEX
  8
0
  5
14D1
 10
45.9053
 20
169.235
 30
0.000000
  70
    32
  0
VERTEX
  8
0
  5
14D2
 10
45.7593
 20
169.163
 30
0.000000
  70
    32
  0
VERTEX
  8
0
  5
14D3
 10
45.6213
 20
169.088
 30
0.000000
  70
    32
  0
VERTEX
  8
0
  5
14D4
 10
45.4916
 20
169.011
 30
0.000000
  70
    32
  0
VERTEX
  8
0
  5
14D5
 10
45.3705
 20
168.932
 30
0.000000
  70
    32
  0
VERTEX
  8
0
  5
14D6
 10
45.2582
 20
168.851
 30
0.000000
  70
    32
  0
VERTEX
  8
0
  5
14D7
 10
45.1550
 20
168.768
 30
0.000000
  70
    32
  0
VERTEX
  8
0
  5
14D8
 10
45.0609
 20
168.683
 30
0.000000
  70
    32
  0
VERTEX
  8
0
  5
14D9
 10
44.9763
 20
168.597
 30
0.000000
  70
    32
  0
VERTEX
  8
0
  5
14DA
 10
44.9011
 20
168.509
 30
0.000000
  70
    32
  0
VERTEX
  8
0
  5
14DB
 10
44.8357
 20
168.420
 30
0.000000
  70
    32
  0
VERTEX
  8
0
  5
14DC
 10
44.7801
 20
168.330
 30
0.000000
  70
    32
  0
VERTEX
  8
0
  5
14DD
 10
44.7344
 20
168.240
 30
0.000000
  70
    32
  0
VERTEX
  8
0
  5
14DE
 10
44.6988
 20
168.148
 30
0.000000
  70
    32
  0
VERTEX
  8
0
  5
14DF
 10
44.6732
 20
168.056
 30
0.000000
  70
    32
  0
VERTEX
  8
0
  5
14E0
 10
44.6577
 20
167.964
 30
0.000000
  70
    32
  0
VERTEX
  8
0
  5
14E1
 10
44.6524
 20
167.871
 30
0.000000
  70
    32
  0
VERTEX
  8
0
  5
14E2
 10
44.6573
 20
167.779
 30
0.000000
  70
    32
  0
VERTEX
  8
0
  5
14E3
 10
44.6723
 20
167.686
 30
0.000000
  70
    32
  0
VERTEX
  8
0
  5
14E4
 10
44.6975
 20
167.594
 30
0.000000
  70
    32
  0
VERTEX
  8
0
  5
14E5
 10
44.7327
 20
167.503
 30
0.000000
  70
    32
  0
VERTEX
  8
0
  5
14E6
 10
44.7780
 20
167.412
 30
0.000000
  70
    32
  0
VERTEX
  8
0
  5
14E7
 10
44.8332
 20
167.322
 30
0.000000
  70
    32
  0
VERTEX
  8
0
  5
14E8
 10
44.8982
 20
167.233
 30
0.000000
  70
    32
  0
VERTEX
  8
0
  5
14E9
 10
44.9729
 20
167.145
 30
0.000000
  70
    32
  0
VERTEX
  8
0
  5
14EA
 10
45.0571
 20
167.059
 30
0.000000
  70
    32
  0
VERTEX
  8
0
  5
14EB
 10
45.1508
 20
166.974
 30
0.000000
  70
    32
  0
VERTEX
  8
0
  5
14EC
 10
45.2537
 20
166.891
 30
0.000000
  70
    32
  0
VERTEX
  8
0
  5
14ED
 10
45.3656
 20
166.810
 30
0.000000
  70
    32
  0
VERTEX
  8
0
  5
14EE
 10
45.4863
 20
166.731
 30
0.000000
  70
    32
  0
VERTEX
  8
0
  5
14EF
 10
45.6156
 20
166.654
 30
0.000000
  70
    32
  0
VERTEX
  8
0
  5
14F0
 10
45.7532
 20
166.579
 30
0.000000
  70
    32
  0
VERTEX
  8
0
  5
14F1
 10
45.8989
 20
166.507
 30
0.000000
  70
    32
  0
VERTEX
  8
0
  5
14F2
 10
46.0524
 20
166.437
 30
0.000000
  70
    32
  0
VERTEX
  8
0
  5
14F3
 10
46.2134
 20
166.370
 30
0.000000
  70
    32
  0
VERTEX
  8
0
  5
14F4
 10
46.3816
 20
166.306
 30
0.000000
  70
    32
  0
VERTEX
  8
0
  5
14F5
 10
46.5567
 20
166.245
 30
0.000000
  70
    32
  0
VERTEX
  8
0
  5
14F6
 10
46.7384
 20
166.187
 30
0.000000
  70
    32
  0
VERTEX
  8
0
  5
14F7
 10
46.9262
 20
166.132
 30
0.000000
  70
    32
  0
VERTEX
  8
0
  5
14F8
 10
47.1199
 20
166.081
 30
0.000000
  70
    32
  0
VERTEX
  8
0
  5
14F9
 10
47.3191
 20
166.032
 30
0.000000
  70
    32
  0
VERTEX
  8
0
  5
14FA
 10
47.5233
 20
165.988
 30
0.000000
  70
    32
  0
VERTEX
  8
0
  5
14FB
 10
47.7323
 20
165.947
 30
0.000000
  70
    32
  0
VERTEX
  8
0
  5
14FC
 10
47.9456
 20
165.909
 30
0.000000
  70
    32
  0
VERTEX
  8
0
  5
14FD
 10
48.1627
 20
165.876
 30
0.000000
  70
    32
  0
SEQEND
  8
0
  5
14FE
  0
POLYLINE
  5
1227
  8
0
 10
56.203438543204172
 20
164.72780577066501
 30
0.0
 66
     1
 70
     8
  0
VERTEX
  8
0
  5
14FF
 10
56.2034
 20
164.728
 30
0.000000
  70
    32
  0
VERTEX
  8
0
  5
1500
 10
56.4719
 20
164.823
 30
0.000000
  70
    32
  0
VERTEX
  8
0
  5
1501
 10
56.7311
 20
164.921
 30
0.000000
  70
    32
  0
VERTEX
  8
0
  5
1502
 10
56.9806
 20
165.024
 30
0.000000
  70
    32
  0
VERTEX
  8
0
  5
1503
 10
57.2200
 20
165.130
 30
0.000000
  70
    32
  0
VERTEX
  8
0
  5
1504
 10
57.4490
 20
165.240
 30
0.000000
  70
    32
  0
VERTEX
  8
0
  5
1505
 10
57.6673
 20
165.353
 30
0.000000
  70
    32
  0
VERTEX
  8
0
  5
1506
 10
57.8745
 20
165.469
 30
0.000000
  70
    32
  0
VERTEX
  8
0
  5
1507
 10
58.0704
 20
165.588
 30
0.000000
  70
    32
  0
VERTEX
  8
0
  5
1508
 10
58.2547
 20
165.710
 30
0.000000
  70
    32
  0
VERTEX
  8
0
  5
1509
 10
58.4270
 20
165.835
 30
0.000000
  70
    32
  0
VERTEX
  8
0
  5
150A
 10
58.5872
 20
165.962
 30
0.000000
  70
    32
  0
VERTEX
  8
0
  5
150B
 10
58.7350
 20
166.092
 30
0.000000
  70
    32
  0
VERTEX
  8
0
  5
150C
 10
58.8703
 20
166.223
 30
0.000000
  70
    32
  0
VERTEX
  8
0
  5
150D
 10
58.9927
 20
166.357
 30
0.000000
  70
    32
  0
VERTEX
  8
0
  5
150E
 10
59.1022
 20
166.492
 30
0.000000
  70
    32
  0
VERTEX
  8
0
  5
150F
 10
59.1986
 20
166.629
 30
0.000000
  70
    32
  0
VERTEX
  8
0
  5
1510
 10
59.2817
 20
166.767
 30
0.000000
  70
    32
  0
VERTEX
  8
0
  5
1511
 10
59.3514
 20
166.907
 30
0.000000
  70
    32
  0
VERTEX
  8
0
  5
1512
 10
59.4077
 20
167.047
 30
0.000000
  70
    32
  0
VERTEX
  8
0
  5
1513
 10
59.4504
 20
167.188
 30
0.000000
  70
    32
  0
VERTEX
  8
0
  5
1514
 10
59.4795
 20
167.330
 30
0.000000
  70
    32
  0
VERTEX
  8
0
  5
1515
 10
59.4949
 20
167.471
 30
0.000000
  70
    32
  0
VERTEX
  8
0
  5
1516
 10
59.4966
 20
167.613
 30
0.000000
  70
    32
  0
VERTEX
  8
0
  5
1517
 10
59.4847
 20
167.755
 30
0.000000
  70
    32
  0
VERTEX
  8
0
  5
1518
 10
59.4590
 20
167.897
 30
0.000000
  70
    32
  0
VERTEX
  8
0
  5
1519
 10
59.4198
 20
168.038
 30
0.000000
  70
    32
  0
VERTEX
  8
0
  5
151A
 10
59.3670
 20
168.179
 30
0.000000
  70
    32
  0
VERTEX
  8
0
  5
151B
 10
59.3006
 20
168.318
 30
0.000000
  70
    32
  0
VERTEX
  8
0
  5
151C
 10
59.2209
 20
168.457
 30
0.000000
  70
    32
  0
VERTEX
  8
0
  5
151D
 10
59.1279
 20
168.594
 30
0.000000
  70
    32
  0
VERTEX
  8
0
  5
151E
 10
59.0217
 20
168.730
 30
0.000000
  70
    32
  0
VERTEX
  8
0
  5
151F
 10
58.9025
 20
168.864
 30
0.000000
  70
    32
  0
VERTEX
  8
0
  5
1520
 10
58.7705
 20
168.996
 30
0.000000
  70
    32
  0
VERTEX
  8
0
  5
1521
 10
58.6258
 20
169.126
 30
0.000000
  70
    32
  0
VERTEX
  8
0
  5
1522
 10
58.4687
 20
169.254
 30
0.000000
  70
    32
  0
VERTEX
  8
0
  5
1523
 10
58.2994
 20
169.379
 30
0.000000
  70
    32
  0
VERTEX
  8
0
  5
1524
 10
58.1182
 20
169.502
 30
0.000000
  70
    32
  0
VERTEX
  8
0
  5
1525
 10
57.9252
 20
169.622
 30
0.000000
  70
    32
  0
VERTEX
  8
0
  5
1526
 10
57.7208
 20
169.739
 30
0.000000
  70
    32
  0
VERTEX
  8
0
  5
1527
 10
57.5053
 20
169.853
 30
0.000000
  70
    32
  0
VERTEX
  8
0
  5
1528
 10
57.2790
 20
169.963
 30
0.000000
  70
    32
  0
VERTEX
  8
0
  5
1529
 10
57.0422
 20
170.071
 30
0.000000
  70
    32
  0
VERTEX
  8
0
  5
152A
 10
56.7952
 20
170.174
 30
0.000000
  70
    32
  0
VERTEX
  8
0
  5
152B
 10
56.5384
 20
170.274
 30
0.000000
  70
    32
  0
VERTEX
  8
0
  5
152C
 10
56.2723
 20
170.369
 30
0.000000
  70
    32
  0
VERTEX
  8
0
  5
152D
 10
55.9970
 20
170.461
 30
0.000000
  70
    32
  0
VERTEX
  8
0
  5
152E
 10
55.7132
 20
170.549
 30
0.000000
  70
    32
  0
VERTEX
  8
0
  5
152F
 10
55.4211
 20
170.632
 30
0.000000
  70
    32
  0
VERTEX
  8
0
  5
1530
 10
55.1212
 20
170.711
 30
0.000000
  70
    32
  0
VERTEX
  8
0
  5
1531
 10
54.8139
 20
170.785
 30
0.000000
  70
    32
  0
VERTEX
  8
0
  5
1532
 10
54.4996
 20
170.855
 30
0.000000
  70
    32
  0
VERTEX
  8
0
  5
1533
 10
54.1789
 20
170.920
 30
0.000000
  70
    32
  0
VERTEX
  8
0
  5
1534
 10
53.8522
 20
170.980
 30
0.000000
  70
    32
  0
VERTEX
  8
0
  5
1535
 10
53.5199
 20
171.035
 30
0.000000
  70
    32
  0
VERTEX
  8
0
  5
1536
 10
53.1825
 20
171.085
 30
0.000000
  70
    32
  0
VERTEX
  8
0
  5
1537
 10
52.8406
 20
171.130
 30
0.000000
  70
    32
  0
VERTEX
  8
0
  5
1538
 10
52.4945
 20
171.170
 30
0.000000
  70
    32
  0
VERTEX
  8
0
  5
1539
 10
52.1449
 20
171.205
 30
0.000000
  70
    32
  0
VERTEX
  8
0
  5
153A
 10
51.7921
 20
171.234
 30
0.000000
  70
    32
  0
VERTEX
  8
0
  5
153B
 10
51.4368
 20
171.258
 30
0.000000
  70
    32
  0
VERTEX
  8
0
  5
153C
 10
51.0794
 20
171.277
 30
0.000000
  70
    32
  0
VERTEX
  8
0
  5
153D
 10
50.7205
 20
171.291
 30
0.000000
  70
    32
  0
VERTEX
  8
0
  5
153E
 10
50.3605
 20
171.299
 30
0.000000
  70
    32
  0
VERTEX
  8
0
  5
153F
 10
50.0000
 20
171.301
 30
0.000000
  70
    32
  0
VERTEX
  8
0
  5
1540
 10
49.6395
 20
171.299
 30
0.000000
  70
    32
  0
VERTEX
  8
0
  5
1541
 10
49.2795
 20
171.291
 30
0.000000
  70
    32
  0
VERTEX
  8
0
  5
1542
 10
48.9206
 20
171.277
 30
0.000000
  70
    32
  0
VERTEX
  8
0
  5
1543
 10
48.5632
 20
171.258
 30
0.000000
  70
    32
  0
VERTEX
  8
0
  5
1544
 10
48.2079
 20
171.234
 30
0.000000
  70
    32
  0
VERTEX
  8
0
  5
1545
 10
47.8551
 20
171.205
 30
0.000000
  70
    32
  0
VERTEX
  8
0
  5
1546
 10
47.5055
 20
171.170
 30
0.000000
  70
    32
  0
VERTEX
  8
0
  5
1547
 10
47.1594
 20
171.130
 30
0.000000
  70
    32
  0
VERTEX
  8
0
  5
1548
 10
46.8175
 20
171.085
 30
0.000000
  70
    32
  0
VERTEX
  8
0
  5
1549
 10
46.4801
 20
171.035
 30
0.000000
  70
    32
  0
VERTEX
  8
0
  5
154A
 10
46.1478
 20
170.980
 30
0.000000
  70
    32
  0
VERTEX
  8
0
  5
154B
 10
45.8211
 20
170.920
 30
0.000000
  70
    32
  0
VERTEX
  8
0
  5
154C
 10
45.5004
 20
170.855
 30
0.000000
  70
    32
  0
VERTEX
  8
0
  5
154D
 10
45.1861
 20
170.785
 30
0.000000
  70
    32
  0
VERTEX
  8
0
  5
154E
 10
44.8788
 20
170.711
 30
0.000000
  70
    32
  0
VERTEX
  8
0
  5
154F
 10
44.5789
 20
170.632
 30
0.000000
  70
    32
  0
VERTEX
  8
0
  5
1550
 10
44.2868
 20
170.549
 30
0.000000
  70
    32
  0
VERTEX
  8
0
  5
1551
 10
44.0030
 20
170.461
 30
0.000000
  70
    32
  0
VERTEX
  8
0
  5
1552
 10
43.7277
 20
170.369
 30
0.000000
  70
    32
  0
VERTEX
  8
0
  5
1553
 10
43.4616
 20
170.274
 30
0.000000
  70
    32
  0
VERTEX
  8
0
  5
1554
 10
43.2048
 20
170.174
 30
0.000000
  70
    32
  0
VERTEX
  8
0
  5
1555
 10
42.9578
 20
170.071
 30
0.000000
  70
    32
  0
VERTEX
  8
0
  5
1556
 10
42.7210
 20
169.963
 30
0.000000
  70
    32
  0
VERTEX
  8
0
  5
1557
 10
42.4947
 20
169.853
 30
0.000000
  70
    32
  0
VERTEX
  8
0
  5
1558
 10
42.2792
 20
169.739
 30
0.000000
  70
    32
  0
VERTEX
  8
0
  5
1559
 10
42.0748
 20
169.622
 30
0.000000
  70
    32
  0
VERTEX
  8
0
  5
155A
 10
41.8818
 20
169.502
 30
0.000000
  70
    32
  0
VERTEX
  8
0
  5
155B
 10
41.7006
 20
169.379
 30
0.000000
  70
    32
  0
VERTEX
  8
0
  5
155C
 10
41.5313
 20
169.254
 30
0.000000
  70
    32
  0
VERTEX
  8
0
  5
155D
 10
41.3742
 20
169.126
 30
0.000000
  70
    32
  0
VERTEX
  8
0
  5
155E
 10
41.2295
 20
168.996
 30
0.000000
  70
    32
  0
VERTEX
  8
0
  5
155F
 10
41.0975
 20
168.864
 30
0.000000
  70
    32
  0
VERTEX
  8
0
  5
1560
 10
40.9783
 20
168.730
 30
0.000000
  70
    32
  0
VERTEX
  8
0
  5
1561
 10
40.8721
 20
168.594
 30
0.000000
  70
    32
  0
VERTEX
  8
0
  5
1562
 10
40.7791
 20
168.457
 30
0.000000
  70
    32
  0
VERTEX
  8
0
  5
1563
 10
40.6994
 20
168.318
 30
0.000000
  70
    32
  0
VERTEX
  8
0
  5
1564
 10
40.6330
 20
168.179
 30
0.000000
  70
    32
  0
VERTEX
  8
0
  5
1565
 10
40.5802
 20
168.038
 30
0.000000
  70
    32
  0
VERTEX
  8
0
  5
1566
 10
40.5410
 20
167.897
 30
0.000000
  70
    32
  0
VERTEX
  8
0
  5
1567
 10
40.5153
 20
167.755
 30
0.000000
  70
    32
  0
VERTEX
  8
0
  5
1568
 10
40.5034
 20
167.613
 30
0.000000
  70
    32
  0
VERTEX
  8
0
  5
1569
 10
40.5051
 20
167.471
 30
0.000000
  70
    32
  0
VERTEX
  8
0
  5
156A
 10
40.5205
 20
167.330
 30
0.000000
  70
    32
  0
VERTEX
  8
0
  5
156B
 10
40.5496
 20
167.188
 30
0.000000
  70
    32
  0
VERTEX
  8
0
  5
156C
 10
40.5923
 20
167.047
 30
0.000000
  70
    32
  0
VERTEX
  8
0
  5
156D
 10
40.6486
 20
166.907
 30
0.000000
  70
    32
  0
VERTEX
  8
0
  5
156E
 10
40.7183
 20
166.767
 30
0.000000
  70
    32
  0
VERTEX
  8
0
  5
156F
 10
40.8014
 20
166.629
 30
0.000000
  70
    32
  0
VERTEX
  8
0
  5
1570
 10
40.8978
 20
166.492
 30
0.000000
  70
    32
  0
VERTEX
  8
0
  5
1571
 10
41.0073
 20
166.357
 30
0.000000
  70
    32
  0
VERTEX
  8
0
  5
1572
 10
41.1297
 20
166.223
 30
0.000000
  70
    32
  0
VERTEX
  8
0
  5
1573
 10
41.2650
 20
166.092
 30
0.000000
  70
    32
  0
VERTEX
  8
0
  5
1574
 10
41.4128
 20
165.962
 30
0.000000
  70
    32
  0
VERTEX
  8
0
  5
1575
 10
41.5730
 20
165.835
 30
0.000000
  70
    32
  0
VERTEX
  8
0
  5
1576
 10
41.7453
 20
165.710
 30
0.000000
  70
    32
  0
VERTEX
  8
0
  5
1577
 10
41.9296
 20
165.588
 30
0.000000
  70
    32
  0
VERTEX
  8
0
  5
1578
 10
42.1255
 20
165.469
 30
0.000000
  70
    32
  0
VERTEX
  8
0
  5
1579
 10
42.3327
 20
165.353
 30
0.000000
  70
    32
  0
VERTEX
  8
0
  5
157A
 10
42.5510
 20
165.240
 30
0.000000
  70
    32
  0
VERTEX
  8
0
  5
157B
 10
42.7800
 20
165.130
 30
0.000000
  70
    32
  0
VERTEX
  8
0
  5
157C
 10
43.0194
 20
165.024
 30
0.000000
  70
    32
  0
VERTEX
  8
0
  5
157D
 10
43.2689
 20
164.921
 30
0.000000
  70
    32
  0
VERTEX
  8
0
  5
157E
 10
43.5281
 20
164.823
 30
0.000000
  70
    32
  0
VERTEX
  8
0
  5
157F
 10
43.7966
 20
164.728
 30
0.000000
  70
    32
  0
SEQEND
  8
0
  5
1580
  0
POLYLINE
  5
1228
  8
0
 10
55.559599137950144
 20
176.58260546435886
 30
0.0
 66
     1
 70
     8
  0
VERTEX
  8
0
  5
1581
 10
55.5596
 20
176.583
 30
0.000000
  70
    32
  0
VERTEX
  8
0
  5
1582
 10
55.5362
 20
176.561
 30
0.000000
  70
    32
  0
VERTEX
  8
0
  5
1583
 10
55.5130
 20
176.538
 30
0.000000
  70
    32
  0
VERTEX
  8
0
  5
1584
 10
55.4901
 20
176.515
 30
0.000000
  70
    32
  0
VERTEX
  8
0
  5
1585
 10
55.4673
 20
176.492
 30
0.000000
  70
    32
  0
VERTEX
  8
0
  5
1586
 10
55.4448
 20
176.469
 30
0.000000
  70
    32
  0
VERTEX
  8
0
  5
1587
 10
55.4225
 20
176.445
 30
0.000000
  70
    32
  0
VERTEX
  8
0
  5
1588
 10
55.4005
 20
176.420
 30
0.000000
  70
    32
  0
VERTEX
  8
0
  5
1589
 10
55.3786
 20
176.396
 30
0.000000
  70
    32
  0
VERTEX
  8
0
  5
158A
 10
55.3571
 20
176.371
 30
0.000000
  70
    32
  0
VERTEX
  8
0
  5
158B
 10
55.3357
 20
176.346
 30
0.000000
  70
    32
  0
VERTEX
  8
0
  5
158C
 10
55.3146
 20
176.320
 30
0.000000
  70
    32
  0
VERTEX
  8
0
  5
158D
 10
55.2938
 20
176.294
 30
0.000000
  70
    32
  0
VERTEX
  8
0
  5
158E
 10
55.2732
 20
176.268
 30
0.000000
  70
    32
  0
VERTEX
  8
0
  5
158F
 10
55.2529
 20
176.241
 30
0.000000
  70
    32
  0
VERTEX
  8
0
  5
1590
 10
55.2328
 20
176.214
 30
0.000000
  70
    32
  0
VERTEX
  8
0
  5
1591
 10
55.2130
 20
176.187
 30
0.000000
  70
    32
  0
VERTEX
  8
0
  5
1592
 10
55.1934
 20
176.159
 30
0.000000
  70
    32
  0
VERTEX
  8
0
  5
1593
 10
55.1742
 20
176.132
 30
0.000000
  70
    32
  0
VERTEX
  8
0
  5
1594
 10
55.1551
 20
176.103
 30
0.000000
  70
    32
  0
VERTEX
  8
0
  5
1595
 10
55.1364
 20
176.075
 30
0.000000
  70
    32
  0
VERTEX
  8
0
  5
1596
 10
55.1180
 20
176.046
 30
0.000000
  70
    32
  0
VERTEX
  8
0
  5
1597
 10
55.0998
 20
176.017
 30
0.000000
  70
    32
  0
VERTEX
  8
0
  5
1598
 10
55.0819
 20
175.988
 30
0.000000
  70
    32
  0
VERTEX
  8
0
  5
1599
 10
55.0643
 20
175.958
 30
0.000000
  70
    32
  0
VERTEX
  8
0
  5
159A
 10
55.0470
 20
175.928
 30
0.000000
  70
    32
  0
VERTEX
  8
0
  5
159B
 10
55.0299
 20
175.898
 30
0.000000
  70
    32
  0
VERTEX
  8
0
  5
159C
 10
55.0132
 20
175.868
 30
0.000000
  70
    32
  0
VERTEX
  8
0
  5
159D
 10
54.9967
 20
175.837
 30
0.000000
  70
    32
  0
VERTEX
  8
0
  5
159E
 10
54.9806
 20
175.806
 30
0.000000
  70
    32
  0
VERTEX
  8
0
  5
159F
 10
54.9647
 20
175.775
 30
0.000000
  70
    32
  0
VERTEX
  8
0
  5
15A0
 10
54.9492
 20
175.743
 30
0.000000
  70
    32
  0
VERTEX
  8
0
  5
15A1
 10
54.9340
 20
175.711
 30
0.000000
  70
    32
  0
VERTEX
  8
0
  5
15A2
 10
54.9190
 20
175.679
 30
0.000000
  70
    32
  0
VERTEX
  8
0
  5
15A3
 10
54.9044
 20
175.647
 30
0.000000
  70
    32
  0
VERTEX
  8
0
  5
15A4
 10
54.8901
 20
175.615
 30
0.000000
  70
    32
  0
VERTEX
  8
0
  5
15A5
 10
54.8761
 20
175.582
 30
0.000000
  70
    32
  0
VERTEX
  8
0
  5
15A6
 10
54.8625
 20
175.549
 30
0.000000
  70
    32
  0
VERTEX
  8
0
  5
15A7
 10
54.8491
 20
175.516
 30
0.000000
  70
    32
  0
VERTEX
  8
0
  5
15A8
 10
54.8361
 20
175.483
 30
0.000000
  70
    32
  0
VERTEX
  8
0
  5
15A9
 10
54.8234
 20
175.449
 30
0.000000
  70
    32
  0
VERTEX
  8
0
  5
15AA
 10
54.8110
 20
175.416
 30
0.000000
  70
    32
  0
VERTEX
  8
0
  5
15AB
 10
54.7989
 20
175.382
 30
0.000000
  70
    32
  0
VERTEX
  8
0
  5
15AC
 10
54.7872
 20
175.348
 30
0.000000
  70
    32
  0
VERTEX
  8
0
  5
15AD
 10
54.7758
 20
175.313
 30
0.000000
  70
    32
  0
VERTEX
  8
0
  5
15AE
 10
54.7647
 20
175.279
 30
0.000000
  70
    32
  0
VERTEX
  8
0
  5
15AF
 10
54.7540
 20
175.244
 30
0.000000
  70
    32
  0
VERTEX
  8
0
  5
15B0
 10
54.7436
 20
175.209
 30
0.000000
  70
    32
  0
VERTEX
  8
0
  5
15B1
 10
54.7335
 20
175.174
 30
0.000000
  70
    32
  0
VERTEX
  8
0
  5
15B2
 10
54.7238
 20
175.139
 30
0.000000
  70
    32
  0
VERTEX
  8
0
  5
15B3
 10
54.7144
 20
175.104
 30
0.000000
  70
    32
  0
VERTEX
  8
0
  5
15B4
 10
54.7054
 20
175.068
 30
0.000000
  70
    32
  0
VERTEX
  8
0
  5
15B5
 10
54.6967
 20
175.033
 30
0.000000
  70
    32
  0
VERTEX
  8
0
  5
15B6
 10
54.6884
 20
174.997
 30
0.000000
  70
    32
  0
VERTEX
  8
0
  5
15B7
 10
54.6804
 20
174.961
 30
0.000000
  70
    32
  0
VERTEX
  8
0
  5
15B8
 10
54.6727
 20
174.925
 30
0.000000
  70
    32
  0
VERTEX
  8
0
  5
15B9
 10
54.6654
 20
174.889
 30
0.000000
  70
    32
  0
VERTEX
  8
0
  5
15BA
 10
54.6584
 20
174.853
 30
0.000000
  70
    32
  0
VERTEX
  8
0
  5
15BB
 10
54.6518
 20
174.817
 30
0.000000
  70
    32
  0
VERTEX
  8
0
  5
15BC
 10
54.6456
 20
174.780
 30
0.000000
  70
    32
  0
VERTEX
  8
0
  5
15BD
 10
54.6397
 20
174.744
 30
0.000000
  70
    32
  0
VERTEX
  8
0
  5
15BE
 10
54.6341
 20
174.707
 30
0.000000
  70
    32
  0
VERTEX
  8
0
  5
15BF
 10
54.6289
 20
174.671
 30
0.000000
  70
    32
  0
VERTEX
  8
0
  5
15C0
 10
54.6241
 20
174.634
 30
0.000000
  70
    32
  0
VERTEX
  8
0
  5
15C1
 10
54.6196
 20
174.597
 30
0.000000
  70
    32
  0
VERTEX
  8
0
  5
15C2
 10
54.6155
 20
174.560
 30
0.000000
  70
    32
  0
VERTEX
  8
0
  5
15C3
 10
54.6117
 20
174.523
 30
0.000000
  70
    32
  0
VERTEX
  8
0
  5
15C4
 10
54.6083
 20
174.486
 30
0.000000
  70
    32
  0
VERTEX
  8
0
  5
15C5
 10
54.6052
 20
174.449
 30
0.000000
  70
    32
  0
VERTEX
  8
0
  5
15C6
 10
54.6025
 20
174.412
 30
0.000000
  70
    32
  0
VERTEX
  8
0
  5
15C7
 10
54.6002
 20
174.375
 30
0.000000
  70
    32
  0
VERTEX
  8
0
  5
15C8
 10
54.5982
 20
174.338
 30
0.000000
  70
    32
  0
VERTEX
  8
0
  5
15C9
 10
54.5966
 20
174.300
 30
0.000000
  70
    32
  0
VERTEX
  8
0
  5
15CA
 10
54.5953
 20
174.263
 30
0.000000
  70
    32
  0
VERTEX
  8
0
  5
15CB
 10
54.5944
 20
174.226
 30
0.000000
  70
    32
  0
VERTEX
  8
0
  5
15CC
 10
54.5939
 20
174.189
 30
0.000000
  70
    32
  0
VERTEX
  8
0
  5
15CD
 10
54.5937
 20
174.151
 30
0.000000
  70
    32
  0
VERTEX
  8
0
  5
15CE
 10
54.5939
 20
174.114
 30
0.000000
  70
    32
  0
VERTEX
  8
0
  5
15CF
 10
54.5944
 20
174.077
 30
0.000000
  70
    32
  0
VERTEX
  8
0
  5
15D0
 10
54.5953
 20
174.040
 30
0.000000
  70
    32
  0
VERTEX
  8
0
  5
15D1
 10
54.5966
 20
174.002
 30
0.000000
  70
    32
  0
VERTEX
  8
0
  5
15D2
 10
54.5982
 20
173.965
 30
0.000000
  70
    32
  0
VERTEX
  8
0
  5
15D3
 10
54.6002
 20
173.928
 30
0.000000
  70
    32
  0
VERTEX
  8
0
  5
15D4
 10
54.6025
 20
173.891
 30
0.000000
  70
    32
  0
VERTEX
  8
0
  5
15D5
 10
54.6052
 20
173.854
 30
0.000000
  70
    32
  0
VERTEX
  8
0
  5
15D6
 10
54.6083
 20
173.817
 30
0.000000
  70
    32
  0
VERTEX
  8
0
  5
15D7
 10
54.6117
 20
173.779
 30
0.000000
  70
    32
  0
VERTEX
  8
0
  5
15D8
 10
54.6155
 20
173.743
 30
0.000000
  70
    32
  0
VERTEX
  8
0
  5
15D9
 10
54.6196
 20
173.706
 30
0.000000
  70
    32
  0
VERTEX
  8
0
  5
15DA
 10
54.6241
 20
173.669
 30
0.000000
  70
    32
  0
VERTEX
  8
0
  5
15DB
 10
54.6289
 20
173.632
 30
0.000000
  70
    32
  0
VERTEX
  8
0
  5
15DC
 10
54.6341
 20
173.595
 30
0.000000
  70
    32
  0
VERTEX
  8
0
  5
15DD
 10
54.6397
 20
173.559
 30
0.000000
  70
    32
  0
VERTEX
  8
0
  5
15DE
 10
54.6456
 20
173.522
 30
0.000000
  70
    32
  0
VERTEX
  8
0
  5
15DF
 10
54.6518
 20
173.486
 30
0.000000
  70
    32
  0
VERTEX
  8
0
  5
15E0
 10
54.6584
 20
173.450
 30
0.000000
  70
    32
  0
VERTEX
  8
0
  5
15E1
 10
54.6654
 20
173.413
 30
0.000000
  70
    32
  0
VERTEX
  8
0
  5
15E2
 10
54.6727
 20
173.377
 30
0.000000
  70
    32
  0
VERTEX
  8
0
  5
15E3
 10
54.6804
 20
173.341
 30
0.000000
  70
    32
  0
VERTEX
  8
0
  5
15E4
 10
54.6884
 20
173.305
 30
0.000000
  70
    32
  0
VERTEX
  8
0
  5
15E5
 10
54.6967
 20
173.270
 30
0.000000
  70
    32
  0
VERTEX
  8
0
  5
15E6
 10
54.7054
 20
173.234
 30
0.000000
  70
    32
  0
VERTEX
  8
0
  5
15E7
 10
54.7145
 20
173.199
 30
0.000000
  70
    32
  0
VERTEX
  8
0
  5
15E8
 10
54.7238
 20
173.163
 30
0.000000
  70
    32
  0
VERTEX
  8
0
  5
15E9
 10
54.7336
 20
173.128
 30
0.000000
  70
    32
  0
VERTEX
  8
0
  5
15EA
 10
54.7436
 20
173.093
 30
0.000000
  70
    32
  0
VERTEX
  8
0
  5
15EB
 10
54.7540
 20
173.059
 30
0.000000
  70
    32
  0
VERTEX
  8
0
  5
15EC
 10
54.7648
 20
173.024
 30
0.000000
  70
    32
  0
VERTEX
  8
0
  5
15ED
 10
54.7758
 20
172.989
 30
0.000000
  70
    32
  0
VERTEX
  8
0
  5
15EE
 10
54.7872
 20
172.955
 30
0.000000
  70
    32
  0
VERTEX
  8
0
  5
15EF
 10
54.7990
 20
172.921
 30
0.000000
  70
    32
  0
VERTEX
  8
0
  5
15F0
 10
54.8110
 20
172.887
 30
0.000000
  70
    32
  0
VERTEX
  8
0
  5
15F1
 10
54.8234
 20
172.853
 30
0.000000
  70
    32
  0
VERTEX
  8
0
  5
15F2
 10
54.8361
 20
172.820
 30
0.000000
  70
    32
  0
VERTEX
  8
0
  5
15F3
 10
54.8491
 20
172.787
 30
0.000000
  70
    32
  0
VERTEX
  8
0
  5
15F4
 10
54.8625
 20
172.754
 30
0.000000
  70
    32
  0
VERTEX
  8
0
  5
15F5
 10
54.8762
 20
172.721
 30
0.000000
  70
    32
  0
VERTEX
  8
0
  5
15F6
 10
54.8902
 20
172.688
 30
0.000000
  70
    32
  0
VERTEX
  8
0
  5
15F7
 10
54.9045
 20
172.656
 30
0.000000
  70
    32
  0
VERTEX
  8
0
  5
15F8
 10
54.9191
 20
172.623
 30
0.000000
  70
    32
  0
VERTEX
  8
0
  5
15F9
 10
54.9340
 20
172.591
 30
0.000000
  70
    32
  0
VERTEX
  8
0
  5
15FA
 10
54.9492
 20
172.560
 30
0.000000
  70
    32
  0
VERTEX
  8
0
  5
15FB
 10
54.9648
 20
172.528
 30
0.000000
  70
    32
  0
VERTEX
  8
0
  5
15FC
 10
54.9806
 20
172.497
 30
0.000000
  70
    32
  0
VERTEX
  8
0
  5
15FD
 10
54.9968
 20
172.466
 30
0.000000
  70
    32
  0
VERTEX
  8
0
  5
15FE
 10
55.0132
 20
172.435
 30
0.000000
  70
    32
  0
VERTEX
  8
0
  5
15FF
 10
55.0300
 20
172.405
 30
0.000000
  70
    32
  0
VERTEX
  8
0
  5
1600
 10
55.0470
 20
172.375
 30
0.000000
  70
    32
  0
VERTEX
  8
0
  5
1601
 10
55.0643
 20
172.345
 30
0.000000
  70
    32
  0
SEQEND
  8
0
  5
1602
  0
ARC
  5
1229
  8
0
 10
55.03529423638826
 20
177.18684413425521
 30
0.0
 40
0.8
 50
310.9485553384942
 51
0.7091766292514328
  0
LINE
  5
122A
  8
0
 10
55.835294237920031
 20
177.40180991014429
 30
0.0
 11
55.835294237920031
 21
171.14744479589851
 31
0.0
  0
ARC
  5
122B
  8
0
 10
62.149042627922192
 20
176.06034427255631
 30
0.0
 40
8.0
 50
207.6756501154467
 51
226.90901720329401
  0
LINE
  5
122C
  8
0
 10
45.651449853715107
 20
182.4999999999998
 30
0.0
 11
54.348550146284872
 21
182.4999999999998
 31
0.0
  0
ARC
  5
122D
  8
0
 10
54.348550146284872
 20
181.9999999999998
 30
0.0
 40
0.5
 50
12.65659409713299
 51
90.0
  0
LINE
  5
122E
  8
0
 10
54.836400553375128
 20
182.10955354992819
 30
0.0
 11
55.835294237920031
 21
177.40180991014429
 31
0.0
  0
ARC
  5
122F
  8
0
 10
37.850957372077787
 20
176.06034427255631
 30
0.0
 40
8.0
 50
313.09098279670587
 51
332.32434988455333
  0
LINE
  5
1230
  8
0
 10
45.16359944662485
 20
182.10955354992819
 30
0.0
 11
44.164705762079947
 21
177.40180991014429
 31
0.0
  0
ARC
  5
1231
  8
0
 10
45.651449853715107
 20
181.9999999999998
 30
0.0
 40
0.5
 50
90.0
 51
167.343405902867
  0
LINE
  5
1232
  8
0
 10
44.164705762079947
 20
177.40180991014429
 30
0.0
 11
44.164705762079947
 21
171.14744479589851
 31
0.0
  0
POLYLINE
  5
1233
  8
0
 10
44.440400862049835
 20
176.58260546435886
 30
0.0
 66
     1
 70
     8
  0
VERTEX
  8
0
  5
1603
 10
44.4404
 20
176.583
 30
0.000000
  70
    32
  0
VERTEX
  8
0
  5
1604
 10
44.4638
 20
176.561
 30
0.000000
  70
    32
  0
VERTEX
  8
0
  5
1605
 10
44.4870
 20
176.538
 30
0.000000
  70
    32
  0
VERTEX
  8
0
  5
1606
 10
44.5099
 20
176.515
 30
0.000000
  70
    32
  0
VERTEX
  8
0
  5
1607
 10
44.5327
 20
176.492
 30
0.000000
  70
    32
  0
VERTEX
  8
0
  5
1608
 10
44.5552
 20
176.469
 30
0.000000
  70
    32
  0
VERTEX
  8
0
  5
1609
 10
44.5775
 20
176.445
 30
0.000000
  70
    32
  0
VERTEX
  8
0
  5
160A
 10
44.5995
 20
176.420
 30
0.000000
  70
    32
  0
VERTEX
  8
0
  5
160B
 10
44.6214
 20
176.396
 30
0.000000
  70
    32
  0
VERTEX
  8
0
  5
160C
 10
44.6429
 20
176.371
 30
0.000000
  70
    32
  0
VERTEX
  8
0
  5
160D
 10
44.6643
 20
176.346
 30
0.000000
  70
    32
  0
VERTEX
  8
0
  5
160E
 10
44.6854
 20
176.320
 30
0.000000
  70
    32
  0
VERTEX
  8
0
  5
160F
 10
44.7062
 20
176.294
 30
0.000000
  70
    32
  0
VERTEX
  8
0
  5
1610
 10
44.7268
 20
176.268
 30
0.000000
  70
    32
  0
VERTEX
  8
0
  5
1611
 10
44.7471
 20
176.241
 30
0.000000
  70
    32
  0
VERTEX
  8
0
  5
1612
 10
44.7672
 20
176.214
 30
0.000000
  70
    32
  0
VERTEX
  8
0
  5
1613
 10
44.7870
 20
176.187
 30
0.000000
  70
    32
  0
VERTEX
  8
0
  5
1614
 10
44.8066
 20
176.159
 30
0.000000
  70
    32
  0
VERTEX
  8
0
  5
1615
 10
44.8258
 20
176.132
 30
0.000000
  70
    32
  0
VERTEX
  8
0
  5
1616
 10
44.8449
 20
176.103
 30
0.000000
  70
    32
  0
VERTEX
  8
0
  5
1617
 10
44.8636
 20
176.075
 30
0.000000
  70
    32
  0
VERTEX
  8
0
  5
1618
 10
44.8820
 20
176.046
 30
0.000000
  70
    32
  0
VERTEX
  8
0
  5
1619
 10
44.9002
 20
176.017
 30
0.000000
  70
    32
  0
VERTEX
  8
0
  5
161A
 10
44.9181
 20
175.988
 30
0.000000
  70
    32
  0
VERTEX
  8
0
  5
161B
 10
44.9357
 20
175.958
 30
0.000000
  70
    32
  0
VERTEX
  8
0
  5
161C
 10
44.9530
 20
175.928
 30
0.000000
  70
    32
  0
VERTEX
  8
0
  5
161D
 10
44.9701
 20
175.898
 30
0.000000
  70
    32
  0
VERTEX
  8
0
  5
161E
 10
44.9868
 20
175.868
 30
0.000000
  70
    32
  0
VERTEX
  8
0
  5
161F
 10
45.0033
 20
175.837
 30
0.000000
  70
    32
  0
VERTEX
  8
0
  5
1620
 10
45.0194
 20
175.806
 30
0.000000
  70
    32
  0
VERTEX
  8
0
  5
1621
 10
45.0353
 20
175.775
 30
0.000000
  70
    32
  0
VERTEX
  8
0
  5
1622
 10
45.0508
 20
175.743
 30
0.000000
  70
    32
  0
VERTEX
  8
0
  5
1623
 10
45.0660
 20
175.711
 30
0.000000
  70
    32
  0
VERTEX
  8
0
  5
1624
 10
45.0810
 20
175.679
 30
0.000000
  70
    32
  0
VERTEX
  8
0
  5
1625
 10
45.0956
 20
175.647
 30
0.000000
  70
    32
  0
VERTEX
  8
0
  5
1626
 10
45.1099
 20
175.615
 30
0.000000
  70
    32
  0
VERTEX
  8
0
  5
1627
 10
45.1239
 20
175.582
 30
0.000000
  70
    32
  0
VERTEX
  8
0
  5
1628
 10
45.1375
 20
175.549
 30
0.000000
  70
    32
  0
VERTEX
  8
0
  5
1629
 10
45.1509
 20
175.516
 30
0.000000
  70
    32
  0
VERTEX
  8
0
  5
162A
 10
45.1639
 20
175.483
 30
0.000000
  70
    32
  0
VERTEX
  8
0
  5
162B
 10
45.1766
 20
175.449
 30
0.000000
  70
    32
  0
VERTEX
  8
0
  5
162C
 10
45.1890
 20
175.416
 30
0.000000
  70
    32
  0
VERTEX
  8
0
  5
162D
 10
45.2011
 20
175.382
 30
0.000000
  70
    32
  0
VERTEX
  8
0
  5
162E
 10
45.2128
 20
175.348
 30
0.000000
  70
    32
  0
VERTEX
  8
0
  5
162F
 10
45.2242
 20
175.313
 30
0.000000
  70
    32
  0
VERTEX
  8
0
  5
1630
 10
45.2353
 20
175.279
 30
0.000000
  70
    32
  0
VERTEX
  8
0
  5
1631
 10
45.2460
 20
175.244
 30
0.000000
  70
    32
  0
VERTEX
  8
0
  5
1632
 10
45.2564
 20
175.209
 30
0.000000
  70
    32
  0
VERTEX
  8
0
  5
1633
 10
45.2665
 20
175.174
 30
0.000000
  70
    32
  0
VERTEX
  8
0
  5
1634
 10
45.2762
 20
175.139
 30
0.000000
  70
    32
  0
VERTEX
  8
0
  5
1635
 10
45.2856
 20
175.104
 30
0.000000
  70
    32
  0
VERTEX
  8
0
  5
1636
 10
45.2946
 20
175.068
 30
0.000000
  70
    32
  0
VERTEX
  8
0
  5
1637
 10
45.3033
 20
175.033
 30
0.000000
  70
    32
  0
VERTEX
  8
0
  5
1638
 10
45.3116
 20
174.997
 30
0.000000
  70
    32
  0
VERTEX
  8
0
  5
1639
 10
45.3196
 20
174.961
 30
0.000000
  70
    32
  0
VERTEX
  8
0
  5
163A
 10
45.3273
 20
174.925
 30
0.000000
  70
    32
  0
VERTEX
  8
0
  5
163B
 10
45.3346
 20
174.889
 30
0.000000
  70
    32
  0
VERTEX
  8
0
  5
163C
 10
45.3416
 20
174.853
 30
0.000000
  70
    32
  0
VERTEX
  8
0
  5
163D
 10
45.3482
 20
174.817
 30
0.000000
  70
    32
  0
VERTEX
  8
0
  5
163E
 10
45.3544
 20
174.780
 30
0.000000
  70
    32
  0
VERTEX
  8
0
  5
163F
 10
45.3603
 20
174.744
 30
0.000000
  70
    32
  0
VERTEX
  8
0
  5
1640
 10
45.3659
 20
174.707
 30
0.000000
  70
    32
  0
VERTEX
  8
0
  5
1641
 10
45.3711
 20
174.671
 30
0.000000
  70
    32
  0
VERTEX
  8
0
  5
1642
 10
45.3759
 20
174.634
 30
0.000000
  70
    32
  0
VERTEX
  8
0
  5
1643
 10
45.3804
 20
174.597
 30
0.000000
  70
    32
  0
VERTEX
  8
0
  5
1644
 10
45.3845
 20
174.560
 30
0.000000
  70
    32
  0
VERTEX
  8
0
  5
1645
 10
45.3883
 20
174.523
 30
0.000000
  70
    32
  0
VERTEX
  8
0
  5
1646
 10
45.3917
 20
174.486
 30
0.000000
  70
    32
  0
VERTEX
  8
0
  5
1647
 10
45.3948
 20
174.449
 30
0.000000
  70
    32
  0
VERTEX
  8
0
  5
1648
 10
45.3975
 20
174.412
 30
0.000000
  70
    32
  0
VERTEX
  8
0
  5
1649
 10
45.3998
 20
174.375
 30
0.000000
  70
    32
  0
VERTEX
  8
0
  5
164A
 10
45.4018
 20
174.338
 30
0.000000
  70
    32
  0
VERTEX
  8
0
  5
164B
 10
45.4034
 20
174.300
 30
0.000000
  70
    32
  0
VERTEX
  8
0
  5
164C
 10
45.4047
 20
174.263
 30
0.000000
  70
    32
  0
VERTEX
  8
0
  5
164D
 10
45.4056
 20
174.226
 30
0.000000
  70
    32
  0
VERTEX
  8
0
  5
164E
 10
45.4061
 20
174.189
 30
0.000000
  70
    32
  0
VERTEX
  8
0
  5
164F
 10
45.4063
 20
174.151
 30
0.000000
  70
    32
  0
VERTEX
  8
0
  5
1650
 10
45.4061
 20
174.114
 30
0.000000
  70
    32
  0
VERTEX
  8
0
  5
1651
 10
45.4056
 20
174.077
 30
0.000000
  70
    32
  0
VERTEX
  8
0
  5
1652
 10
45.4047
 20
174.040
 30
0.000000
  70
    32
  0
VERTEX
  8
0
  5
1653
 10
45.4034
 20
174.002
 30
0.000000
  70
    32
  0
VERTEX
  8
0
  5
1654
 10
45.4018
 20
173.965
 30
0.000000
  70
    32
  0
VERTEX
  8
0
  5
1655
 10
45.3998
 20
173.928
 30
0.000000
  70
    32
  0
VERTEX
  8
0
  5
1656
 10
45.3975
 20
173.891
 30
0.000000
  70
    32
  0
VERTEX
  8
0
  5
1657
 10
45.3948
 20
173.854
 30
0.000000
  70
    32
  0
VERTEX
  8
0
  5
1658
 10
45.3917
 20
173.817
 30
0.000000
  70
    32
  0
VERTEX
  8
0
  5
1659
 10
45.3883
 20
173.779
 30
0.000000
  70
    32
  0
VERTEX
  8
0
  5
165A
 10
45.3845
 20
173.743
 30
0.000000
  70
    32
  0
VERTEX
  8
0
  5
165B
 10
45.3804
 20
173.706
 30
0.000000
  70
    32
  0
VERTEX
  8
0
  5
165C
 10
45.3759
 20
173.669
 30
0.000000
  70
    32
  0
VERTEX
  8
0
  5
165D
 10
45.3711
 20
173.632
 30
0.000000
  70
    32
  0
VERTEX
  8
0
  5
165E
 10
45.3659
 20
173.595
 30
0.000000
  70
    32
  0
VERTEX
  8
0
  5
165F
 10
45.3603
 20
173.559
 30
0.000000
  70
    32
  0
VERTEX
  8
0
  5
1660
 10
45.3544
 20
173.522
 30
0.000000
  70
    32
  0
VERTEX
  8
0
  5
1661
 10
45.3482
 20
173.486
 30
0.000000
  70
    32
  0
VERTEX
  8
0
  5
1662
 10
45.3416
 20
173.450
 30
0.000000
  70
    32
  0
VERTEX
  8
0
  5
1663
 10
45.3346
 20
173.413
 30
0.000000
  70
    32
  0
VERTEX
  8
0
  5
1664
 10
45.3273
 20
173.377
 30
0.000000
  70
    32
  0
VERTEX
  8
0
  5
1665
 10
45.3196
 20
173.341
 30
0.000000
  70
    32
  0
VERTEX
  8
0
  5
1666
 10
45.3116
 20
173.305
 30
0.000000
  70
    32
  0
VERTEX
  8
0
  5
1667
 10
45.3033
 20
173.270
 30
0.000000
  70
    32
  0
VERTEX
  8
0
  5
1668
 10
45.2946
 20
173.234
 30
0.000000
  70
    32
  0
VERTEX
  8
0
  5
1669
 10
45.2855
 20
173.199
 30
0.000000
  70
    32
  0
VERTEX
  8
0
  5
166A
 10
45.2762
 20
173.163
 30
0.000000
  70
    32
  0
VERTEX
  8
0
  5
166B
 10
45.2664
 20
173.128
 30
0.000000
  70
    32
  0
VERTEX
  8
0
  5
166C
 10
45.2564
 20
173.093
 30
0.000000
  70
    32
  0
VERTEX
  8
0
  5
166D
 10
45.2460
 20
173.059
 30
0.000000
  70
    32
  0
VERTEX
  8
0
  5
166E
 10
45.2352
 20
173.024
 30
0.000000
  70
    32
  0
VERTEX
  8
0
  5
166F
 10
45.2242
 20
172.989
 30
0.000000
  70
    32
  0
VERTEX
  8
0
  5
1670
 10
45.2128
 20
172.955
 30
0.000000
  70
    32
  0
VERTEX
  8
0
  5
1671
 10
45.2010
 20
172.921
 30
0.000000
  70
    32
  0
VERTEX
  8
0
  5
1672
 10
45.1890
 20
172.887
 30
0.000000
  70
    32
  0
VERTEX
  8
0
  5
1673
 10
45.1766
 20
172.853
 30
0.000000
  70
    32
  0
VERTEX
  8
0
  5
1674
 10
45.1639
 20
172.820
 30
0.000000
  70
    32
  0
VERTEX
  8
0
  5
1675
 10
45.1509
 20
172.787
 30
0.000000
  70
    32
  0
VERTEX
  8
0
  5
1676
 10
45.1375
 20
172.754
 30
0.000000
  70
    32
  0
VERTEX
  8
0
  5
1677
 10
45.1238
 20
172.721
 30
0.000000
  70
    32
  0
VERTEX
  8
0
  5
1678
 10
45.1098
 20
172.688
 30
0.000000
  70
    32
  0
VERTEX
  8
0
  5
1679
 10
45.0955
 20
172.656
 30
0.000000
  70
    32
  0
VERTEX
  8
0
  5
167A
 10
45.0809
 20
172.623
 30
0.000000
  70
    32
  0
VERTEX
  8
0
  5
167B
 10
45.0660
 20
172.591
 30
0.000000
  70
    32
  0
VERTEX
  8
0
  5
167C
 10
45.0508
 20
172.560
 30
0.000000
  70
    32
  0
VERTEX
  8
0
  5
167D
 10
45.0352
 20
172.528
 30
0.000000
  70
    32
  0
VERTEX
  8
0
  5
167E
 10
45.0194
 20
172.497
 30
0.000000
  70
    32
  0
VERTEX
  8
0
  5
167F
 10
45.0032
 20
172.466
 30
0.000000
  70
    32
  0
VERTEX
  8
0
  5
1680
 10
44.9868
 20
172.435
 30
0.000000
  70
    32
  0
VERTEX
  8
0
  5
1681
 10
44.9700
 20
172.405
 30
0.000000
  70
    32
  0
VERTEX
  8
0
  5
1682
 10
44.9530
 20
172.375
 30
0.000000
  70
    32
  0
VERTEX
  8
0
  5
1683
 10
44.9357
 20
172.345
 30
0.000000
  70
    32
  0
SEQEND
  8
0
  5
1684
  0
ARC
  5
1234
  8
0
 10
44.964705760548213
 20
177.18684413425521
 30
0.0
 40
0.8
 50
179.29082337074851
 51
229.0514446615058
  0
LINE
  5
1235
  8
0
 10
244.34855014628491
 20
182.4999999999998
 30
0.0
 11
235.6555772345028
 21
182.4999999999998
 31
0.0
  0
LINE
  5
1236
  8
0
 10
234.16397458341231
 20
177.37891172515421
 30
0.0
 11
234.16397458341231
 21
166.48275783351349
 31
0.0
  0
LINE
  5
1237
  8
0
 10
238.91550844366739
 20
179.7808844262878
 30
0.0
 11
241.08449155633261
 21
179.7808844262878
 31
0.0
  0
LINE
  5
1238
  8
0
 10
238.15586773925449
 20
177.7967608295572
 30
0.0
 11
241.86444318154761
 21
177.7967608295572
 31
0.0
  0
LINE
  5
1239
  8
0
 10
234.52901529894649
 20
169.7858444863283
 30
0.0
 11
245.4709847010534
 21
169.7858444863283
 31
0.0
  0
LINE
  5
123A
  8
0
 10
235.25412738078759
 20
172.78222972211131
 30
0.0
 11
244.75
 21
172.78222972211131
 31
0.0
  0
LINE
  5
123B
  8
0
 10
235.01793539429761
 20
170.48299177368531
 30
0.0
 11
244.98206460570239
 21
170.48299177368531
 31
0.0
  0
LINE
  5
123C
  8
0
 10
245.40097293734871
 20
170.0599999999998
 30
0.0
 11
234.59902706265129
 21
170.0599999999998
 31
0.0
  0
LINE
  5
123D
  8
0
 10
249.25
 20
146.4999999999998
 30
0.0
 11
230.75
 21
146.4999999999998
 31
0.0
  0
LINE
  5
123E
  8
0
 10
246.75
 20
139.9999999999998
 30
0.0
 11
246.75
 21
146.4999999999998
 31
0.0
  0
LINE
  5
123F
  8
0
 10
233.25
 20
146.4999999999998
 30
0.0
 11
233.25
 21
139.9999999999998
 31
0.0
  0
LINE
  5
1240
  8
0
 10
233.25
 20
139.9999999999998
 30
0.0
 11
246.75
 21
139.9999999999998
 31
0.0
  0
LINE
  5
1241
  8
1
 10
240.0
 20
187.28503422553661
 30
0.0
 11
240.0
 21
94.999999999998607
 31
0.0
  0
ARC
  5
1242
  8
0
 10
244.34855014628491
 20
181.9999999999998
 30
0.0
 40
0.5
 50
12.65659409713299
 51
90.0
  0
LINE
  5
1243
  8
0
 10
244.83640055337511
 20
182.10955354992819
 30
0.0
 11
245.83529423792001
 21
177.40180991014421
 31
0.0
  0
LINE
  5
1244
  8
0
 10
245.83529423792001
 20
177.40180991014421
 30
0.0
 11
245.83529423792001
 21
166.51462009949731
 31
0.0
  0
ARC
  5
1245
  8
0
 10
248.3224266772022
 20
173.5510798666707
 30
0.0
 40
10.0
 50
118.7956152716045
 51
136.06381651399431
  0
ARC
  5
1246
  8
0
 10
244.22809048591489
 20
180.9999999999998
 30
0.0
 40
1.5
 50
90.0
 51
118.7956152716045
  0
LINE
  5
1247
  8
0
 10
241.014405553741
 20
179.96394372094491
 30
0.0
 11
241.84413226074551
 21
177.7967608295572
 31
0.0
  0
ARC
  5
1248
  8
0
 10
241.4813525099924
 20
180.1427188312025
 30
0.0
 40
0.5
 50
136.06381651399369
 51
200.94982269021139
  0
ARC
  5
1249
  8
0
 10
235.4954524526915
 20
168.99364823366369
 30
0.0
 40
10.0
 50
22.26297169193473
 51
41.283103248968708
  0
ARC
  5
124A
  8
0
 10
251.19859819655611
 20
181.33144144536371
 30
0.0
 40
10.0
 50
200.6995845921175
 51
215.02957793266251
  0
ARC
  5
124B
  8
0
 10
244.5086749280961
 20
168.99364823366369
 30
0.0
 40
10.0
 50
138.71689675103119
 51
157.73702830806531
  0
LINE
  5
124C
  8
0
 10
238.98972182704659
 20
179.96394372094491
 30
0.0
 11
238.1599951200422
 21
177.7967608295572
 31
0.0
  0
ARC
  5
124D
  8
0
 10
231.68170070358539
 20
173.5510798666707
 30
0.0
 40
10.0
 50
43.936183486005703
 51
61.204384728395489
  0
ARC
  5
124E
  8
0
 10
238.5227748707953
 20
180.1427188312025
 30
0.0
 40
0.5
 50
339.05017730978852
 51
43.936183486006222
  0
LINE
  5
124F
  8
0
 10
235.16772682741251
 20
182.10955354992819
 30
0.0
 11
234.16883314286761
 21
177.40180991014421
 31
0.0
  0
ARC
  5
1250
  8
0
 10
228.8055291842314
 20
181.33144144536371
 30
0.0
 40
10.0
 50
324.97042206733749
 51
339.3004154078825
  0
ARC
  5
1251
  8
0
 10
235.7760368948727
 20
180.9999999999998
 30
0.0
 40
1.5
 50
61.204384728395489
 51
90.0
  0
ARC
  5
1252
  8
0
 10
235.6555772345028
 20
181.9999999999998
 30
0.0
 40
0.5
 50
90.0
 51
167.343405902867
  0
LINE
  5
1253
  8
0
 10
244.75
 20
172.78222972211131
 30
0.0
 11
244.75
 21
182.29805706660301
 31
0.0
  0
LINE
  5
1254
  8
0
 10
235.25412738078759
 20
172.78222972211131
 30
0.0
 11
235.25412738078759
 21
182.29805706660301
 31
0.0
  0
LINE
  5
1255
  8
0
 10
245.40097293734871
 20
170.0599999999998
 30
0.0
 11
245.4709847010534
 21
169.7858444863283
 31
0.0
  0
LINE
  5
1256
  8
0
 10
245.4709847010534
 20
169.7858444863283
 30
0.0
 11
245.837750129753
 21
166.49256804638739
 31
0.0
  0
ARC
  5
1257
  8
0
 10
252.6006726920794
 20
161.8176329426901
 30
0.0
 40
8.0
 50
149.52654958857249
 51
212.66349913764651
  0
ARC
  5
1258
  8
0
 10
244.84389444292151
 20
166.3818843811398
 30
0.0
 40
1.0
 50
329.52654958857249
 51
6.3547273638240593
  0
ARC
  5
1259
  8
0
 10
245.43992342767501
 20
165.33523854200351
 30
0.0
 40
5.0
 50
46.631165890171197
 51
76.160424193716906
  0
LINE
  5
125A
  8
0
 10
245.83529423792001
 20
171.14803302208639
 30
0.0
 11
246.63594437958241
 21
170.19008497444591
 31
0.0
  0
ARC
  5
125B
  8
0
 10
247.5
 20
167.51608345078489
 30
0.0
 40
2.0
 50
0.0
 51
46.631165890171197
  0
ARC
  5
125C
  8
0
 10
235.15610555707849
 20
166.3818843811398
 30
0.0
 40
1.0
 50
173.64527263617589
 51
210.47345041142731
  0
ARC
  5
125D
  8
0
 10
232.5
 20
167.51608345078489
 30
0.0
 40
2.0
 50
133.36883410982881
 51
180.0
  0
LINE
  5
125E
  8
0
 10
234.16470576207999
 20
171.14803302208639
 30
0.0
 11
233.36405562041759
 21
170.19008497444591
 31
0.0
  0
LINE
  5
125F
  8
0
 10
234.52901529894649
 20
169.7858444863283
 30
0.0
 11
234.162249870247
 21
166.49256804638739
 31
0.0
  0
LINE
  5
1260
  8
0
 10
234.59902706265129
 20
170.0599999999998
 30
0.0
 11
234.52901529894649
 21
169.7858444863283
 31
0.0
  0
ARC
  5
1261
  8
0
 10
234.56007657232499
 20
165.33523854200351
 30
0.0
 40
5.0
 50
103.83957580628309
 51
133.36883410982881
  0
ARC
  5
1262
  8
0
 10
227.39932730792049
 20
161.8176329426901
 30
0.0
 40
8.0
 50
327.33650086235338
 51
30.473450411427422
  0
LINE
  5
127D
  8
0
 10
59.497578336942631
 20
167.56045061107531
 30
0.0
 11
59.249999999999993
 21
146.4999999999998
 31
0.0
  0
LINE
  5
127E
  8
0
 10
40.502421663057348
 20
167.56045061107531
 30
0.0
 11
40.749999999999993
 21
146.4999999999998
 31
0.0
  0
LINE
  5
127F
  8
0
 10
249.5
 20
167.51608345078489
 30
0.0
 11
249.25
 21
146.4999999999998
 31
0.0
  0
LINE
  5
1280
  8
0
 10
230.5
 20
167.51608345078489
 30
0.0
 11
230.75
 21
146.4999999999998
 31
0.0
  0
CIRCLE
  5
1281
  8
0
 10
120.0
 20
50.0
 30
0.0
 40
6.75
  0
LINE
  5
1282
  8
0
 10
235.25412738078759
 20
172.78222972211131
 30
0.0
 11
234.9708391367158
 21
170.0599999999998
 31
0.0
  0
LINE
  5
1283
  8
0
 10
244.75
 20
172.78222972211131
 30
0.0
 11
245.0291608632842
 21
170.0599999999998
 31
0.0
  0
CIRCLE
  5
1284
  8
0
 10
120.0
 20
238.4999999999998
 30
0.0
 40
4.0
  0
ARC
  5
1285
  8
0
 10
118.169338093988
 20
239.55693314423101
 30
0.0
 40
0.6912500000000005
 50
309.68887794065978
 51
16.658241772777071
  0
ARC
  5
1286
  8
0
 10
119.20999999999999
 20
239.8683201379792
 30
0.0
 40
0.3949999999999998
 50
43.341758227220758
 51
196.6582417727771
  0
ARC
  5
1287
  8
0
 10
120.0
 20
240.6138662884623
 30
0.0
 40
0.6912499999999989
 50
223.34175822722071
 51
316.65824177277892
  0
ARC
  5
1288
  8
0
 10
120.78999999999991
 20
239.8683201379792
 30
0.0
 40
0.3950000000000002
 50
343.3417582272229
 51
136.65824177277921
  0
ARC
  5
1289
  8
0
 10
118.169338093988
 20
237.44306685576859
 30
0.0
 40
0.691250000000001
 50
343.3417582272229
 51
50.311122059331687
  0
ARC
  5
128A
  8
0
 10
119.20999999999999
 20
237.13167986202041
 30
0.0
 40
0.3950000000000001
 50
163.3417582272229
 51
316.65824177277892
  0
ARC
  5
128B
  8
0
 10
120.0
 20
236.38613371153741
 30
0.0
 40
0.6912500000000003
 50
43.341758227220758
 51
136.65824177277861
  0
ARC
  5
128C
  8
0
 10
120.78999999999991
 20
237.13167986202041
 30
0.0
 40
0.3949999999999998
 50
223.34175822722071
 51
16.658241772777071
  0
ARC
  5
128D
  8
0
 10
121.830661906012
 20
237.44306685576859
 30
0.0
 40
0.6912500000000003
 50
129.68887794066831
 51
196.6582417727771
  0
ARC
  5
128E
  8
0
 10
121.830661906012
 20
239.55693314423101
 30
0.0
 40
0.6912500000000011
 50
163.3417582272229
 51
230.3111220593407
  0
LINE
  5
128F
  8
0
 10
117.25
 20
237.9749999999998
 30
0.0
 11
118.6107830991341
 21
237.9749999999998
 31
0.0
  0
LINE
  5
1290
  8
0
 10
117.25
 20
239.02499999999981
 30
0.0
 11
118.6107830991339
 21
239.02499999999981
 31
0.0
  0
LINE
  5
1291
  8
0
 10
121.3892169008661
 20
239.02499999999981
 30
0.0
 11
122.75
 21
239.02499999999981
 31
0.0
  0
LINE
  5
1292
  8
0
 10
121.389216900866
 20
237.9749999999998
 30
0.0
 11
122.75
 21
237.9749999999998
 31
0.0
  0
ARC
  5
1293
  8
0
 10
120.0
 20
238.4999999999998
 30
0.0
 40
2.7567916134521511
 50
355.97735839170269
 51
4.0226416083007557
  0
LINE
  5
1294
  8
0
 10
122.75
 20
239.02499999999981
 30
0.0
 11
122.75
 21
237.9749999999998
 31
0.0
  0
LINE
  5
1295
  8
0
 10
117.25
 20
239.02499999999981
 30
0.0
 11
117.25
 21
237.9749999999998
 31
0.0
  0
ARC
  5
1296
  8
0
 10
120.0
 20
238.4999999999998
 30
0.0
 40
2.7567916134521511
 50
10.978391329938329
 51
169.02160867006191
  0
ARC
  5
1297
  8
0
 10
120.0
 20
238.4999999999998
 30
0.0
 40
2.7567916134521511
 50
190.97839132993801
 51
349.02160867006171
  0
ARC
  5
1298
  8
0
 10
120.0
 20
238.4999999999998
 30
0.0
 40
2.7567916134521511
 50
175.97735839169599
 51
184.02264160830401
  0
ARC
  5
1299
  8
0
 10
120.0
 20
160.98999999999981
 30
0.0
 40
8.0
 50
110.15731621557551
 51
119.9999999999999
  0
LINE
  5
129A
  8
0
 10
116.0
 20
167.9182032302754
 30
0.0
 11
120.8531166066079
 21
167.9182032302754
 31
0.0
  0
LINE
  5
129B
  8
0
 10
122.35988767072639
 20
168.4999999999998
 30
0.0
 11
117.24320838654781
 21
168.4999999999998
 31
0.0
  0
LINE
  5
129C
  8
0
 10
116.0
 20
167.9182032302754
 30
0.0
 11
116.0
 21
165.96080093912479
 31
0.0
  0
ARC
  5
129D
  8
0
 10
50.0
 20
160.98999999999981
 30
0.0
 40
8.0
 50
110.15731621557551
 51
119.9999999999999
  0
LINE
  5
129E
  8
0
 10
46.000000000000107
 20
167.9182032302754
 30
0.0
 11
53.999999999999993
 21
167.91820323027531
 31
0.0
  0
ARC
  5
129F
  8
0
 10
50.0
 20
160.98999999999981
 30
0.0
 40
8.0
 50
60.0
 51
69.842683784424494
  0
LINE
  5
12A0
  8
0
 10
52.756791613452137
 20
168.4999999999998
 30
0.0
 11
47.243208386547842
 21
168.4999999999998
 31
0.0
  0
LINE
  5
12A1
  8
0
 10
46.000000000000107
 20
167.9182032302754
 30
0.0
 11
45.999999999999993
 21
166.46031966248529
 31
0.0
  0
LINE
  5
12A2
  8
0
 10
53.999999999999993
 20
167.91820323027531
 30
0.0
 11
53.999999999999993
 21
166.46031966248529
 31
0.0
  0
LINE
  5
12BC
  8
0
 10
52.79999999999994
 20
99.999999999999787
 30
0.0
 11
47.200000000000038
 21
99.999999999999844
 31
0.0
  0
LINE
  5
12BD
  8
0
 10
45.999999999999993
 20
139.9999999999998
 30
0.0
 11
45.999999999999993
 21
101.1999999999998
 31
0.0
  0
LINE
  5
12BE
  8
3
 10
46.676499999999912
 20
136.9999999999998
 30
0.0
 11
46.676499999999912
 21
100.5234999999999
 31
0.0
  0
LINE
  5
12BF
  8
3
 10
53.323500000000067
 20
136.99999999999969
 30
0.0
 11
53.323500000000067
 21
100.5234999999999
 31
0.0
  0
LINE
  5
12C0
  8
0
 10
53.999999999999993
 20
139.9999999999998
 30
0.0
 11
53.999999999999993
 21
101.1999999999998
 31
0.0
  0
LINE
  5
12C1
  8
0
 10
53.999999999999993
 20
101.1999999999997
 30
0.0
 11
52.79999999999994
 21
99.999999999999787
 31
0.0
  0
LINE
  5
12C2
  8
0
 10
47.200000000000038
 20
99.999999999999844
 30
0.0
 11
45.999999999999993
 21
101.1999999999998
 31
0.0
  0
LINE
  5
12C3
  8
0
 10
53.999999999999993
 20
101.1999999999997
 30
0.0
 11
45.999999999999993
 21
101.1999999999998
 31
0.0
  0
LINE
  5
12C4
  8
0
 10
53.999999999999993
 20
136.99999999999969
 30
0.0
 11
45.999999999999993
 21
136.9999999999998
 31
0.0
  0
LINE
  5
12C5
  8
3
 10
53.323500000000067
 20
136.99999999999969
 30
0.0
 11
53.999999999999993
 21
138.17173237131979
 31
0.0
  0
LINE
  5
12C6
  8
3
 10
46.676499999999912
 20
136.99999999999969
 30
0.0
 11
45.999999999999993
 21
138.17173237131979
 31
0.0
  0
LINE
  5
12C7
  8
0
 10
122.7999999999999
 20
99.999999999999787
 30
0.0
 11
117.2
 21
99.999999999999844
 31
0.0
  0
LINE
  5
12C8
  8
0
 10
116.0
 20
139.9999999999998
 30
0.0
 11
116.0
 21
101.1999999999998
 31
0.0
  0
LINE
  5
12C9
  8
3
 10
116.6764999999999
 20
136.9999999999998
 30
0.0
 11
116.6764999999999
 21
100.5234999999999
 31
0.0
  0
LINE
  5
12CA
  8
3
 10
123.3235
 20
136.99999999999969
 30
0.0
 11
123.3235
 21
100.5234999999999
 31
0.0
  0
LINE
  5
12CB
  8
0
 10
124.0
 20
139.9999999999998
 30
0.0
 11
124.0
 21
101.1999999999998
 31
0.0
  0
LINE
  5
12CC
  8
0
 10
124.0
 20
101.1999999999997
 30
0.0
 11
122.7999999999999
 21
99.999999999999787
 31
0.0
  0
LINE
  5
12CD
  8
0
 10
117.2
 20
99.999999999999844
 30
0.0
 11
116.0
 21
101.1999999999998
 31
0.0
  0
LINE
  5
12CE
  8
0
 10
124.0
 20
101.1999999999997
 30
0.0
 11
116.0
 21
101.1999999999998
 31
0.0
  0
LINE
  5
12CF
  8
0
 10
124.0
 20
136.99999999999969
 30
0.0
 11
116.0
 21
136.9999999999998
 31
0.0
  0
LINE
  5
12D0
  8
3
 10
123.3235
 20
136.99999999999969
 30
0.0
 11
124.0
 21
138.17173237131979
 31
0.0
  0
LINE
  5
12D1
  8
3
 10
116.6764999999999
 20
136.99999999999969
 30
0.0
 11
116.0
 21
138.17173237131979
 31
0.0
  0
LINE
  5
12D2
  8
0
 10
242.7999999999999
 20
99.999999999999787
 30
0.0
 11
237.19999999999999
 21
99.999999999999844
 31
0.0
  0
LINE
  5
12D3
  8
0
 10
236.0
 20
139.9999999999998
 30
0.0
 11
236.0
 21
101.1999999999998
 31
0.0
  0
LINE
  5
12D4
  8
3
 10
236.67649999999989
 20
136.9999999999998
 30
0.0
 11
236.67649999999989
 21
100.5234999999999
 31
0.0
  0
LINE
  5
12D5
  8
3
 10
243.32350000000011
 20
136.99999999999969
 30
0.0
 11
243.32350000000011
 21
100.5234999999999
 31
0.0
  0
LINE
  5
12D6
  8
0
 10
244.0
 20
139.9999999999998
 30
0.0
 11
244.0
 21
101.1999999999998
 31
0.0
  0
LINE
  5
12D7
  8
0
 10
244.0
 20
101.1999999999997
 30
0.0
 11
242.7999999999999
 21
99.999999999999787
 31
0.0
  0
LINE
  5
12D8
  8
0
 10
237.19999999999999
 20
99.999999999999844
 30
0.0
 11
236.0
 21
101.1999999999998
 31
0.0
  0
LINE
  5
12D9
  8
0
 10
244.0
 20
101.1999999999997
 30
0.0
 11
236.0
 21
101.1999999999998
 31
0.0
  0
LINE
  5
12DA
  8
0
 10
244.0
 20
136.99999999999969
 30
0.0
 11
236.0
 21
136.9999999999998
 31
0.0
  0
LINE
  5
12DB
  8
3
 10
243.32350000000011
 20
136.99999999999969
 30
0.0
 11
244.0
 21
138.17173237131979
 31
0.0
  0
LINE
  5
12DC
  8
3
 10
236.67649999999989
 20
136.99999999999969
 30
0.0
 11
236.0
 21
138.17173237131979
 31
0.0
  0
CIRCLE
  5
12DD
  8
3
 10
120.0
 20
50.0
 30
0.0
 40
3.3234999999999668
  0
CIRCLE
  5
12DE
  8
0
 10
120.0
 20
50.0
 30
0.0
 40
4.0
  0
ENDSEC
  0
EOF
