  0
SECTION
  2
HEADER
  9
$ACADVER
  1
AC1009
  9
$INSBASE
 10
0.0
 20
0.0
 30
0.0
  9
$EXTMIN
 10
0.0
 20
-2.960436562073669
 30
0.0
  9
$EXTMAX
 10
311.08609146906178
 20
266.9219775458285
 30
0.0
  9
$LIMMIN
 10
0.0
 20
0.0
  9
$LIMMAX
 10
187.5
 20
135.0
  9
$ORTHOMODE
 70
     0
  9
$REGENMODE
 70
     1
  9
$FILLMODE
 70
     1
  9
$QTEXTMODE
 70
     0
  9
$MIRRTEXT
 70
     0
  9
$DRAGMODE
 70
     2
  9
$LTSCALE
 40
10.0
  9
$OSMODE
 70
    55
  9
$ATTMODE
 70
     1
  9
$TEXTSIZE
 40
4.0
  9
$TRACEWID
 40
0.05
  9
$TEXTSTYLE
  7
STANDARD
  9
$CLAYER
  8
0
  9
$CELTYPE
  6
BYLAYER
  9
$CECOLOR
 62
   256
  9
$DIMSCALE
 40
0.5
  9
$DIMASZ
 40
3.0
  9
$DIMEXO
 40
2.0
  9
$DIMDLI
 40
0.38
  9
$DIMRND
 40
0.0
  9
$DIMDLE
 40
0.0
  9
$DIMEXE
 40
2.0
  9
$DIMTP
 40
0.0
  9
$DIMTM
 40
0.0
  9
$DIMTXT
 40
3.0
  9
$DIMCEN
 40
0.0
  9
$DIMTSZ
 40
0.0
  9
$DIMTOL
 70
     0
  9
$DIMLIM
 70
     0
  9
$DIMTIH
 70
     0
  9
$DIMTOH
 70
     0
  9
$DIMSE1
 70
     0
  9
$DIMSE2
 70
     0
  9
$DIMTAD
 70
     1
  9
$DIMZIN
 70
     0
  9
$DIMBLK
  1

  9
$DIMASO
 70
     0
  9
$DIMSHO
 70
     0
  9
$DIMPOST
  1

  9
$DIMAPOST
  1

  9
$DIMALT
 70
     0
  9
$DIMALTD
 70
     2
  9
$DIMALTF
 40
25.399999999999999
  9
$DIMLFAC
 40
1.0
  9
$DIMTOFL
 70
     0
  9
$DIMTVP
 40
1.6000000000000001
  9
$DIMTIX
 70
     1
  9
$DIMSOXD
 70
     0
  9
$DIMSAH
 70
     0
  9
$DIMBLK1
  1

  9
$DIMBLK2
  1

  9
$DIMSTYLE
  2
STANDARD
  9
$DIMCLRD
 70
     0
  9
$DIMCLRE
 70
     0
  9
$DIMCLRT
 70
     0
  9
$DIMTFAC
 40
1.0
  9
$DIMGAP
 40
0.09
  9
$LUNITS
 70
     2
  9
$LUPREC
 70
     4
  9
$SKETCHINC
 40
0.1
  9
$FILLETRAD
 40
1.25
  9
$AUNITS
 70
     0
  9
$AUPREC
 70
     0
  9
$MENU
  1
E:\r13\win\SUPPORT\ACAD
  9
$ELEVATION
 40
0.0
  9
$PELEVATION
 40
0.0
  9
$THICKNESS
 40
0.0
  9
$LIMCHECK
 70
     0
  9
$BLIPMODE
 70
     0
  9
$CHAMFERA
 40
0.0
  9
$CHAMFERB
 40
0.0
  9
$SKPOLY
 70
     0
  9
$TDCREATE
 40
2449840.6143865739
  9
$TDUPDATE
 40
2456598.6579915392
  9
$TDINDWG
 40
0.2407779514
  9
$TDUSRTIMER
 40
0.2407779514
  9
$USRTIMER
 70
     1
  9
$ANGBASE
 50
0.0
  9
$ANGDIR
 70
     0
  9
$PDMODE
 70
     0
  9
$PDSIZE
 40
0.0
  9
$PLINEWID
 40
0.0
  9
$COORDS
 70
     1
  9
$SPLFRAME
 70
     0
  9
$SPLINETYPE
 70
     6
  9
$SPLINESEGS
 70
     8
  9
$ATTDIA
 70
     0
  9
$ATTREQ
 70
     1
  9
$HANDLING
 70
     1
  9
$HANDSEED
  5
1377
  9
$SURFTAB1
 70
     6
  9
$SURFTAB2
 70
     6
  9
$SURFTYPE
 70
     6
  9
$SURFU
 70
     6
  9
$SURFV
 70
     6
  9
$UCSNAME
  2

  9
$UCSORG
 10
0.0
 20
0.0
 30
0.0
  9
$UCSXDIR
 10
1.0
 20
0.0
 30
0.0
  9
$UCSYDIR
 10
0.0
 20
1.0
 30
0.0
  9
$PUCSNAME
  2

  9
$PUCSORG
 10
0.0
 20
0.0
 30
0.0
  9
$PUCSXDIR
 10
1.0
 20
0.0
 30
0.0
  9
$PUCSYDIR
 10
0.0
 20
1.0
 30
0.0
  9
$USERI1
 70
     0
  9
$USERI2
 70
     1
  9
$USERI3
 70
     1
  9
$USERI4
 70
     0
  9
$USERI5
 70
     0
  9
$USERR1
 40
0.0
  9
$USERR2
 40
0.0
  9
$USERR3
 40
0.0
  9
$USERR4
 40
0.0
  9
$USERR5
 40
0.0
  9
$WORLDVIEW
 70
     1
  9
$SHADEDGE
 70
     3
  9
$SHADEDIF
 70
    70
  9
$TILEMODE
 70
     1
  9
$MAXACTVP
 70
    16
  9
$PLIMCHECK
 70
     0
  9
$PEXTMIN
 10
1.0000000000000000E+020
 20
1.0000000000000000E+020
 30
1.0000000000000000E+020
  9
$PEXTMAX
 10
-1.0000000000000000E+020
 20
-1.0000000000000000E+020
 30
-1.0000000000000000E+020
  9
$PLIMMIN
 10
0.0
 20
0.0
  9
$PLIMMAX
 10
12.0
 20
9.0
  9
$UNITMODE
 70
     0
  9
$VISRETAIN
 70
     0
  9
$PLINEGEN
 70
     0
  9
$PSLTSCALE
 70
     0
  0
ENDSEC
  0
SECTION
  2
TABLES
  0
TABLE
  2
VPORT
 70
     1
  0
VPORT
  2
*ACTIVE
 70
     0
 10
0.0
 20
0.0
 11
1.0
 21
1.0
 12
155.5430464588346
 22
172.9209222078162
 13
0.0
 23
0.0
 14
5.0
 24
5.0
 15
5.0
 25
5.0
 16
0.0
 26
0.0
 36
1.0
 17
0.0
 27
0.0
 37
0.0
 40
354.86604557599208
 41
1.7807262569832401
 42
50.0
 43
0.0
 44
0.0
 50
0.0
 51
0.0
 71
     0
 72
   100
 73
     1
 74
     0
 75
     0
 76
     0
 77
     0
 78
     0
  0
ENDTAB
  0
TABLE
  2
LTYPE
 70
     3
  0
LTYPE
  2
CONTINUOUS
 70
     0
  3
Solid Line
 72
    65
 73
     0
 40
0.0
  0
LTYPE
  2
CENTER
 70
     0
  3
____ _ ____ _ ____ _ ____ _ ____ _ ____ _ ____
 72
    65
 73
     4
 40
2.0
 49
1.25
 49
-0.25
 49
0.25
 49
-0.25
  0
LTYPE
  2
PHANTOM2
 70
     0
  3
___ _ _ ___ _ _ ___ _ _ ___ _ _
 72
    65
 73
     6
 40
1.25
 49
0.625
 49
-0.125
 49
0.125
 49
-0.125
 49
0.125
 49
-0.125
  0
ENDTAB
  0
TABLE
  2
LAYER
 70
     3
  0
LAYER
  2
0
 70
     0
 62
     7
  6
CONTINUOUS
  0
LAYER
  2
1
 70
     0
 62
     1
  6
CENTER
  0
LAYER
  2
3
 70
     0
 62
     3
  6
CONTINUOUS
  0
ENDTAB
  0
TABLE
  2
STYLE
 70
     2
  0
STYLE
  2
STANDARD
 70
     0
 40
0.0
 41
1.0
 50
0.0
 71
     0
 42
4.0
  3
TXT
  4
BIGFONT
  0
STYLE
  2
STANDARD1
 70
     0
 40
0.0
 41
1.0
 50
0.0
 71
     0
 42
3.0
  3
txt
  4

  0
ENDTAB
  0
TABLE
  2
VIEW
 70
     1
  0
VIEW
  2
ALL
 70
     0
 40
179.66152299999999
 10
141.903918
 20
89.830760999999995
 41
0.0
 11
0.0
 21
0.0
 31
1.0
 12
0.0
 22
0.0
 32
0.0
 42
0.0
 43
0.0
 44
0.0
 50
0.0
 71
     0
  0
ENDTAB
  0
TABLE
  2
UCS
 70
     0
  0
ENDTAB
  0
TABLE
  2
APPID
 70
     4
  0
APPID
  2
ACAD
 70
     0
  0
APPID
  2
DCO15
 70
     0
  0
APPID
  2
ACAD_MLEADERVER
 70
     0
  0
APPID
  2
ACAD_NAV_VCDISPLAY
 70
     0
  0
ENDTAB
  0
TABLE
  2
DIMSTYLE
 70
     1
  0
DIMSTYLE
  2
STANDARD
 70
     0
  3

  4

  5

  6

  7

 40
1.0
 41
0.18
 42
0.0625
 43
0.38
 44
0.18
 45
0.0
 46
0.0
 47
0.0
 48
0.0
140
0.18
141
0.09
142
0.0
143
25.399999999999999
144
1.0
145
0.0
146
1.0
147
0.09
 71
     0
 72
     0
 73
     1
 74
     1
 75
     0
 76
     0
 77
     0
 78
     0
170
     0
171
     2
172
     0
173
     0
174
     0
175
     0
176
     0
177
     0
178
     0
  0
ENDTAB
  0
ENDSEC
  0
SECTION
  2
BLOCKS
  0
BLOCK
  8
0
  2
$MODEL_SPACE
 70
     0
 10
0.0
 20
0.0
 30
0.0
  3
$MODEL_SPACE
  1

  0
ENDBLK
  5
1BD
  8
0
  0
BLOCK
 67
     1
  8
0
  2
$PAPER_SPACE
 70
     0
 10
0.0
 20
0.0
 30
0.0
  3
$PAPER_SPACE
  1

  0
ENDBLK
  5
1BB
 67
     1
  8
0
  0
ENDSEC
  0
SECTION
  2
ENTITIES
  0
LINE
  5
E7E
  8
1
 10
252.35822889419569
 20
252.42197754582861
 30
0.0
 11
167.85822889419569
 21
252.4219775458285
 31
0.0
  0
ARC
  5
E7F
  8
0
 10
182.35822889419561
 20
252.4219775458285
 30
0.0
 40
9.5
 50
43.960390333331041
 51
167.0937516733598
  0
ARC
  5
E80
  8
0
 10
201.7185164128361
 20
207.83798265773731
 30
0.0
 40
40.0
 50
76.417232813746722
 51
108.2431324165678
  0
ARC
  5
E81
  8
0
 10
201.7185164128361
 20
297.00597243391979
 30
0.0
 40
40.0
 50
251.7568675834319
 51
283.58276718625319
  0
ARC
  5
E82
  8
0
 10
182.35822889419561
 20
252.4219775458285
 30
0.0
 40
9.5
 50
192.90624832664011
 51
316.03960966666949
  0
LINE
  5
E83
  8
1
 10
182.35822889419561
 20
266.9219775458285
 30
0.0
 11
182.35822889419561
 21
237.9219775458285
 31
0.0
  0
CIRCLE
  5
E84
  8
0
 10
183.1309436413504
 20
252.4219775458285
 30
0.0
 40
5.3807200853997337
  0
LINE
  5
E86
  8
0
 10
173.0982288941957
 20
250.30009159224861
 30
0.0
 11
173.0982288941957
 21
254.54386349940839
 31
0.0
  0
LINE
  5
E93
  8
0
 10
212.4673405651219
 20
246.58267041085651
 30
0.0
 11
242.60822889419569
 21
247.6719775458285
 31
0.0
  0
LINE
  5
E94
  8
0
 10
212.4673405651219
 20
258.26128468080049
 30
0.0
 11
242.60822889419569
 21
257.1719775458285
 31
0.0
  0
ARC
  5
E95
  8
0
 10
212.2867559009857
 20
251.57940826460461
 30
0.0
 40
5.0
 50
256.41723281374669
 51
272.0697979717865
  0
ARC
  5
E96
  8
0
 10
212.2867559009857
 20
253.26454682705241
 30
0.0
 40
5.0
 50
87.930202028213543
 51
103.58276718625319
  0
ARC
  5
E97
  8
0
 10
242.60822889419569
 20
252.42197754582861
 30
0.0
 40
4.75
 50
270.0
 51
90.0
  0
LINE
  5
E98
  8
0
 10
173.0982288941957
 20
181.3660100055462
 30
0.0
 11
173.0982288941957
 21
166.78555449559039
 31
0.0
  0
LINE
  5
E99
  8
0
 10
191.5982288941957
 20
166.78555449559039
 30
0.0
 11
191.59822889419561
 21
177.7855544955905
 31
0.0
  0
LINE
  5
E9A
  8
0
 10
243.5728406092654
 20
193.09424470299891
 30
0.0
 11
236.31085456755409
 21
190.8073359079109
 31
0.0
  0
LINE
  5
E9B
  8
0
 10
233.3071258558287
 20
190.34555449559051
 30
0.0
 11
224.5033693504156
 21
190.34555449559051
 31
0.0
  0
LINE
  5
E9C
  8
0
 10
191.5982288941957
 20
166.78555449559039
 30
0.0
 11
173.0982288941957
 21
166.78555449559039
 31
0.0
  0
LINE
  5
E9E
  8
0
 10
189.10822889419569
 20
160.2855544955905
 30
0.0
 11
189.10822889419569
 21
166.78555449559039
 31
0.0
  0
LINE
  5
E9F
  8
0
 10
175.60822889419569
 20
166.78555449559039
 30
0.0
 11
175.60822889419569
 21
160.2855544955905
 31
0.0
  0
LINE
  5
EA1
  8
0
 10
175.60822889419569
 20
160.2855544955905
 30
0.0
 11
189.10822889419569
 21
160.2855544955905
 31
0.0
  0
LINE
  5
EA2
  8
1
 10
182.35822889419561
 20
193.78555449559039
 30
0.0
 11
182.3582288941958
 21
95.285554495590404
 31
0.0
  0
ARC
  5
EB0
  8
0
 10
182.35822889419561
 20
51.035502119709349
 30
0.0
 40
9.5
 50
43.960390333331041
 51
167.0937516733598
  0
ARC
  5
EB1
  8
0
 10
182.35822889419561
 20
51.035502119709349
 30
0.0
 40
9.5
 50
192.90624832664011
 51
316.03960966666949
  0
LINE
  5
EB2
  8
1
 10
252.35822889419569
 20
51.035502119709371
 30
0.0
 11
167.85822889419569
 21
51.035502119709349
 31
0.0
  0
LINE
  5
EB3
  8
1
 10
182.35822889419561
 20
65.535502119709349
 30
0.0
 11
182.35822889419561
 21
36.535502119709349
 31
0.0
  0
LINE
  5
EB4
  8
0
 10
173.0982288941957
 20
48.91361616612943
 30
0.0
 11
173.0982288941957
 21
53.157388073289297
 31
0.0
  0
LINE
  5
EB5
  8
0
 10
212.4673405651219
 20
45.19619498473741
 30
0.0
 11
242.60822889419569
 21
46.285502119709342
 31
0.0
  0
LINE
  5
EB6
  8
0
 10
212.4673405651219
 20
56.874809254681331
 30
0.0
 11
242.60822889419569
 21
55.785502119709378
 31
0.0
  0
ARC
  5
EB7
  8
0
 10
201.7185164128361
 20
6.451507231618109
 30
0.0
 40
40.0
 50
76.417232813746722
 51
108.2431324165678
  0
ARC
  5
EB8
  8
0
 10
212.2867559009857
 20
50.19293283848549
 30
0.0
 40
5.0
 50
256.41723281374669
 51
272.0697979717865
  0
ARC
  5
EB9
  8
0
 10
201.7185164128361
 20
95.619497007800646
 30
0.0
 40
40.0
 50
251.7568675834319
 51
283.58276718625319
  0
ARC
  5
EBA
  8
0
 10
212.2867559009857
 20
51.878071400933258
 30
0.0
 40
5.0
 50
87.930202028213543
 51
103.58276718625319
  0
ARC
  5
EBB
  8
0
 10
242.60822889419569
 20
51.035502119709371
 30
0.0
 40
4.75
 50
270.0
 51
90.0
  0
CIRCLE
  5
EBC
  8
0
 10
182.35822889419561
 20
51.035502119709349
 30
0.0
 40
9.2500000000000213
  0
CIRCLE
  5
EBD
  8
3
 10
182.35822889419561
 20
51.035502119709349
 30
0.0
 40
3.375
  0
CIRCLE
  5
EBE
  8
0
 10
182.35822889419561
 20
51.035502119709349
 30
0.0
 40
4.0
  0
LINE
  5
EC1
  8
0
 10
117.30088848732289
 20
160.2855544955905
 30
0.0
 11
117.30088848732289
 21
166.78555449559039
 31
0.0
  0
LINE
  5
EC2
  8
0
 10
103.80088848732289
 20
166.78555449559039
 30
0.0
 11
103.80088848732289
 21
160.2855544955905
 31
0.0
  0
LINE
  5
EC4
  8
0
 10
103.80088848732289
 20
160.2855544955905
 30
0.0
 11
117.30088848732289
 21
160.2855544955905
 31
0.0
  0
LINE
  5
EC5
  8
0
 10
104.34744994411869
 20
185.01336026625569
 30
0.0
 11
116.75432703052709
 21
185.01336026625569
 31
0.0
  0
LINE
  5
EC6
  8
0
 10
119.80088848732289
 20
166.78555449559039
 30
0.0
 11
101.30088848732289
 21
166.78555449559039
 31
0.0
  0
LINE
  5
EC7
  8
1
 10
110.55088848732289
 20
207.57058872112731
 30
0.0
 11
110.55088848732289
 21
95.285554495590389
 31
0.0
  0
ARC
  5
EC8
  8
0
 10
243.86981531642721
 20
199.28563795816009
 30
0.0
 40
3.5
 50
355.33664836780463
 51
90.395685692583854
  0
ARC
  5
EC9
  8
0
 10
266.81085593686942
 20
-26.06504974468049
 30
0.0
 40
230.0
 50
95.730460647055494
 51
113.38817846563499
  0
ARC
  5
ECA
  8
0
 10
177.0982288941957
 20
181.3660100055462
 30
0.0
 40
4.0
 50
113.3881784656329
 51
180.0
  0
ARC
  5
ECB
  8
0
 10
288.84273482747579
 20
-19.555536171792539
 30
0.0
 40
220.0
 50
107.8410827436654
 51
116.23286702971259
  0
ARC
  5
ECC
  8
0
 10
224.5033693504156
 20
180.34555449559051
 30
0.0
 40
10.0
 50
90.0
 51
107.8410827436654
  0
ARC
  5
ECD
  8
0
 10
233.3071258558287
 20
200.34555449559051
 30
0.0
 40
10.0
 50
270.0
 51
287.47999999999939
  0
ARC
  5
ECE
  8
0
 10
239.47617838737821
 20
199.9657335256459
 30
0.0
 40
8.0
 50
300.80266237156633
 51
350.14910440292891
  0
LINE
  5
ECF
  8
0
 10
247.35822889419569
 20
199.57019148641211
 30
0.0
 11
247.35822889419569
 21
198.597055401331
 31
0.0
  0
LINE
  5
ED0
  8
0
 10
112.388154247937
 20
186.16114130127761
 30
0.0
 11
108.71362272670881
 21
186.16114130127761
 31
0.0
  0
POLYLINE
  5
ED1
  8
0
 10
112.38815424793698
 20
186.16114130127764
 30
0.0
 66
     1
 70
     8
  0
VERTEX
  8
0
  5
116F
 10
112.388
 20
186.161
 30
0.000000
  70
    32
  0
VERTEX
  8
0
  5
1170
 10
112.605
 20
186.195
 30
0.000000
  70
    32
  0
VERTEX
  8
0
  5
1171
 10
112.819
 20
186.232
 30
0.000000
  70
    32
  0
VERTEX
  8
0
  5
1172
 10
113.028
 20
186.273
 30
0.000000
  70
    32
  0
VERTEX
  8
0
  5
1173
 10
113.232
 20
186.318
 30
0.000000
  70
    32
  0
VERTEX
  8
0
  5
1174
 10
113.431
 20
186.366
 30
0.000000
  70
    32
  0
VERTEX
  8
0
  5
1175
 10
113.625
 20
186.418
 30
0.000000
  70
    32
  0
VERTEX
  8
0
  5
1176
 10
113.813
 20
186.473
 30
0.000000
  70
    32
  0
VERTEX
  8
0
  5
1177
 10
113.994
 20
186.531
 30
0.000000
  70
    32
  0
VERTEX
  8
0
  5
1178
 10
114.169
 20
186.592
 30
0.000000
  70
    32
  0
VERTEX
  8
0
  5
1179
 10
114.337
 20
186.656
 30
0.000000
  70
    32
  0
VERTEX
  8
0
  5
117A
 10
114.498
 20
186.723
 30
0.000000
  70
    32
  0
VERTEX
  8
0
  5
117B
 10
114.652
 20
186.792
 30
0.000000
  70
    32
  0
VERTEX
  8
0
  5
117C
 10
114.798
 20
186.865
 30
0.000000
  70
    32
  0
VERTEX
  8
0
  5
117D
 10
114.935
 20
186.939
 30
0.000000
  70
    32
  0
VERTEX
  8
0
  5
117E
 10
115.065
 20
187.016
 30
0.000000
  70
    32
  0
VERTEX
  8
0
  5
117F
 10
115.185
 20
187.096
 30
0.000000
  70
    32
  0
VERTEX
  8
0
  5
1180
 10
115.297
 20
187.177
 30
0.000000
  70
    32
  0
VERTEX
  8
0
  5
1181
 10
115.400
 20
187.260
 30
0.000000
  70
    32
  0
VERTEX
  8
0
  5
1182
 10
115.494
 20
187.345
 30
0.000000
  70
    32
  0
VERTEX
  8
0
  5
1183
 10
115.578
 20
187.431
 30
0.000000
  70
    32
  0
VERTEX
  8
0
  5
1184
 10
115.653
 20
187.519
 30
0.000000
  70
    32
  0
VERTEX
  8
0
  5
1185
 10
115.718
 20
187.608
 30
0.000000
  70
    32
  0
VERTEX
  8
0
  5
1186
 10
115.773
 20
187.698
 30
0.000000
  70
    32
  0
VERTEX
  8
0
  5
1187
 10
115.818
 20
187.788
 30
0.000000
  70
    32
  0
VERTEX
  8
0
  5
1188
 10
115.853
 20
187.880
 30
0.000000
  70
    32
  0
VERTEX
  8
0
  5
1189
 10
115.879
 20
187.972
 30
0.000000
  70
    32
  0
VERTEX
  8
0
  5
118A
 10
115.894
 20
188.064
 30
0.000000
  70
    32
  0
VERTEX
  8
0
  5
118B
 10
115.898
 20
188.157
 30
0.000000
  70
    32
  0
VERTEX
  8
0
  5
118C
 10
115.893
 20
188.249
 30
0.000000
  70
    32
  0
VERTEX
  8
0
  5
118D
 10
115.878
 20
188.342
 30
0.000000
  70
    32
  0
VERTEX
  8
0
  5
118E
 10
115.852
 20
188.434
 30
0.000000
  70
    32
  0
VERTEX
  8
0
  5
118F
 10
115.816
 20
188.525
 30
0.000000
  70
    32
  0
VERTEX
  8
0
  5
1190
 10
115.771
 20
188.616
 30
0.000000
  70
    32
  0
VERTEX
  8
0
  5
1191
 10
115.715
 20
188.706
 30
0.000000
  70
    32
  0
VERTEX
  8
0
  5
1192
 10
115.650
 20
188.795
 30
0.000000
  70
    32
  0
VERTEX
  8
0
  5
1193
 10
115.575
 20
188.882
 30
0.000000
  70
    32
  0
VERTEX
  8
0
  5
1194
 10
115.490
 20
188.969
 30
0.000000
  70
    32
  0
VERTEX
  8
0
  5
1195
 10
115.396
 20
189.053
 30
0.000000
  70
    32
  0
VERTEX
  8
0
  5
1196
 10
115.293
 20
189.136
 30
0.000000
  70
    32
  0
VERTEX
  8
0
  5
1197
 10
115.180
 20
189.217
 30
0.000000
  70
    32
  0
VERTEX
  8
0
  5
1198
 10
115.059
 20
189.297
 30
0.000000
  70
    32
  0
VERTEX
  8
0
  5
1199
 10
114.930
 20
189.374
 30
0.000000
  70
    32
  0
VERTEX
  8
0
  5
119A
 10
114.792
 20
189.448
 30
0.000000
  70
    32
  0
VERTEX
  8
0
  5
119B
 10
114.646
 20
189.520
 30
0.000000
  70
    32
  0
VERTEX
  8
0
  5
119C
 10
114.492
 20
189.590
 30
0.000000
  70
    32
  0
VERTEX
  8
0
  5
119D
 10
114.330
 20
189.657
 30
0.000000
  70
    32
  0
VERTEX
  8
0
  5
119E
 10
114.162
 20
189.721
 30
0.000000
  70
    32
  0
VERTEX
  8
0
  5
119F
 10
113.987
 20
189.782
 30
0.000000
  70
    32
  0
VERTEX
  8
0
  5
11A0
 10
113.805
 20
189.840
 30
0.000000
  70
    32
  0
VERTEX
  8
0
  5
11A1
 10
113.617
 20
189.894
 30
0.000000
  70
    32
  0
VERTEX
  8
0
  5
11A2
 10
113.423
 20
189.946
 30
0.000000
  70
    32
  0
VERTEX
  8
0
  5
11A3
 10
113.223
 20
189.994
 30
0.000000
  70
    32
  0
VERTEX
  8
0
  5
11A4
 10
113.019
 20
190.038
 30
0.000000
  70
    32
  0
VERTEX
  8
0
  5
11A5
 10
112.810
 20
190.079
 30
0.000000
  70
    32
  0
VERTEX
  8
0
  5
11A6
 10
112.596
 20
190.116
 30
0.000000
  70
    32
  0
VERTEX
  8
0
  5
11A7
 10
112.379
 20
190.150
 30
0.000000
  70
    32
  0
VERTEX
  8
0
  5
11A8
 10
112.158
 20
190.180
 30
0.000000
  70
    32
  0
VERTEX
  8
0
  5
11A9
 10
111.934
 20
190.206
 30
0.000000
  70
    32
  0
VERTEX
  8
0
  5
11AA
 10
111.708
 20
190.228
 30
0.000000
  70
    32
  0
VERTEX
  8
0
  5
11AB
 10
111.479
 20
190.246
 30
0.000000
  70
    32
  0
VERTEX
  8
0
  5
11AC
 10
111.248
 20
190.260
 30
0.000000
  70
    32
  0
VERTEX
  8
0
  5
11AD
 10
111.017
 20
190.270
 30
0.000000
  70
    32
  0
VERTEX
  8
0
  5
11AE
 10
110.784
 20
190.276
 30
0.000000
  70
    32
  0
VERTEX
  8
0
  5
11AF
 10
110.551
 20
190.278
 30
0.000000
  70
    32
  0
VERTEX
  8
0
  5
11B0
 10
110.318
 20
190.276
 30
0.000000
  70
    32
  0
VERTEX
  8
0
  5
11B1
 10
110.085
 20
190.270
 30
0.000000
  70
    32
  0
VERTEX
  8
0
  5
11B2
 10
109.853
 20
190.260
 30
0.000000
  70
    32
  0
VERTEX
  8
0
  5
11B3
 10
109.623
 20
190.246
 30
0.000000
  70
    32
  0
VERTEX
  8
0
  5
11B4
 10
109.394
 20
190.228
 30
0.000000
  70
    32
  0
VERTEX
  8
0
  5
11B5
 10
109.168
 20
190.206
 30
0.000000
  70
    32
  0
VERTEX
  8
0
  5
11B6
 10
108.944
 20
190.180
 30
0.000000
  70
    32
  0
VERTEX
  8
0
  5
11B7
 10
108.723
 20
190.150
 30
0.000000
  70
    32
  0
VERTEX
  8
0
  5
11B8
 10
108.506
 20
190.116
 30
0.000000
  70
    32
  0
VERTEX
  8
0
  5
11B9
 10
108.292
 20
190.079
 30
0.000000
  70
    32
  0
VERTEX
  8
0
  5
11BA
 10
108.083
 20
190.038
 30
0.000000
  70
    32
  0
VERTEX
  8
0
  5
11BB
 10
107.879
 20
189.994
 30
0.000000
  70
    32
  0
VERTEX
  8
0
  5
11BC
 10
107.679
 20
189.946
 30
0.000000
  70
    32
  0
VERTEX
  8
0
  5
11BD
 10
107.485
 20
189.894
 30
0.000000
  70
    32
  0
VERTEX
  8
0
  5
11BE
 10
107.297
 20
189.840
 30
0.000000
  70
    32
  0
VERTEX
  8
0
  5
11BF
 10
107.115
 20
189.782
 30
0.000000
  70
    32
  0
VERTEX
  8
0
  5
11C0
 10
106.940
 20
189.721
 30
0.000000
  70
    32
  0
VERTEX
  8
0
  5
11C1
 10
106.771
 20
189.657
 30
0.000000
  70
    32
  0
VERTEX
  8
0
  5
11C2
 10
106.610
 20
189.590
 30
0.000000
  70
    32
  0
VERTEX
  8
0
  5
11C3
 10
106.456
 20
189.520
 30
0.000000
  70
    32
  0
VERTEX
  8
0
  5
11C4
 10
106.310
 20
189.448
 30
0.000000
  70
    32
  0
VERTEX
  8
0
  5
11C5
 10
106.172
 20
189.374
 30
0.000000
  70
    32
  0
VERTEX
  8
0
  5
11C6
 10
106.043
 20
189.297
 30
0.000000
  70
    32
  0
VERTEX
  8
0
  5
11C7
 10
105.921
 20
189.217
 30
0.000000
  70
    32
  0
VERTEX
  8
0
  5
11C8
 10
105.809
 20
189.136
 30
0.000000
  70
    32
  0
VERTEX
  8
0
  5
11C9
 10
105.706
 20
189.053
 30
0.000000
  70
    32
  0
VERTEX
  8
0
  5
11CA
 10
105.612
 20
188.969
 30
0.000000
  70
    32
  0
VERTEX
  8
0
  5
11CB
 10
105.527
 20
188.882
 30
0.000000
  70
    32
  0
VERTEX
  8
0
  5
11CC
 10
105.452
 20
188.795
 30
0.000000
  70
    32
  0
VERTEX
  8
0
  5
11CD
 10
105.387
 20
188.706
 30
0.000000
  70
    32
  0
VERTEX
  8
0
  5
11CE
 10
105.331
 20
188.616
 30
0.000000
  70
    32
  0
VERTEX
  8
0
  5
11CF
 10
105.285
 20
188.525
 30
0.000000
  70
    32
  0
VERTEX
  8
0
  5
11D0
 10
105.250
 20
188.434
 30
0.000000
  70
    32
  0
VERTEX
  8
0
  5
11D1
 10
105.224
 20
188.342
 30
0.000000
  70
    32
  0
VERTEX
  8
0
  5
11D2
 10
105.209
 20
188.249
 30
0.000000
  70
    32
  0
VERTEX
  8
0
  5
11D3
 10
105.203
 20
188.157
 30
0.000000
  70
    32
  0
VERTEX
  8
0
  5
11D4
 10
105.208
 20
188.064
 30
0.000000
  70
    32
  0
VERTEX
  8
0
  5
11D5
 10
105.223
 20
187.972
 30
0.000000
  70
    32
  0
VERTEX
  8
0
  5
11D6
 10
105.248
 20
187.880
 30
0.000000
  70
    32
  0
VERTEX
  8
0
  5
11D7
 10
105.284
 20
187.788
 30
0.000000
  70
    32
  0
VERTEX
  8
0
  5
11D8
 10
105.329
 20
187.698
 30
0.000000
  70
    32
  0
VERTEX
  8
0
  5
11D9
 10
105.384
 20
187.608
 30
0.000000
  70
    32
  0
VERTEX
  8
0
  5
11DA
 10
105.449
 20
187.519
 30
0.000000
  70
    32
  0
VERTEX
  8
0
  5
11DB
 10
105.524
 20
187.431
 30
0.000000
  70
    32
  0
VERTEX
  8
0
  5
11DC
 10
105.608
 20
187.345
 30
0.000000
  70
    32
  0
VERTEX
  8
0
  5
11DD
 10
105.702
 20
187.260
 30
0.000000
  70
    32
  0
VERTEX
  8
0
  5
11DE
 10
105.805
 20
187.177
 30
0.000000
  70
    32
  0
VERTEX
  8
0
  5
11DF
 10
105.916
 20
187.096
 30
0.000000
  70
    32
  0
VERTEX
  8
0
  5
11E0
 10
106.037
 20
187.016
 30
0.000000
  70
    32
  0
VERTEX
  8
0
  5
11E1
 10
106.166
 20
186.939
 30
0.000000
  70
    32
  0
VERTEX
  8
0
  5
11E2
 10
106.304
 20
186.865
 30
0.000000
  70
    32
  0
VERTEX
  8
0
  5
11E3
 10
106.450
 20
186.792
 30
0.000000
  70
    32
  0
VERTEX
  8
0
  5
11E4
 10
106.603
 20
186.723
 30
0.000000
  70
    32
  0
VERTEX
  8
0
  5
11E5
 10
106.764
 20
186.656
 30
0.000000
  70
    32
  0
VERTEX
  8
0
  5
11E6
 10
106.933
 20
186.592
 30
0.000000
  70
    32
  0
VERTEX
  8
0
  5
11E7
 10
107.108
 20
186.531
 30
0.000000
  70
    32
  0
VERTEX
  8
0
  5
11E8
 10
107.289
 20
186.473
 30
0.000000
  70
    32
  0
VERTEX
  8
0
  5
11E9
 10
107.477
 20
186.418
 30
0.000000
  70
    32
  0
VERTEX
  8
0
  5
11EA
 10
107.671
 20
186.366
 30
0.000000
  70
    32
  0
VERTEX
  8
0
  5
11EB
 10
107.870
 20
186.318
 30
0.000000
  70
    32
  0
VERTEX
  8
0
  5
11EC
 10
108.074
 20
186.273
 30
0.000000
  70
    32
  0
VERTEX
  8
0
  5
11ED
 10
108.283
 20
186.232
 30
0.000000
  70
    32
  0
VERTEX
  8
0
  5
11EE
 10
108.496
 20
186.195
 30
0.000000
  70
    32
  0
VERTEX
  8
0
  5
11EF
 10
108.714
 20
186.161
 30
0.000000
  70
    32
  0
SEQEND
  8
0
  5
11F0
  0
POLYLINE
  5
ED2
  8
0
 10
116.75432703052707
 20
185.01336026625572
 30
0.0
 66
     1
 70
     8
  0
VERTEX
  8
0
  5
11F1
 10
116.754
 20
185.013
 30
0.000000
  70
    32
  0
VERTEX
  8
0
  5
11F2
 10
117.023
 20
185.108
 30
0.000000
  70
    32
  0
VERTEX
  8
0
  5
11F3
 10
117.282
 20
185.207
 30
0.000000
  70
    32
  0
VERTEX
  8
0
  5
11F4
 10
117.531
 20
185.309
 30
0.000000
  70
    32
  0
VERTEX
  8
0
  5
11F5
 10
117.771
 20
185.416
 30
0.000000
  70
    32
  0
VERTEX
  8
0
  5
11F6
 10
118.000
 20
185.525
 30
0.000000
  70
    32
  0
VERTEX
  8
0
  5
11F7
 10
118.218
 20
185.638
 30
0.000000
  70
    32
  0
VERTEX
  8
0
  5
11F8
 10
118.425
 20
185.755
 30
0.000000
  70
    32
  0
VERTEX
  8
0
  5
11F9
 10
118.621
 20
185.874
 30
0.000000
  70
    32
  0
VERTEX
  8
0
  5
11FA
 10
118.806
 20
185.996
 30
0.000000
  70
    32
  0
VERTEX
  8
0
  5
11FB
 10
118.978
 20
186.121
 30
0.000000
  70
    32
  0
VERTEX
  8
0
  5
11FC
 10
119.138
 20
186.248
 30
0.000000
  70
    32
  0
VERTEX
  8
0
  5
11FD
 10
119.286
 20
186.377
 30
0.000000
  70
    32
  0
VERTEX
  8
0
  5
11FE
 10
119.421
 20
186.509
 30
0.000000
  70
    32
  0
VERTEX
  8
0
  5
11FF
 10
119.544
 20
186.643
 30
0.000000
  70
    32
  0
VERTEX
  8
0
  5
1200
 10
119.653
 20
186.778
 30
0.000000
  70
    32
  0
VERTEX
  8
0
  5
1201
 10
119.749
 20
186.915
 30
0.000000
  70
    32
  0
VERTEX
  8
0
  5
1202
 10
119.833
 20
187.053
 30
0.000000
  70
    32
  0
VERTEX
  8
0
  5
1203
 10
119.902
 20
187.192
 30
0.000000
  70
    32
  0
VERTEX
  8
0
  5
1204
 10
119.959
 20
187.333
 30
0.000000
  70
    32
  0
VERTEX
  8
0
  5
1205
 10
120.001
 20
187.474
 30
0.000000
  70
    32
  0
VERTEX
  8
0
  5
1206
 10
120.030
 20
187.615
 30
0.000000
  70
    32
  0
VERTEX
  8
0
  5
1207
 10
120.046
 20
187.757
 30
0.000000
  70
    32
  0
VERTEX
  8
0
  5
1208
 10
120.048
 20
187.899
 30
0.000000
  70
    32
  0
VERTEX
  8
0
  5
1209
 10
120.036
 20
188.041
 30
0.000000
  70
    32
  0
VERTEX
  8
0
  5
120A
 10
120.010
 20
188.183
 30
0.000000
  70
    32
  0
VERTEX
  8
0
  5
120B
 10
119.971
 20
188.324
 30
0.000000
  70
    32
  0
VERTEX
  8
0
  5
120C
 10
119.918
 20
188.464
 30
0.000000
  70
    32
  0
VERTEX
  8
0
  5
120D
 10
119.852
 20
188.604
 30
0.000000
  70
    32
  0
VERTEX
  8
0
  5
120E
 10
119.772
 20
188.742
 30
0.000000
  70
    32
  0
VERTEX
  8
0
  5
120F
 10
119.679
 20
188.880
 30
0.000000
  70
    32
  0
VERTEX
  8
0
  5
1210
 10
119.573
 20
189.015
 30
0.000000
  70
    32
  0
VERTEX
  8
0
  5
1211
 10
119.453
 20
189.149
 30
0.000000
  70
    32
  0
VERTEX
  8
0
  5
1212
 10
119.321
 20
189.282
 30
0.000000
  70
    32
  0
VERTEX
  8
0
  5
1213
 10
119.177
 20
189.412
 30
0.000000
  70
    32
  0
VERTEX
  8
0
  5
1214
 10
119.020
 20
189.539
 30
0.000000
  70
    32
  0
VERTEX
  8
0
  5
1215
 10
118.850
 20
189.665
 30
0.000000
  70
    32
  0
VERTEX
  8
0
  5
1216
 10
118.669
 20
189.788
 30
0.000000
  70
    32
  0
VERTEX
  8
0
  5
1217
 10
118.476
 20
189.908
 30
0.000000
  70
    32
  0
VERTEX
  8
0
  5
1218
 10
118.272
 20
190.025
 30
0.000000
  70
    32
  0
VERTEX
  8
0
  5
1219
 10
118.056
 20
190.138
 30
0.000000
  70
    32
  0
VERTEX
  8
0
  5
121A
 10
117.830
 20
190.249
 30
0.000000
  70
    32
  0
VERTEX
  8
0
  5
121B
 10
117.593
 20
190.356
 30
0.000000
  70
    32
  0
VERTEX
  8
0
  5
121C
 10
117.346
 20
190.460
 30
0.000000
  70
    32
  0
VERTEX
  8
0
  5
121D
 10
117.089
 20
190.559
 30
0.000000
  70
    32
  0
VERTEX
  8
0
  5
121E
 10
116.823
 20
190.655
 30
0.000000
  70
    32
  0
VERTEX
  8
0
  5
121F
 10
116.548
 20
190.747
 30
0.000000
  70
    32
  0
VERTEX
  8
0
  5
1220
 10
116.264
 20
190.834
 30
0.000000
  70
    32
  0
VERTEX
  8
0
  5
1221
 10
115.972
 20
190.918
 30
0.000000
  70
    32
  0
VERTEX
  8
0
  5
1222
 10
115.672
 20
190.996
 30
0.000000
  70
    32
  0
VERTEX
  8
0
  5
1223
 10
115.365
 20
191.071
 30
0.000000
  70
    32
  0
VERTEX
  8
0
  5
1224
 10
115.051
 20
191.140
 30
0.000000
  70
    32
  0
VERTEX
  8
0
  5
1225
 10
114.730
 20
191.205
 30
0.000000
  70
    32
  0
VERTEX
  8
0
  5
1226
 10
114.403
 20
191.265
 30
0.000000
  70
    32
  0
VERTEX
  8
0
  5
1227
 10
114.071
 20
191.320
 30
0.000000
  70
    32
  0
VERTEX
  8
0
  5
1228
 10
113.733
 20
191.371
 30
0.000000
  70
    32
  0
VERTEX
  8
0
  5
1229
 10
113.391
 20
191.416
 30
0.000000
  70
    32
  0
VERTEX
  8
0
  5
122A
 10
113.045
 20
191.456
 30
0.000000
  70
    32
  0
VERTEX
  8
0
  5
122B
 10
112.696
 20
191.490
 30
0.000000
  70
    32
  0
VERTEX
  8
0
  5
122C
 10
112.343
 20
191.520
 30
0.000000
  70
    32
  0
VERTEX
  8
0
  5
122D
 10
111.988
 20
191.544
 30
0.000000
  70
    32
  0
VERTEX
  8
0
  5
122E
 10
111.630
 20
191.563
 30
0.000000
  70
    32
  0
VERTEX
  8
0
  5
122F
 10
111.271
 20
191.576
 30
0.000000
  70
    32
  0
VERTEX
  8
0
  5
1230
 10
110.911
 20
191.584
 30
0.000000
  70
    32
  0
VERTEX
  8
0
  5
1231
 10
110.551
 20
191.587
 30
0.000000
  70
    32
  0
VERTEX
  8
0
  5
1232
 10
110.190
 20
191.584
 30
0.000000
  70
    32
  0
VERTEX
  8
0
  5
1233
 10
109.830
 20
191.576
 30
0.000000
  70
    32
  0
VERTEX
  8
0
  5
1234
 10
109.471
 20
191.563
 30
0.000000
  70
    32
  0
VERTEX
  8
0
  5
1235
 10
109.114
 20
191.544
 30
0.000000
  70
    32
  0
VERTEX
  8
0
  5
1236
 10
108.759
 20
191.520
 30
0.000000
  70
    32
  0
VERTEX
  8
0
  5
1237
 10
108.406
 20
191.490
 30
0.000000
  70
    32
  0
VERTEX
  8
0
  5
1238
 10
108.056
 20
191.456
 30
0.000000
  70
    32
  0
VERTEX
  8
0
  5
1239
 10
107.710
 20
191.416
 30
0.000000
  70
    32
  0
VERTEX
  8
0
  5
123A
 10
107.368
 20
191.371
 30
0.000000
  70
    32
  0
VERTEX
  8
0
  5
123B
 10
107.031
 20
191.320
 30
0.000000
  70
    32
  0
VERTEX
  8
0
  5
123C
 10
106.699
 20
191.265
 30
0.000000
  70
    32
  0
VERTEX
  8
0
  5
123D
 10
106.372
 20
191.205
 30
0.000000
  70
    32
  0
VERTEX
  8
0
  5
123E
 10
106.051
 20
191.140
 30
0.000000
  70
    32
  0
VERTEX
  8
0
  5
123F
 10
105.737
 20
191.071
 30
0.000000
  70
    32
  0
VERTEX
  8
0
  5
1240
 10
105.430
 20
190.996
 30
0.000000
  70
    32
  0
VERTEX
  8
0
  5
1241
 10
105.130
 20
190.918
 30
0.000000
  70
    32
  0
VERTEX
  8
0
  5
1242
 10
104.838
 20
190.834
 30
0.000000
  70
    32
  0
VERTEX
  8
0
  5
1243
 10
104.554
 20
190.747
 30
0.000000
  70
    32
  0
VERTEX
  8
0
  5
1244
 10
104.279
 20
190.655
 30
0.000000
  70
    32
  0
VERTEX
  8
0
  5
1245
 10
104.012
 20
190.559
 30
0.000000
  70
    32
  0
VERTEX
  8
0
  5
1246
 10
103.756
 20
190.460
 30
0.000000
  70
    32
  0
VERTEX
  8
0
  5
1247
 10
103.509
 20
190.356
 30
0.000000
  70
    32
  0
VERTEX
  8
0
  5
1248
 10
103.272
 20
190.249
 30
0.000000
  70
    32
  0
VERTEX
  8
0
  5
1249
 10
103.046
 20
190.138
 30
0.000000
  70
    32
  0
VERTEX
  8
0
  5
124A
 10
102.830
 20
190.025
 30
0.000000
  70
    32
  0
VERTEX
  8
0
  5
124B
 10
102.626
 20
189.908
 30
0.000000
  70
    32
  0
VERTEX
  8
0
  5
124C
 10
102.433
 20
189.788
 30
0.000000
  70
    32
  0
VERTEX
  8
0
  5
124D
 10
102.251
 20
189.665
 30
0.000000
  70
    32
  0
VERTEX
  8
0
  5
124E
 10
102.082
 20
189.539
 30
0.000000
  70
    32
  0
VERTEX
  8
0
  5
124F
 10
101.925
 20
189.412
 30
0.000000
  70
    32
  0
VERTEX
  8
0
  5
1250
 10
101.780
 20
189.282
 30
0.000000
  70
    32
  0
VERTEX
  8
0
  5
1251
 10
101.648
 20
189.149
 30
0.000000
  70
    32
  0
VERTEX
  8
0
  5
1252
 10
101.529
 20
189.015
 30
0.000000
  70
    32
  0
VERTEX
  8
0
  5
1253
 10
101.423
 20
188.880
 30
0.000000
  70
    32
  0
VERTEX
  8
0
  5
1254
 10
101.330
 20
188.742
 30
0.000000
  70
    32
  0
VERTEX
  8
0
  5
1255
 10
101.250
 20
188.604
 30
0.000000
  70
    32
  0
VERTEX
  8
0
  5
1256
 10
101.184
 20
188.464
 30
0.000000
  70
    32
  0
VERTEX
  8
0
  5
1257
 10
101.131
 20
188.324
 30
0.000000
  70
    32
  0
VERTEX
  8
0
  5
1258
 10
101.092
 20
188.183
 30
0.000000
  70
    32
  0
VERTEX
  8
0
  5
1259
 10
101.066
 20
188.041
 30
0.000000
  70
    32
  0
VERTEX
  8
0
  5
125A
 10
101.054
 20
187.899
 30
0.000000
  70
    32
  0
VERTEX
  8
0
  5
125B
 10
101.056
 20
187.757
 30
0.000000
  70
    32
  0
VERTEX
  8
0
  5
125C
 10
101.071
 20
187.615
 30
0.000000
  70
    32
  0
VERTEX
  8
0
  5
125D
 10
101.100
 20
187.474
 30
0.000000
  70
    32
  0
VERTEX
  8
0
  5
125E
 10
101.143
 20
187.333
 30
0.000000
  70
    32
  0
VERTEX
  8
0
  5
125F
 10
101.199
 20
187.192
 30
0.000000
  70
    32
  0
VERTEX
  8
0
  5
1260
 10
101.269
 20
187.053
 30
0.000000
  70
    32
  0
VERTEX
  8
0
  5
1261
 10
101.352
 20
186.915
 30
0.000000
  70
    32
  0
VERTEX
  8
0
  5
1262
 10
101.449
 20
186.778
 30
0.000000
  70
    32
  0
VERTEX
  8
0
  5
1263
 10
101.558
 20
186.643
 30
0.000000
  70
    32
  0
VERTEX
  8
0
  5
1264
 10
101.681
 20
186.509
 30
0.000000
  70
    32
  0
VERTEX
  8
0
  5
1265
 10
101.816
 20
186.377
 30
0.000000
  70
    32
  0
VERTEX
  8
0
  5
1266
 10
101.964
 20
186.248
 30
0.000000
  70
    32
  0
VERTEX
  8
0
  5
1267
 10
102.124
 20
186.121
 30
0.000000
  70
    32
  0
VERTEX
  8
0
  5
1268
 10
102.296
 20
185.996
 30
0.000000
  70
    32
  0
VERTEX
  8
0
  5
1269
 10
102.480
 20
185.874
 30
0.000000
  70
    32
  0
VERTEX
  8
0
  5
126A
 10
102.676
 20
185.755
 30
0.000000
  70
    32
  0
VERTEX
  8
0
  5
126B
 10
102.884
 20
185.638
 30
0.000000
  70
    32
  0
VERTEX
  8
0
  5
126C
 10
103.102
 20
185.525
 30
0.000000
  70
    32
  0
VERTEX
  8
0
  5
126D
 10
103.331
 20
185.416
 30
0.000000
  70
    32
  0
VERTEX
  8
0
  5
126E
 10
103.570
 20
185.309
 30
0.000000
  70
    32
  0
VERTEX
  8
0
  5
126F
 10
103.820
 20
185.207
 30
0.000000
  70
    32
  0
VERTEX
  8
0
  5
1270
 10
104.079
 20
185.108
 30
0.000000
  70
    32
  0
VERTEX
  8
0
  5
1271
 10
104.347
 20
185.013
 30
0.000000
  70
    32
  0
SEQEND
  8
0
  5
1272
  0
POLYLINE
  5
ED3
  8
0
 10
116.11048762527312
 20
196.86815995994957
 30
0.0
 66
     1
 70
     8
  0
VERTEX
  8
0
  5
1273
 10
116.110
 20
196.868
 30
0.000000
  70
    32
  0
VERTEX
  8
0
  5
1274
 10
116.087
 20
196.846
 30
0.000000
  70
    32
  0
VERTEX
  8
0
  5
1275
 10
116.064
 20
196.824
 30
0.000000
  70
    32
  0
VERTEX
  8
0
  5
1276
 10
116.041
 20
196.801
 30
0.000000
  70
    32
  0
VERTEX
  8
0
  5
1277
 10
116.018
 20
196.778
 30
0.000000
  70
    32
  0
VERTEX
  8
0
  5
1278
 10
115.996
 20
196.754
 30
0.000000
  70
    32
  0
VERTEX
  8
0
  5
1279
 10
115.973
 20
196.730
 30
0.000000
  70
    32
  0
VERTEX
  8
0
  5
127A
 10
115.951
 20
196.706
 30
0.000000
  70
    32
  0
VERTEX
  8
0
  5
127B
 10
115.930
 20
196.681
 30
0.000000
  70
    32
  0
VERTEX
  8
0
  5
127C
 10
115.908
 20
196.656
 30
0.000000
  70
    32
  0
VERTEX
  8
0
  5
127D
 10
115.887
 20
196.631
 30
0.000000
  70
    32
  0
VERTEX
  8
0
  5
127E
 10
115.866
 20
196.606
 30
0.000000
  70
    32
  0
VERTEX
  8
0
  5
127F
 10
115.845
 20
196.580
 30
0.000000
  70
    32
  0
VERTEX
  8
0
  5
1280
 10
115.824
 20
196.553
 30
0.000000
  70
    32
  0
VERTEX
  8
0
  5
1281
 10
115.804
 20
196.527
 30
0.000000
  70
    32
  0
VERTEX
  8
0
  5
1282
 10
115.784
 20
196.500
 30
0.000000
  70
    32
  0
VERTEX
  8
0
  5
1283
 10
115.764
 20
196.473
 30
0.000000
  70
    32
  0
VERTEX
  8
0
  5
1284
 10
115.744
 20
196.445
 30
0.000000
  70
    32
  0
VERTEX
  8
0
  5
1285
 10
115.725
 20
196.417
 30
0.000000
  70
    32
  0
VERTEX
  8
0
  5
1286
 10
115.706
 20
196.389
 30
0.000000
  70
    32
  0
VERTEX
  8
0
  5
1287
 10
115.687
 20
196.360
 30
0.000000
  70
    32
  0
VERTEX
  8
0
  5
1288
 10
115.669
 20
196.332
 30
0.000000
  70
    32
  0
VERTEX
  8
0
  5
1289
 10
115.651
 20
196.303
 30
0.000000
  70
    32
  0
VERTEX
  8
0
  5
128A
 10
115.633
 20
196.273
 30
0.000000
  70
    32
  0
VERTEX
  8
0
  5
128B
 10
115.615
 20
196.244
 30
0.000000
  70
    32
  0
VERTEX
  8
0
  5
128C
 10
115.598
 20
196.214
 30
0.000000
  70
    32
  0
VERTEX
  8
0
  5
128D
 10
115.581
 20
196.184
 30
0.000000
  70
    32
  0
VERTEX
  8
0
  5
128E
 10
115.564
 20
196.153
 30
0.000000
  70
    32
  0
VERTEX
  8
0
  5
128F
 10
115.548
 20
196.122
 30
0.000000
  70
    32
  0
VERTEX
  8
0
  5
1290
 10
115.531
 20
196.091
 30
0.000000
  70
    32
  0
VERTEX
  8
0
  5
1291
 10
115.516
 20
196.060
 30
0.000000
  70
    32
  0
VERTEX
  8
0
  5
1292
 10
115.500
 20
196.029
 30
0.000000
  70
    32
  0
VERTEX
  8
0
  5
1293
 10
115.485
 20
195.997
 30
0.000000
  70
    32
  0
VERTEX
  8
0
  5
1294
 10
115.470
 20
195.965
 30
0.000000
  70
    32
  0
VERTEX
  8
0
  5
1295
 10
115.455
 20
195.933
 30
0.000000
  70
    32
  0
VERTEX
  8
0
  5
1296
 10
115.441
 20
195.900
 30
0.000000
  70
    32
  0
VERTEX
  8
0
  5
1297
 10
115.427
 20
195.868
 30
0.000000
  70
    32
  0
VERTEX
  8
0
  5
1298
 10
115.413
 20
195.835
 30
0.000000
  70
    32
  0
VERTEX
  8
0
  5
1299
 10
115.400
 20
195.802
 30
0.000000
  70
    32
  0
VERTEX
  8
0
  5
129A
 10
115.387
 20
195.768
 30
0.000000
  70
    32
  0
VERTEX
  8
0
  5
129B
 10
115.374
 20
195.735
 30
0.000000
  70
    32
  0
VERTEX
  8
0
  5
129C
 10
115.362
 20
195.701
 30
0.000000
  70
    32
  0
VERTEX
  8
0
  5
129D
 10
115.350
 20
195.667
 30
0.000000
  70
    32
  0
VERTEX
  8
0
  5
129E
 10
115.338
 20
195.633
 30
0.000000
  70
    32
  0
VERTEX
  8
0
  5
129F
 10
115.327
 20
195.599
 30
0.000000
  70
    32
  0
VERTEX
  8
0
  5
12A0
 10
115.316
 20
195.564
 30
0.000000
  70
    32
  0
VERTEX
  8
0
  5
12A1
 10
115.305
 20
195.530
 30
0.000000
  70
    32
  0
VERTEX
  8
0
  5
12A2
 10
115.294
 20
195.495
 30
0.000000
  70
    32
  0
VERTEX
  8
0
  5
12A3
 10
115.284
 20
195.460
 30
0.000000
  70
    32
  0
VERTEX
  8
0
  5
12A4
 10
115.275
 20
195.425
 30
0.000000
  70
    32
  0
VERTEX
  8
0
  5
12A5
 10
115.265
 20
195.389
 30
0.000000
  70
    32
  0
VERTEX
  8
0
  5
12A6
 10
115.256
 20
195.354
 30
0.000000
  70
    32
  0
VERTEX
  8
0
  5
12A7
 10
115.248
 20
195.318
 30
0.000000
  70
    32
  0
VERTEX
  8
0
  5
12A8
 10
115.239
 20
195.283
 30
0.000000
  70
    32
  0
VERTEX
  8
0
  5
12A9
 10
115.231
 20
195.247
 30
0.000000
  70
    32
  0
VERTEX
  8
0
  5
12AA
 10
115.224
 20
195.211
 30
0.000000
  70
    32
  0
VERTEX
  8
0
  5
12AB
 10
115.216
 20
195.175
 30
0.000000
  70
    32
  0
VERTEX
  8
0
  5
12AC
 10
115.209
 20
195.139
 30
0.000000
  70
    32
  0
VERTEX
  8
0
  5
12AD
 10
115.203
 20
195.102
 30
0.000000
  70
    32
  0
VERTEX
  8
0
  5
12AE
 10
115.196
 20
195.066
 30
0.000000
  70
    32
  0
VERTEX
  8
0
  5
12AF
 10
115.191
 20
195.029
 30
0.000000
  70
    32
  0
VERTEX
  8
0
  5
12B0
 10
115.185
 20
194.993
 30
0.000000
  70
    32
  0
VERTEX
  8
0
  5
12B1
 10
115.180
 20
194.956
 30
0.000000
  70
    32
  0
VERTEX
  8
0
  5
12B2
 10
115.175
 20
194.919
 30
0.000000
  70
    32
  0
VERTEX
  8
0
  5
12B3
 10
115.170
 20
194.883
 30
0.000000
  70
    32
  0
VERTEX
  8
0
  5
12B4
 10
115.166
 20
194.846
 30
0.000000
  70
    32
  0
VERTEX
  8
0
  5
12B5
 10
115.163
 20
194.809
 30
0.000000
  70
    32
  0
VERTEX
  8
0
  5
12B6
 10
115.159
 20
194.772
 30
0.000000
  70
    32
  0
VERTEX
  8
0
  5
12B7
 10
115.156
 20
194.735
 30
0.000000
  70
    32
  0
VERTEX
  8
0
  5
12B8
 10
115.153
 20
194.698
 30
0.000000
  70
    32
  0
VERTEX
  8
0
  5
12B9
 10
115.151
 20
194.660
 30
0.000000
  70
    32
  0
VERTEX
  8
0
  5
12BA
 10
115.149
 20
194.623
 30
0.000000
  70
    32
  0
VERTEX
  8
0
  5
12BB
 10
115.147
 20
194.586
 30
0.000000
  70
    32
  0
VERTEX
  8
0
  5
12BC
 10
115.146
 20
194.549
 30
0.000000
  70
    32
  0
VERTEX
  8
0
  5
12BD
 10
115.145
 20
194.511
 30
0.000000
  70
    32
  0
VERTEX
  8
0
  5
12BE
 10
115.145
 20
194.474
 30
0.000000
  70
    32
  0
VERTEX
  8
0
  5
12BF
 10
115.145
 20
194.437
 30
0.000000
  70
    32
  0
VERTEX
  8
0
  5
12C0
 10
115.145
 20
194.400
 30
0.000000
  70
    32
  0
VERTEX
  8
0
  5
12C1
 10
115.145
 20
194.362
 30
0.000000
  70
    32
  0
VERTEX
  8
0
  5
12C2
 10
115.146
 20
194.325
 30
0.000000
  70
    32
  0
VERTEX
  8
0
  5
12C3
 10
115.147
 20
194.288
 30
0.000000
  70
    32
  0
VERTEX
  8
0
  5
12C4
 10
115.149
 20
194.251
 30
0.000000
  70
    32
  0
VERTEX
  8
0
  5
12C5
 10
115.151
 20
194.213
 30
0.000000
  70
    32
  0
VERTEX
  8
0
  5
12C6
 10
115.153
 20
194.176
 30
0.000000
  70
    32
  0
VERTEX
  8
0
  5
12C7
 10
115.156
 20
194.139
 30
0.000000
  70
    32
  0
VERTEX
  8
0
  5
12C8
 10
115.159
 20
194.102
 30
0.000000
  70
    32
  0
VERTEX
  8
0
  5
12C9
 10
115.163
 20
194.065
 30
0.000000
  70
    32
  0
VERTEX
  8
0
  5
12CA
 10
115.166
 20
194.028
 30
0.000000
  70
    32
  0
VERTEX
  8
0
  5
12CB
 10
115.170
 20
193.991
 30
0.000000
  70
    32
  0
VERTEX
  8
0
  5
12CC
 10
115.175
 20
193.954
 30
0.000000
  70
    32
  0
VERTEX
  8
0
  5
12CD
 10
115.180
 20
193.918
 30
0.000000
  70
    32
  0
VERTEX
  8
0
  5
12CE
 10
115.185
 20
193.881
 30
0.000000
  70
    32
  0
VERTEX
  8
0
  5
12CF
 10
115.191
 20
193.844
 30
0.000000
  70
    32
  0
VERTEX
  8
0
  5
12D0
 10
115.196
 20
193.808
 30
0.000000
  70
    32
  0
VERTEX
  8
0
  5
12D1
 10
115.203
 20
193.771
 30
0.000000
  70
    32
  0
VERTEX
  8
0
  5
12D2
 10
115.209
 20
193.735
 30
0.000000
  70
    32
  0
VERTEX
  8
0
  5
12D3
 10
115.216
 20
193.699
 30
0.000000
  70
    32
  0
VERTEX
  8
0
  5
12D4
 10
115.224
 20
193.663
 30
0.000000
  70
    32
  0
VERTEX
  8
0
  5
12D5
 10
115.231
 20
193.627
 30
0.000000
  70
    32
  0
VERTEX
  8
0
  5
12D6
 10
115.239
 20
193.591
 30
0.000000
  70
    32
  0
VERTEX
  8
0
  5
12D7
 10
115.248
 20
193.555
 30
0.000000
  70
    32
  0
VERTEX
  8
0
  5
12D8
 10
115.256
 20
193.520
 30
0.000000
  70
    32
  0
VERTEX
  8
0
  5
12D9
 10
115.265
 20
193.484
 30
0.000000
  70
    32
  0
VERTEX
  8
0
  5
12DA
 10
115.275
 20
193.449
 30
0.000000
  70
    32
  0
VERTEX
  8
0
  5
12DB
 10
115.284
 20
193.414
 30
0.000000
  70
    32
  0
VERTEX
  8
0
  5
12DC
 10
115.295
 20
193.379
 30
0.000000
  70
    32
  0
VERTEX
  8
0
  5
12DD
 10
115.305
 20
193.344
 30
0.000000
  70
    32
  0
VERTEX
  8
0
  5
12DE
 10
115.316
 20
193.309
 30
0.000000
  70
    32
  0
VERTEX
  8
0
  5
12DF
 10
115.327
 20
193.275
 30
0.000000
  70
    32
  0
VERTEX
  8
0
  5
12E0
 10
115.338
 20
193.241
 30
0.000000
  70
    32
  0
VERTEX
  8
0
  5
12E1
 10
115.350
 20
193.207
 30
0.000000
  70
    32
  0
VERTEX
  8
0
  5
12E2
 10
115.362
 20
193.173
 30
0.000000
  70
    32
  0
VERTEX
  8
0
  5
12E3
 10
115.374
 20
193.139
 30
0.000000
  70
    32
  0
VERTEX
  8
0
  5
12E4
 10
115.387
 20
193.105
 30
0.000000
  70
    32
  0
VERTEX
  8
0
  5
12E5
 10
115.400
 20
193.072
 30
0.000000
  70
    32
  0
VERTEX
  8
0
  5
12E6
 10
115.413
 20
193.039
 30
0.000000
  70
    32
  0
VERTEX
  8
0
  5
12E7
 10
115.427
 20
193.006
 30
0.000000
  70
    32
  0
VERTEX
  8
0
  5
12E8
 10
115.441
 20
192.974
 30
0.000000
  70
    32
  0
VERTEX
  8
0
  5
12E9
 10
115.455
 20
192.941
 30
0.000000
  70
    32
  0
VERTEX
  8
0
  5
12EA
 10
115.470
 20
192.909
 30
0.000000
  70
    32
  0
VERTEX
  8
0
  5
12EB
 10
115.485
 20
192.877
 30
0.000000
  70
    32
  0
VERTEX
  8
0
  5
12EC
 10
115.500
 20
192.845
 30
0.000000
  70
    32
  0
VERTEX
  8
0
  5
12ED
 10
115.516
 20
192.814
 30
0.000000
  70
    32
  0
VERTEX
  8
0
  5
12EE
 10
115.532
 20
192.782
 30
0.000000
  70
    32
  0
VERTEX
  8
0
  5
12EF
 10
115.548
 20
192.751
 30
0.000000
  70
    32
  0
VERTEX
  8
0
  5
12F0
 10
115.564
 20
192.721
 30
0.000000
  70
    32
  0
VERTEX
  8
0
  5
12F1
 10
115.581
 20
192.690
 30
0.000000
  70
    32
  0
VERTEX
  8
0
  5
12F2
 10
115.598
 20
192.660
 30
0.000000
  70
    32
  0
VERTEX
  8
0
  5
12F3
 10
115.615
 20
192.630
 30
0.000000
  70
    32
  0
SEQEND
  8
0
  5
12F4
  0
ARC
  5
ED4
  8
0
 10
115.5861827237111
 20
197.47239862984591
 30
0.0
 40
0.8
 50
310.9485553384975
 51
0.7091766292514306
  0
LINE
  5
ED5
  8
0
 10
116.3861827252429
 20
197.68736440573491
 30
0.0
 11
116.3861827252429
 21
191.43299929148921
 31
0.0
  0
ARC
  5
ED6
  8
0
 10
122.69993111524511
 20
196.34589876814701
 30
0.0
 40
8.0
 50
207.6756501154475
 51
226.9090172032935
  0
LINE
  5
ED7
  8
0
 10
106.202338341038
 20
202.7855544955905
 30
0.0
 11
114.8994386336078
 21
202.7855544955905
 31
0.0
  0
ARC
  5
ED8
  8
0
 10
114.8994386336078
 20
202.2855544955905
 30
0.0
 40
0.5
 50
12.65659409713297
 51
90.0
  0
LINE
  5
ED9
  8
0
 10
115.38728904069799
 20
202.3951080455189
 30
0.0
 11
116.3861827252429
 21
197.68736440573491
 31
0.0
  0
ARC
  5
EDA
  8
0
 10
98.401845859400737
 20
196.34589876814701
 30
0.0
 40
8.0
 50
313.0909827967065
 51
332.32434988455248
  0
LINE
  5
EDB
  8
0
 10
105.71448793394779
 20
202.3951080455189
 30
0.0
 11
104.7155942494029
 21
197.68736440573491
 31
0.0
  0
ARC
  5
EDC
  8
0
 10
106.202338341038
 20
202.2855544955905
 30
0.0
 40
0.5
 50
90.0
 51
167.343405902867
  0
LINE
  5
EDD
  8
0
 10
104.7155942494029
 20
197.68736440573491
 30
0.0
 11
104.7155942494029
 21
191.43299929148921
 31
0.0
  0
POLYLINE
  5
EDE
  8
0
 10
104.99128934937268
 20
196.86815995994957
 30
0.0
 66
     1
 70
     8
  0
VERTEX
  8
0
  5
12F5
 10
104.991
 20
196.868
 30
0.000000
  70
    32
  0
VERTEX
  8
0
  5
12F6
 10
105.015
 20
196.846
 30
0.000000
  70
    32
  0
VERTEX
  8
0
  5
12F7
 10
105.038
 20
196.824
 30
0.000000
  70
    32
  0
VERTEX
  8
0
  5
12F8
 10
105.061
 20
196.801
 30
0.000000
  70
    32
  0
VERTEX
  8
0
  5
12F9
 10
105.084
 20
196.778
 30
0.000000
  70
    32
  0
VERTEX
  8
0
  5
12FA
 10
105.106
 20
196.754
 30
0.000000
  70
    32
  0
VERTEX
  8
0
  5
12FB
 10
105.128
 20
196.730
 30
0.000000
  70
    32
  0
VERTEX
  8
0
  5
12FC
 10
105.150
 20
196.706
 30
0.000000
  70
    32
  0
VERTEX
  8
0
  5
12FD
 10
105.172
 20
196.681
 30
0.000000
  70
    32
  0
VERTEX
  8
0
  5
12FE
 10
105.194
 20
196.656
 30
0.000000
  70
    32
  0
VERTEX
  8
0
  5
12FF
 10
105.215
 20
196.631
 30
0.000000
  70
    32
  0
VERTEX
  8
0
  5
1300
 10
105.236
 20
196.606
 30
0.000000
  70
    32
  0
VERTEX
  8
0
  5
1301
 10
105.257
 20
196.580
 30
0.000000
  70
    32
  0
VERTEX
  8
0
  5
1302
 10
105.278
 20
196.553
 30
0.000000
  70
    32
  0
VERTEX
  8
0
  5
1303
 10
105.298
 20
196.527
 30
0.000000
  70
    32
  0
VERTEX
  8
0
  5
1304
 10
105.318
 20
196.500
 30
0.000000
  70
    32
  0
VERTEX
  8
0
  5
1305
 10
105.338
 20
196.473
 30
0.000000
  70
    32
  0
VERTEX
  8
0
  5
1306
 10
105.357
 20
196.445
 30
0.000000
  70
    32
  0
VERTEX
  8
0
  5
1307
 10
105.377
 20
196.417
 30
0.000000
  70
    32
  0
VERTEX
  8
0
  5
1308
 10
105.396
 20
196.389
 30
0.000000
  70
    32
  0
VERTEX
  8
0
  5
1309
 10
105.414
 20
196.360
 30
0.000000
  70
    32
  0
VERTEX
  8
0
  5
130A
 10
105.433
 20
196.332
 30
0.000000
  70
    32
  0
VERTEX
  8
0
  5
130B
 10
105.451
 20
196.303
 30
0.000000
  70
    32
  0
VERTEX
  8
0
  5
130C
 10
105.469
 20
196.273
 30
0.000000
  70
    32
  0
VERTEX
  8
0
  5
130D
 10
105.487
 20
196.244
 30
0.000000
  70
    32
  0
VERTEX
  8
0
  5
130E
 10
105.504
 20
196.214
 30
0.000000
  70
    32
  0
VERTEX
  8
0
  5
130F
 10
105.521
 20
196.184
 30
0.000000
  70
    32
  0
VERTEX
  8
0
  5
1310
 10
105.538
 20
196.153
 30
0.000000
  70
    32
  0
VERTEX
  8
0
  5
1311
 10
105.554
 20
196.122
 30
0.000000
  70
    32
  0
VERTEX
  8
0
  5
1312
 10
105.570
 20
196.091
 30
0.000000
  70
    32
  0
VERTEX
  8
0
  5
1313
 10
105.586
 20
196.060
 30
0.000000
  70
    32
  0
VERTEX
  8
0
  5
1314
 10
105.602
 20
196.029
 30
0.000000
  70
    32
  0
VERTEX
  8
0
  5
1315
 10
105.617
 20
195.997
 30
0.000000
  70
    32
  0
VERTEX
  8
0
  5
1316
 10
105.632
 20
195.965
 30
0.000000
  70
    32
  0
VERTEX
  8
0
  5
1317
 10
105.646
 20
195.933
 30
0.000000
  70
    32
  0
VERTEX
  8
0
  5
1318
 10
105.661
 20
195.900
 30
0.000000
  70
    32
  0
VERTEX
  8
0
  5
1319
 10
105.675
 20
195.868
 30
0.000000
  70
    32
  0
VERTEX
  8
0
  5
131A
 10
105.688
 20
195.835
 30
0.000000
  70
    32
  0
VERTEX
  8
0
  5
131B
 10
105.702
 20
195.802
 30
0.000000
  70
    32
  0
VERTEX
  8
0
  5
131C
 10
105.715
 20
195.768
 30
0.000000
  70
    32
  0
VERTEX
  8
0
  5
131D
 10
105.728
 20
195.735
 30
0.000000
  70
    32
  0
VERTEX
  8
0
  5
131E
 10
105.740
 20
195.701
 30
0.000000
  70
    32
  0
VERTEX
  8
0
  5
131F
 10
105.752
 20
195.667
 30
0.000000
  70
    32
  0
VERTEX
  8
0
  5
1320
 10
105.764
 20
195.633
 30
0.000000
  70
    32
  0
VERTEX
  8
0
  5
1321
 10
105.775
 20
195.599
 30
0.000000
  70
    32
  0
VERTEX
  8
0
  5
1322
 10
105.786
 20
195.564
 30
0.000000
  70
    32
  0
VERTEX
  8
0
  5
1323
 10
105.797
 20
195.530
 30
0.000000
  70
    32
  0
VERTEX
  8
0
  5
1324
 10
105.807
 20
195.495
 30
0.000000
  70
    32
  0
VERTEX
  8
0
  5
1325
 10
105.817
 20
195.460
 30
0.000000
  70
    32
  0
VERTEX
  8
0
  5
1326
 10
105.827
 20
195.425
 30
0.000000
  70
    32
  0
VERTEX
  8
0
  5
1327
 10
105.836
 20
195.389
 30
0.000000
  70
    32
  0
VERTEX
  8
0
  5
1328
 10
105.845
 20
195.354
 30
0.000000
  70
    32
  0
VERTEX
  8
0
  5
1329
 10
105.854
 20
195.318
 30
0.000000
  70
    32
  0
VERTEX
  8
0
  5
132A
 10
105.863
 20
195.283
 30
0.000000
  70
    32
  0
VERTEX
  8
0
  5
132B
 10
105.871
 20
195.247
 30
0.000000
  70
    32
  0
VERTEX
  8
0
  5
132C
 10
105.878
 20
195.211
 30
0.000000
  70
    32
  0
VERTEX
  8
0
  5
132D
 10
105.885
 20
195.175
 30
0.000000
  70
    32
  0
VERTEX
  8
0
  5
132E
 10
105.892
 20
195.139
 30
0.000000
  70
    32
  0
VERTEX
  8
0
  5
132F
 10
105.899
 20
195.102
 30
0.000000
  70
    32
  0
VERTEX
  8
0
  5
1330
 10
105.905
 20
195.066
 30
0.000000
  70
    32
  0
VERTEX
  8
0
  5
1331
 10
105.911
 20
195.029
 30
0.000000
  70
    32
  0
VERTEX
  8
0
  5
1332
 10
105.917
 20
194.993
 30
0.000000
  70
    32
  0
VERTEX
  8
0
  5
1333
 10
105.922
 20
194.956
 30
0.000000
  70
    32
  0
VERTEX
  8
0
  5
1334
 10
105.927
 20
194.919
 30
0.000000
  70
    32
  0
VERTEX
  8
0
  5
1335
 10
105.931
 20
194.883
 30
0.000000
  70
    32
  0
VERTEX
  8
0
  5
1336
 10
105.935
 20
194.846
 30
0.000000
  70
    32
  0
VERTEX
  8
0
  5
1337
 10
105.939
 20
194.809
 30
0.000000
  70
    32
  0
VERTEX
  8
0
  5
1338
 10
105.943
 20
194.772
 30
0.000000
  70
    32
  0
VERTEX
  8
0
  5
1339
 10
105.946
 20
194.735
 30
0.000000
  70
    32
  0
VERTEX
  8
0
  5
133A
 10
105.948
 20
194.698
 30
0.000000
  70
    32
  0
VERTEX
  8
0
  5
133B
 10
105.951
 20
194.660
 30
0.000000
  70
    32
  0
VERTEX
  8
0
  5
133C
 10
105.953
 20
194.623
 30
0.000000
  70
    32
  0
VERTEX
  8
0
  5
133D
 10
105.954
 20
194.586
 30
0.000000
  70
    32
  0
VERTEX
  8
0
  5
133E
 10
105.956
 20
194.549
 30
0.000000
  70
    32
  0
VERTEX
  8
0
  5
133F
 10
105.956
 20
194.511
 30
0.000000
  70
    32
  0
VERTEX
  8
0
  5
1340
 10
105.957
 20
194.474
 30
0.000000
  70
    32
  0
VERTEX
  8
0
  5
1341
 10
105.957
 20
194.437
 30
0.000000
  70
    32
  0
VERTEX
  8
0
  5
1342
 10
105.957
 20
194.400
 30
0.000000
  70
    32
  0
VERTEX
  8
0
  5
1343
 10
105.956
 20
194.362
 30
0.000000
  70
    32
  0
VERTEX
  8
0
  5
1344
 10
105.956
 20
194.325
 30
0.000000
  70
    32
  0
VERTEX
  8
0
  5
1345
 10
105.954
 20
194.288
 30
0.000000
  70
    32
  0
VERTEX
  8
0
  5
1346
 10
105.953
 20
194.251
 30
0.000000
  70
    32
  0
VERTEX
  8
0
  5
1347
 10
105.951
 20
194.213
 30
0.000000
  70
    32
  0
VERTEX
  8
0
  5
1348
 10
105.948
 20
194.176
 30
0.000000
  70
    32
  0
VERTEX
  8
0
  5
1349
 10
105.946
 20
194.139
 30
0.000000
  70
    32
  0
VERTEX
  8
0
  5
134A
 10
105.943
 20
194.102
 30
0.000000
  70
    32
  0
VERTEX
  8
0
  5
134B
 10
105.939
 20
194.065
 30
0.000000
  70
    32
  0
VERTEX
  8
0
  5
134C
 10
105.935
 20
194.028
 30
0.000000
  70
    32
  0
VERTEX
  8
0
  5
134D
 10
105.931
 20
193.991
 30
0.000000
  70
    32
  0
VERTEX
  8
0
  5
134E
 10
105.927
 20
193.954
 30
0.000000
  70
    32
  0
VERTEX
  8
0
  5
134F
 10
105.922
 20
193.918
 30
0.000000
  70
    32
  0
VERTEX
  8
0
  5
1350
 10
105.917
 20
193.881
 30
0.000000
  70
    32
  0
VERTEX
  8
0
  5
1351
 10
105.911
 20
193.844
 30
0.000000
  70
    32
  0
VERTEX
  8
0
  5
1352
 10
105.905
 20
193.808
 30
0.000000
  70
    32
  0
VERTEX
  8
0
  5
1353
 10
105.899
 20
193.771
 30
0.000000
  70
    32
  0
VERTEX
  8
0
  5
1354
 10
105.892
 20
193.735
 30
0.000000
  70
    32
  0
VERTEX
  8
0
  5
1355
 10
105.885
 20
193.699
 30
0.000000
  70
    32
  0
VERTEX
  8
0
  5
1356
 10
105.878
 20
193.663
 30
0.000000
  70
    32
  0
VERTEX
  8
0
  5
1357
 10
105.871
 20
193.627
 30
0.000000
  70
    32
  0
VERTEX
  8
0
  5
1358
 10
105.863
 20
193.591
 30
0.000000
  70
    32
  0
VERTEX
  8
0
  5
1359
 10
105.854
 20
193.555
 30
0.000000
  70
    32
  0
VERTEX
  8
0
  5
135A
 10
105.845
 20
193.520
 30
0.000000
  70
    32
  0
VERTEX
  8
0
  5
135B
 10
105.836
 20
193.484
 30
0.000000
  70
    32
  0
VERTEX
  8
0
  5
135C
 10
105.827
 20
193.449
 30
0.000000
  70
    32
  0
VERTEX
  8
0
  5
135D
 10
105.817
 20
193.414
 30
0.000000
  70
    32
  0
VERTEX
  8
0
  5
135E
 10
105.807
 20
193.379
 30
0.000000
  70
    32
  0
VERTEX
  8
0
  5
135F
 10
105.797
 20
193.344
 30
0.000000
  70
    32
  0
VERTEX
  8
0
  5
1360
 10
105.786
 20
193.309
 30
0.000000
  70
    32
  0
VERTEX
  8
0
  5
1361
 10
105.775
 20
193.275
 30
0.000000
  70
    32
  0
VERTEX
  8
0
  5
1362
 10
105.764
 20
193.241
 30
0.000000
  70
    32
  0
VERTEX
  8
0
  5
1363
 10
105.752
 20
193.207
 30
0.000000
  70
    32
  0
VERTEX
  8
0
  5
1364
 10
105.740
 20
193.173
 30
0.000000
  70
    32
  0
VERTEX
  8
0
  5
1365
 10
105.727
 20
193.139
 30
0.000000
  70
    32
  0
VERTEX
  8
0
  5
1366
 10
105.715
 20
193.105
 30
0.000000
  70
    32
  0
VERTEX
  8
0
  5
1367
 10
105.702
 20
193.072
 30
0.000000
  70
    32
  0
VERTEX
  8
0
  5
1368
 10
105.688
 20
193.039
 30
0.000000
  70
    32
  0
VERTEX
  8
0
  5
1369
 10
105.675
 20
193.006
 30
0.000000
  70
    32
  0
VERTEX
  8
0
  5
136A
 10
105.661
 20
192.974
 30
0.000000
  70
    32
  0
VERTEX
  8
0
  5
136B
 10
105.646
 20
192.941
 30
0.000000
  70
    32
  0
VERTEX
  8
0
  5
136C
 10
105.632
 20
192.909
 30
0.000000
  70
    32
  0
VERTEX
  8
0
  5
136D
 10
105.617
 20
192.877
 30
0.000000
  70
    32
  0
VERTEX
  8
0
  5
136E
 10
105.602
 20
192.845
 30
0.000000
  70
    32
  0
VERTEX
  8
0
  5
136F
 10
105.586
 20
192.814
 30
0.000000
  70
    32
  0
VERTEX
  8
0
  5
1370
 10
105.570
 20
192.782
 30
0.000000
  70
    32
  0
VERTEX
  8
0
  5
1371
 10
105.554
 20
192.751
 30
0.000000
  70
    32
  0
VERTEX
  8
0
  5
1372
 10
105.538
 20
192.721
 30
0.000000
  70
    32
  0
VERTEX
  8
0
  5
1373
 10
105.521
 20
192.690
 30
0.000000
  70
    32
  0
VERTEX
  8
0
  5
1374
 10
105.504
 20
192.660
 30
0.000000
  70
    32
  0
VERTEX
  8
0
  5
1375
 10
105.487
 20
192.630
 30
0.000000
  70
    32
  0
SEQEND
  8
0
  5
1376
  0
ARC
  5
EDF
  8
0
 10
105.51559424787111
 20
197.47239862984591
 30
0.0
 40
0.8
 50
179.29082337074851
 51
229.05144466150259
  0
LINE
  5
EE0
  8
0
 10
305.93464161534672
 20
202.7855544955905
 30
0.0
 11
297.24166870356453
 21
202.7855544955905
 31
0.0
  0
LINE
  5
EE1
  8
0
 10
295.7500660524741
 20
197.66446622074491
 30
0.0
 11
295.7500660524741
 21
186.76831232910419
 31
0.0
  0
LINE
  5
EE2
  8
0
 10
300.50159991272909
 20
200.0664389218785
 30
0.0
 11
302.67058302539442
 21
200.0664389218785
 31
0.0
  0
LINE
  5
EE3
  8
0
 10
299.7419592083163
 20
198.0823153251479
 30
0.0
 11
303.45053465060943
 21
198.0823153251479
 31
0.0
  0
LINE
  5
EE4
  8
0
 10
296.11510676800827
 20
190.07139898191889
 30
0.0
 11
307.05707617011518
 21
190.07139898191889
 31
0.0
  0
LINE
  5
EE5
  8
0
 10
296.84021884984941
 20
193.0677842177019
 30
0.0
 11
306.33609146906178
 21
193.0677842177019
 31
0.0
  0
LINE
  5
EE6
  8
0
 10
296.60402686335942
 20
190.7685462692759
 30
0.0
 11
306.5681560747642
 21
190.7685462692759
 31
0.0
  0
LINE
  5
EE7
  8
0
 10
306.98706440641052
 20
190.34555449559051
 30
0.0
 11
296.1851185317131
 21
190.34555449559051
 31
0.0
  0
LINE
  5
EE8
  8
0
 10
310.83609146906178
 20
166.78555449559039
 30
0.0
 11
292.33609146906178
 21
166.78555449559039
 31
0.0
  0
LINE
  5
EE9
  8
0
 10
308.33609146906178
 20
160.2855544955905
 30
0.0
 11
308.33609146906178
 21
166.78555449559039
 31
0.0
  0
LINE
  5
EEA
  8
0
 10
294.83609146906178
 20
166.78555449559039
 30
0.0
 11
294.83609146906178
 21
160.2855544955905
 31
0.0
  0
LINE
  5
EEB
  8
0
 10
294.83609146906178
 20
160.2855544955905
 30
0.0
 11
308.33609146906178
 21
160.2855544955905
 31
0.0
  0
LINE
  5
EEC
  8
1
 10
301.58609146906178
 20
207.57058872112731
 30
0.0
 11
301.5860914690615
 21
95.285554495590404
 31
0.0
  0
ARC
  5
EED
  8
0
 10
305.93464161534672
 20
202.2855544955905
 30
0.0
 40
0.5
 50
12.65659409713297
 51
90.0
  0
LINE
  5
EEE
  8
0
 10
306.42249202243693
 20
202.3951080455189
 30
0.0
 11
307.42138570698182
 21
197.68736440573491
 31
0.0
  0
LINE
  5
EEF
  8
0
 10
307.42138570698182
 20
197.68736440573491
 30
0.0
 11
307.42138570698182
 21
186.80017459508801
 31
0.0
  0
ARC
  5
EF0
  8
0
  6
CONTINUOUS
 10
309.90851814626387
 20
193.83663436226129
 30
0.0
 40
10.0
 50
118.79561527160629
 51
136.0638165139936
  0
ARC
  5
EF1
  8
0
  6
CONTINUOUS
 10
305.81418195497668
 20
201.2855544955905
 30
0.0
 40
1.5
 50
90.0
 51
118.79561527160629
  0
LINE
  5
EF2
  8
0
  6
CONTINUOUS
 10
302.60049702280281
 20
200.24949821653561
 30
0.0
 11
303.43022372980732
 21
198.0823153251479
 31
0.0
  0
ARC
  5
EF3
  8
0
  6
CONTINUOUS
 10
303.06744397905408
 20
200.4282733267932
 30
0.0
 40
0.5
 50
136.06381651399249
 51
200.9498226902104
  0
ARC
  5
EF4
  8
0
  6
CONTINUOUS
 10
297.08154392175328
 20
189.27920272925439
 30
0.0
 40
10.0
 50
22.26297169193387
 51
41.283103248970171
  0
ARC
  5
EF5
  8
0
  6
CONTINUOUS
 10
312.78468966561792
 20
201.61699594095441
 30
0.0
 40
10.0
 50
200.69958459211799
 51
215.02957793266171
  0
ARC
  5
EF6
  8
0
  6
CONTINUOUS
 10
306.0947663971578
 20
189.27920272925439
 30
0.0
 40
10.0
 50
138.71689675102979
 51
157.7370283080661
  0
LINE
  5
EF7
  8
0
  6
CONTINUOUS
 10
300.57581329610838
 20
200.24949821653561
 30
0.0
 11
299.74608658910392
 21
198.0823153251479
 31
0.0
  0
ARC
  5
EF8
  8
0
  6
CONTINUOUS
 10
293.26779217264721
 20
193.83663436226129
 30
0.0
 40
10.0
 50
43.936183486006371
 51
61.204384728393627
  0
ARC
  5
EF9
  8
0
  6
CONTINUOUS
 10
300.108866339857
 20
200.4282733267932
 30
0.0
 40
0.5
 50
339.0501773097896
 51
43.936183486007501
  0
LINE
  5
EFA
  8
0
 10
296.75381829647432
 20
202.3951080455189
 30
0.0
 11
295.75492461192943
 21
197.68736440573491
 31
0.0
  0
ARC
  5
EFB
  8
0
  6
CONTINUOUS
 10
290.39162065329322
 20
201.61699594095441
 30
0.0
 40
10.0
 50
324.97042206733829
 51
339.30041540788199
  0
ARC
  5
EFC
  8
0
  6
CONTINUOUS
 10
297.3621283639344
 20
201.2855544955905
 30
0.0
 40
1.5
 50
61.204384728393627
 51
90.0
  0
ARC
  5
EFD
  8
0
 10
297.24166870356453
 20
202.2855544955905
 30
0.0
 40
0.5
 50
90.0
 51
167.343405902867
  0
LINE
  5
EFE
  8
0
  6
CONTINUOUS
 10
306.33609146906178
 20
193.0677842177019
 30
0.0
 11
306.33609146906178
 21
202.58361156219371
 31
0.0
  0
LINE
  5
EFF
  8
0
  6
CONTINUOUS
 10
296.84021884984941
 20
193.0677842177019
 30
0.0
 11
296.84021884984941
 21
202.58361156219371
 31
0.0
  0
LINE
  5
F00
  8
0
  6
CONTINUOUS
 10
306.98706440641052
 20
190.34555449559051
 30
0.0
 11
307.05707617011518
 21
190.07139898191889
 31
0.0
  0
LINE
  5
F01
  8
0
  6
CONTINUOUS
 10
307.05707617011518
 20
190.07139898191889
 30
0.0
 11
307.42384159881482
 21
186.77812254197809
 31
0.0
  0
ARC
  5
F02
  8
0
  6
CONTINUOUS
 10
314.18676416114118
 20
182.1031874382808
 30
0.0
 40
8.0
 50
149.5265495885719
 51
212.6634991376466
  0
ARC
  5
F03
  8
0
  6
CONTINUOUS
 10
306.42998591198318
 20
186.6674388767305
 30
0.0
 40
1.0
 50
329.52654958857192
 51
6.3547273638236677
  0
ARC
  5
F04
  8
0
  6
CONTINUOUS
 10
307.02601489673668
 20
185.62079303759421
 30
0.0
 40
5.0
 50
46.631165890173051
 51
76.160424193720175
  0
LINE
  5
F05
  8
0
  6
CONTINUOUS
 10
307.42138570698182
 20
191.4335875176771
 30
0.0
 11
308.22203584864423
 21
190.4756394700365
 31
0.0
  0
ARC
  5
F06
  8
0
  6
CONTINUOUS
 10
309.08609146906178
 20
187.80163794637551
 30
0.0
 40
2.0
 50
0.0
 51
46.631165890173051
  0
ARC
  5
F07
  8
0
  6
CONTINUOUS
 10
296.74219702614027
 20
186.6674388767305
 30
0.0
 40
1.0
 50
173.64527263617629
 51
210.4734504114281
  0
ARC
  5
F08
  8
0
  6
CONTINUOUS
 10
294.08609146906178
 20
187.80163794637551
 30
0.0
 40
2.0
 50
133.36883410982691
 51
180.0
  0
LINE
  5
F09
  8
0
  6
CONTINUOUS
 10
295.7507972311418
 20
191.4335875176771
 30
0.0
 11
294.9501470894794
 21
190.4756394700365
 31
0.0
  0
LINE
  5
F0A
  8
0
  6
CONTINUOUS
 10
296.11510676800827
 20
190.07139898191889
 30
0.0
 11
295.74834133930881
 21
186.77812254197809
 31
0.0
  0
LINE
  5
F0B
  8
0
  6
CONTINUOUS
 10
296.1851185317131
 20
190.34555449559051
 30
0.0
 11
296.11510676800827
 21
190.07139898191889
 31
0.0
  0
ARC
  5
F0C
  8
0
  6
CONTINUOUS
 10
296.14616804138677
 20
185.62079303759421
 30
0.0
 40
5.0
 50
103.8395758062798
 51
133.36883410982691
  0
ARC
  5
F0D
  8
0
  6
CONTINUOUS
 10
288.98541877698233
 20
182.1031874382808
 30
0.0
 40
8.0
 50
327.33650086235338
 51
30.4734504114281
  0
LINE
  5
F28
  8
0
  6
CONTINUOUS
 10
120.0484668242655
 20
187.84600510666601
 30
0.0
 11
119.80088848732289
 21
166.78555449559039
 31
0.0
  0
LINE
  5
F29
  8
0
  6
CONTINUOUS
 10
101.0533101503803
 20
187.84600510666601
 30
0.0
 11
101.30088848732289
 21
166.78555449559039
 31
0.0
  0
LINE
  5
F2A
  8
0
  6
CONTINUOUS
 10
311.08609146906178
 20
187.80163794637551
 30
0.0
 11
310.83609146906178
 21
166.78555449559039
 31
0.0
  0
LINE
  5
F2B
  8
0
  6
CONTINUOUS
 10
292.08609146906178
 20
187.80163794637551
 30
0.0
 11
292.33609146906178
 21
166.78555449559039
 31
0.0
  0
CIRCLE
  5
F2C
  8
0
  6
CONTINUOUS
 10
182.35822889419561
 20
51.035502119709349
 30
0.0
 40
6.75
  0
LINE
  5
F2E
  8
0
  6
CONTINUOUS
 10
296.84021884984941
 20
193.0677842177019
 30
0.0
 11
296.5569306057775
 21
190.34555449559051
 31
0.0
  0
LINE
  5
F2F
  8
0
  6
CONTINUOUS
 10
306.33609146906178
 20
193.0677842177019
 30
0.0
 11
306.61525233234607
 21
190.34555449559051
 31
0.0
  0
LINE
  5
F3E
  8
0
 10
185.1582288941957
 20
100.2855544955904
 30
0.0
 11
179.55822889419571
 21
100.2855544955905
 31
0.0
  0
LINE
  5
F3F
  8
0
 10
178.35822889419569
 20
160.2855544955905
 30
0.0
 11
178.35822889419549
 21
101.48555449559061
 31
0.0
  0
LINE
  5
F40
  8
3
 10
179.03472889419561
 20
157.2855544955905
 30
0.0
 11
179.03472889419541
 21
100.8090544955907
 31
0.0
  0
LINE
  5
F41
  8
3
 10
185.6817288941958
 20
157.28555449559039
 30
0.0
 11
185.6817288941958
 21
100.8090544955905
 31
0.0
  0
LINE
  5
F42
  8
0
 10
186.35822889419569
 20
160.2855544955905
 30
0.0
 11
186.35822889419569
 21
101.48555449559041
 31
0.0
  0
LINE
  5
F43
  8
0
 10
186.35822889419561
 20
101.48555449559041
 30
0.0
 11
185.1582288941957
 21
100.2855544955904
 31
0.0
  0
LINE
  5
F44
  8
0
 10
179.55822889419571
 20
100.2855544955905
 30
0.0
 11
178.35822889419561
 21
101.48555449559051
 31
0.0
  0
LINE
  5
F45
  8
0
 10
186.35822889419569
 20
101.48555449559041
 30
0.0
 11
178.35822889419561
 21
101.48555449559051
 31
0.0
  0
LINE
  5
F46
  8
0
 10
186.35822889419569
 20
157.28555449559039
 30
0.0
 11
178.35822889419561
 21
157.2855544955905
 31
0.0
  0
LINE
  5
F47
  8
3
 10
185.6817288941958
 20
157.28555449559039
 30
0.0
 11
186.35822889419569
 21
158.45728686691049
 31
0.0
  0
LINE
  5
F48
  8
3
 10
179.03472889419561
 20
157.28555449559039
 30
0.0
 11
178.35822889419569
 21
158.45728686691049
 31
0.0
  0
LINE
  5
F4C
  8
3
 10
298.2625914690617
 20
157.28555449559039
 30
0.0
 11
298.26259146906187
 21
100.8090544955903
 31
0.0
  0
LINE
  5
F4D
  8
3
 10
304.90959146906192
 20
157.28555449559039
 30
0.0
 11
304.90959146906181
 21
100.8090544955905
 31
0.0
  0
LINE
  5
F4E
  8
0
 10
305.58609146906178
 20
101.48555449559041
 30
0.0
 11
297.58609146906178
 21
101.48555449559041
 31
0.0
  0
LINE
  5
F4F
  8
0
 10
305.58609146906178
 20
101.48555449559041
 30
0.0
 11
304.38609146906168
 21
100.2855544955904
 31
0.0
  0
LINE
  5
F50
  8
0
 10
304.38609146906168
 20
100.2855544955904
 30
0.0
 11
298.78609146906177
 21
100.2855544955904
 31
0.0
  0
LINE
  5
F51
  8
0
 10
298.78609146906177
 20
100.2855544955904
 30
0.0
 11
297.58609146906178
 21
101.48555449559041
 31
0.0
  0
LINE
  5
F52
  8
0
 10
305.58609146906178
 20
157.28555449559039
 30
0.0
 11
297.58609146906178
 21
157.28555449559039
 31
0.0
  0
LINE
  5
F53
  8
0
 10
305.58609146906178
 20
160.2855544955905
 30
0.0
 11
305.58609146906178
 21
101.48555449559041
 31
0.0
  0
LINE
  5
F54
  8
3
 10
304.90959146906192
 20
157.28555449559039
 30
0.0
 11
305.58609146906178
 21
158.45728686691049
 31
0.0
  0
LINE
  5
F55
  8
0
 10
297.58609146906178
 20
160.2855544955905
 30
0.0
 11
297.58609146906178
 21
101.48555449559041
 31
0.0
  0
LINE
  5
F56
  8
3
 10
298.2625914690617
 20
157.28555449559039
 30
0.0
 11
297.58609146906178
 21
158.45728686691049
 31
0.0
  0
LINE
  5
F57
  8
3
 10
113.874388487323
 20
157.28555449559039
 30
0.0
 11
113.874388487323
 21
100.8090544955905
 31
0.0
  0
LINE
  5
F58
  8
0
 10
114.55088848732289
 20
160.2855544955905
 30
0.0
 11
114.55088848732269
 21
101.48555449559019
 31
0.0
  0
LINE
  5
F59
  8
0
 10
114.55088848732289
 20
101.48555449559041
 30
0.0
 11
106.55088848732289
 21
101.48555449559041
 31
0.0
  0
LINE
  5
F5A
  8
0
 10
114.55088848732289
 20
101.48555449559041
 30
0.0
 11
113.35088848732291
 21
100.2855544955904
 31
0.0
  0
LINE
  5
F5B
  8
0
 10
114.55088848732289
 20
157.28555449559039
 30
0.0
 11
106.55088848732289
 21
157.28555449559039
 31
0.0
  0
LINE
  5
F5C
  8
3
 10
113.874388487323
 20
157.28555449559039
 30
0.0
 11
114.55088848732289
 21
158.45728686691049
 31
0.0
  0
LINE
  5
F5D
  8
0
 10
106.55088848732289
 20
160.2855544955905
 30
0.0
 11
106.55088848732279
 21
101.48555449559051
 31
0.0
  0
LINE
  5
F5E
  8
3
 10
107.2273884873228
 20
157.28555449559039
 30
0.0
 11
107.2273884873228
 21
100.8090544955905
 31
0.0
  0
LINE
  5
F5F
  8
0
 10
113.35088848732291
 20
100.2855544955904
 30
0.0
 11
107.7508884873229
 21
100.2855544955904
 31
0.0
  0
LINE
  5
F60
  8
0
 10
107.7508884873229
 20
100.2855544955904
 30
0.0
 11
106.55088848732289
 21
101.48555449559041
 31
0.0
  0
LINE
  5
F61
  8
3
 10
107.2273884873228
 20
157.28555449559039
 30
0.0
 11
106.55088848732289
 21
158.45728686691049
 31
0.0
  0
LINE
  5
FC3
  8
0
 10
114.55088848732289
 20
188.20375772586601
 30
0.0
 11
114.55088848732289
 21
186.74587415807611
 31
0.0
  0
LINE
  5
FC4
  8
0
 10
106.55088848732299
 20
188.20375772586601
 30
0.0
 11
106.55088848732289
 21
186.74587415807599
 31
0.0
  0
LINE
  5
FC7
  8
0
 10
113.3076801007751
 20
188.78555449559039
 30
0.0
 11
107.7940968738708
 21
188.78555449559039
 31
0.0
  0
CIRCLE
  5
FD3
  8
0
 10
182.35822889419561
 20
252.4219775458285
 30
0.0
 40
4.0
  0
ARC
  5
FD6
  8
0
 10
180.52756698818371
 20
253.47891069005971
 30
0.0
 40
0.6912500000000005
 50
309.68887794065949
 51
16.658241772777039
  0
ARC
  5
FD7
  8
0
 10
181.5682288941957
 20
253.79029768380801
 30
0.0
 40
0.3949999999999998
 50
43.341758227222279
 51
196.65824177277699
  0
ARC
  5
FD8
  8
0
 10
182.35822889419569
 20
254.53584383429089
 30
0.0
 40
0.6912499999999989
 50
223.3417582272223
 51
316.65824177277773
  0
ARC
  5
FD9
  8
0
 10
183.14822889419571
 20
253.79029768380801
 30
0.0
 40
0.3950000000000002
 50
343.3417582272229
 51
136.6582417727777
  0
ARC
  5
FDA
  8
0
 10
180.52756698818371
 20
251.36504440159729
 30
0.0
 40
0.691250000000001
 50
343.3417582272229
 51
50.311122059331304
  0
ARC
  5
FDB
  8
0
 10
181.5682288941957
 20
251.0536574078491
 30
0.0
 40
0.3950000000000001
 50
163.3417582272229
 51
316.65824177277773
  0
ARC
  5
FDC
  8
0
 10
182.35822889419569
 20
250.30811125736611
 30
0.0
 40
0.6912500000000003
 50
43.341758227222279
 51
136.65824177277651
  0
ARC
  5
FDD
  8
0
 10
183.14822889419571
 20
251.0536574078491
 30
0.0
 40
0.3949999999999998
 50
223.3417582272223
 51
16.658241772777039
  0
ARC
  5
FDE
  8
0
 10
184.1888908002077
 20
251.36504440159729
 30
0.0
 40
0.6912500000000003
 50
129.6888779406687
 51
196.65824177277699
  0
ARC
  5
FDF
  8
0
 10
184.1888908002077
 20
253.47891069005971
 30
0.0
 40
0.6912500000000011
 50
163.3417582272229
 51
230.31112205934281
  0
ARC
  5
FE0
  8
0
 10
110.55088848732289
 20
181.27555449559051
 30
0.0
 40
8.0
 50
60.000000000000277
 51
69.842683784424523
  0
LINE
  5
FE1
  8
0
 10
106.55088848732299
 20
188.20375772586601
 30
0.0
 11
114.55088848732289
 21
188.20375772586601
 31
0.0
  0
ARC
  5
FE2
  8
0
 10
110.55088848732289
 20
181.27555449559051
 30
0.0
 40
8.0
 50
110.15731621557541
 51
119.9999999999997
  0
LINE
  5
FE3
  8
0
 10
179.60822889419569
 20
251.89697754582849
 30
0.0
 11
180.9690119933297
 21
251.89697754582849
 31
0.0
  0
LINE
  5
FE4
  8
0
 10
179.60822889419569
 20
252.9469775458285
 30
0.0
 11
180.9690119933297
 21
252.9469775458285
 31
0.0
  0
LINE
  5
FE5
  8
0
 10
183.74744579506171
 20
252.9469775458285
 30
0.0
 11
185.10822889419569
 21
252.9469775458285
 31
0.0
  0
LINE
  5
FE6
  8
0
 10
183.74744579506171
 20
251.89697754582849
 30
0.0
 11
185.10822889419569
 21
251.89697754582849
 31
0.0
  0
ARC
  5
FE7
  8
0
 10
182.35822889419561
 20
252.4219775458285
 30
0.0
 40
2.7567916134521511
 50
355.97735839170269
 51
4.0226416083006269
  0
LINE
  5
FE8
  8
0
 10
185.10822889419561
 20
252.9469775458285
 30
0.0
 11
185.10822889419569
 21
251.89697754582849
 31
0.0
  0
LINE
  5
FE9
  8
0
 10
179.60822889419569
 20
252.9469775458285
 30
0.0
 11
179.60822889419569
 21
251.89697754582849
 31
0.0
  0
ARC
  5
FEA
  8
0
 10
182.35822889419561
 20
252.4219775458285
 30
0.0
 40
2.7567916134521511
 50
10.9783913299381
 51
169.02160867006191
  0
ARC
  5
FEB
  8
0
 10
182.35822889419561
 20
252.4219775458285
 30
0.0
 40
2.7567916134521511
 50
190.97839132993809
 51
349.02160867006188
  0
ARC
  5
FEC
  8
0
 10
182.35822889419561
 20
252.4219775458285
 30
0.0
 40
2.7567916134521511
 50
175.9773583916961
 51
184.02264160830379
  0
LINE
  5
FEF
  8
0
 10
178.35822889419569
 20
188.20375772586601
 30
0.0
 11
183.2113455008035
 21
188.20375772586601
 31
0.0
  0
LINE
  5
FF0
  8
0
 10
184.7181165649221
 20
188.78555449559039
 30
0.0
 11
179.6014372807436
 21
188.78555449559039
 31
0.0
  0
ARC
  5
FF1
  8
0
 10
182.35822889419561
 20
181.27555449559051
 30
0.0
 40
8.0
 50
110.15731621557541
 51
119.9999999999997
  0
LINE
  5
FF2
  8
0
 10
178.35822889419569
 20
188.20375772586601
 30
0.0
 11
178.35822889419569
 21
186.2463554347155
 31
0.0
  0
TEXT
  5
10DE
  8
0
 62
     3
 10
0.0
 20
0.0
 30
0.0
 40
10.0
  1
FKR8X60-BR
  7
STANDARD1
  0
ENDSEC
  0
EOF
