  0
SECTION
  2
HEADER
  9
$ACADVER
  1
AC1009
  9
$INSBASE
 10
0.0
 20
0.0
 30
0.0
  9
$EXTMIN
 10
0.0
 20
-2.960436562073669
 30
0.0
  9
$EXTMAX
 10
286.42564921795707
 20
239.67995739169751
 30
0.0
  9
$LIMMIN
 10
0.0
 20
0.0
  9
$LIMMAX
 10
750.0
 20
540.0
  9
$ORTHOMODE
 70
     1
  9
$REGENMODE
 70
     1
  9
$FILLMODE
 70
     1
  9
$QTEXTMODE
 70
     0
  9
$MIRRTEXT
 70
     0
  9
$DRAGMODE
 70
     2
  9
$LTSCALE
 40
20.0
  9
$OSMODE
 70
    55
  9
$ATTMODE
 70
     1
  9
$TEXTSIZE
 40
0.2
  9
$TRACEWID
 40
0.05
  9
$TEXTSTYLE
  7
STANDARD
  9
$CLAYER
  8
0
  9
$CELTYPE
  6
BYLAYER
  9
$CECOLOR
 62
   256
  9
$DIMSCALE
 40
1.0
  9
$DIMASZ
 40
3.0
  9
$DIMEXO
 40
2.0
  9
$DIMDLI
 40
0.38
  9
$DIMRND
 40
0.0
  9
$DIMDLE
 40
0.0
  9
$DIMEXE
 40
2.0
  9
$DIMTP
 40
0.0
  9
$DIMTM
 40
0.0
  9
$DIMTXT
 40
3.2000000000000002
  9
$DIMCEN
 40
0.0
  9
$DIMTSZ
 40
0.0
  9
$DIMTOL
 70
     0
  9
$DIMLIM
 70
     0
  9
$DIMTIH
 70
     0
  9
$DIMTOH
 70
     0
  9
$DIMSE1
 70
     0
  9
$DIMSE2
 70
     0
  9
$DIMTAD
 70
     1
  9
$DIMZIN
 70
     0
  9
$DIMBLK
  1

  9
$DIMASO
 70
     0
  9
$DIMSHO
 70
     0
  9
$DIMPOST
  1

  9
$DIMAPOST
  1

  9
$DIMALT
 70
     0
  9
$DIMALTD
 70
     2
  9
$DIMALTF
 40
25.399999999999999
  9
$DIMLFAC
 40
1.0
  9
$DIMTOFL
 70
     0
  9
$DIMTVP
 40
1.6000000000000001
  9
$DIMTIX
 70
     1
  9
$DIMSOXD
 70
     0
  9
$DIMSAH
 70
     0
  9
$DIMBLK1
  1

  9
$DIMBLK2
  1

  9
$DIMSTYLE
  2
STANDARD
  9
$DIMCLRD
 70
     0
  9
$DIMCLRE
 70
     0
  9
$DIMCLRT
 70
     0
  9
$DIMTFAC
 40
1.0
  9
$DIMGAP
 40
0.09
  9
$LUNITS
 70
     2
  9
$LUPREC
 70
     4
  9
$SKETCHINC
 40
0.1
  9
$FILLETRAD
 40
0.0
  9
$AUNITS
 70
     0
  9
$AUPREC
 70
     4
  9
$MENU
  1
E:\r13\win\SUPPORT\ACAD
  9
$ELEVATION
 40
0.0
  9
$PELEVATION
 40
0.0
  9
$THICKNESS
 40
0.0
  9
$LIMCHECK
 70
     0
  9
$BLIPMODE
 70
     0
  9
$CHAMFERA
 40
0.0
  9
$CHAMFERB
 40
0.0
  9
$SKPOLY
 70
     0
  9
$TDCREATE
 40
2449840.6227546302
  9
$TDUPDATE
 40
2456598.661249618
  9
$TDINDWG
 40
0.0304224653
  9
$TDUSRTIMER
 40
2456429.0644437158
  9
$USRTIMER
 70
     1
  9
$ANGBASE
 50
0.0
  9
$ANGDIR
 70
     0
  9
$PDMODE
 70
     0
  9
$PDSIZE
 40
0.0
  9
$PLINEWID
 40
0.0
  9
$COORDS
 70
     1
  9
$SPLFRAME
 70
     0
  9
$SPLINETYPE
 70
     6
  9
$SPLINESEGS
 70
     8
  9
$ATTDIA
 70
     0
  9
$ATTREQ
 70
     1
  9
$HANDLING
 70
     1
  9
$HANDSEED
  5
1D83
  9
$SURFTAB1
 70
     6
  9
$SURFTAB2
 70
     6
  9
$SURFTYPE
 70
     6
  9
$SURFU
 70
     6
  9
$SURFV
 70
     6
  9
$UCSNAME
  2

  9
$UCSORG
 10
0.0
 20
0.0
 30
0.0
  9
$UCSXDIR
 10
1.0
 20
0.0
 30
0.0
  9
$UCSYDIR
 10
0.0
 20
1.0
 30
0.0
  9
$PUCSNAME
  2

  9
$PUCSORG
 10
0.0
 20
0.0
 30
0.0
  9
$PUCSXDIR
 10
1.0
 20
0.0
 30
0.0
  9
$PUCSYDIR
 10
0.0
 20
1.0
 30
0.0
  9
$USERI1
 70
     0
  9
$USERI2
 70
     1
  9
$USERI3
 70
     0
  9
$USERI4
 70
     0
  9
$USERI5
 70
     0
  9
$USERR1
 40
0.0
  9
$USERR2
 40
0.0
  9
$USERR3
 40
0.0
  9
$USERR4
 40
0.0
  9
$USERR5
 40
0.0
  9
$WORLDVIEW
 70
     1
  9
$SHADEDGE
 70
     3
  9
$SHADEDIF
 70
    70
  9
$TILEMODE
 70
     1
  9
$MAXACTVP
 70
    16
  9
$PLIMCHECK
 70
     0
  9
$PEXTMIN
 10
1.0000000000000000E+020
 20
1.0000000000000000E+020
 30
1.0000000000000000E+020
  9
$PEXTMAX
 10
-1.0000000000000000E+020
 20
-1.0000000000000000E+020
 30
-1.0000000000000000E+020
  9
$PLIMMIN
 10
0.0
 20
0.0
  9
$PLIMMAX
 10
12.0
 20
9.0
  9
$UNITMODE
 70
     0
  9
$VISRETAIN
 70
     0
  9
$PLINEGEN
 70
     0
  9
$PSLTSCALE
 70
     0
  0
ENDSEC
  0
SECTION
  2
TABLES
  0
TABLE
  2
VPORT
 70
     1
  0
VPORT
  2
*ACTIVE
 70
     0
 10
0.0
 20
0.0
 11
1.0
 21
1.0
 12
374.98855678130462
 22
350.86677766270412
 13
0.0
 23
0.0
 14
20.0
 24
20.0
 15
20.0
 25
20.0
 16
0.0
 26
0.0
 36
1.0
 17
0.0
 27
0.0
 37
0.0
 40
713.9403104474975
 41
1.7807262569832401
 42
50.0
 43
0.0
 44
0.0
 50
0.0
 51
0.0
 71
    16
 72
   100
 73
     1
 74
     0
 75
     0
 76
     0
 77
     0
 78
     2
  0
ENDTAB
  0
TABLE
  2
LTYPE
 70
     3
  0
LTYPE
  2
CONTINUOUS
 70
     0
  3
Solid Line
 72
    65
 73
     0
 40
0.0
  0
LTYPE
  2
PHANTOM2
 70
     0
  3
___ _ _ ___ _ _ ___ _ _ ___ _ _
 72
    65
 73
     6
 40
1.25
 49
0.625
 49
-0.125
 49
0.125
 49
-0.125
 49
0.125
 49
-0.125
  0
LTYPE
  2
CENTER
 70
     0
  3
____ _ ____ _ ____ _ ____ _ ____ _ ____ _ ____
 72
    65
 73
     4
 40
2.0
 49
1.25
 49
-0.25
 49
0.25
 49
-0.25
  0
ENDTAB
  0
TABLE
  2
LAYER
 70
     3
  0
LAYER
  2
0
 70
     0
 62
     7
  6
CONTINUOUS
  0
LAYER
  2
1
 70
     0
 62
     1
  6
CENTER
  0
LAYER
  2
3
 70
     0
 62
     3
  6
CONTINUOUS
  0
ENDTAB
  0
TABLE
  2
STYLE
 70
     3
  0
STYLE
  2
STANDARD
 70
     0
 40
0.0
 41
1.0
 50
0.0
 71
     0
 42
0.2
  3
TXT
  4
BIGFONT
  0
STYLE
  2
ANNOTATIVE
 70
     0
 40
0.0
 41
1.0
 50
0.0
 71
     0
 42
0.2
  3
txt
  4

  0
STYLE
  2
STANDARD1
 70
     0
 40
0.0
 41
1.0
 50
0.0
 71
     0
 42
3.0
  3
txt
  4

  0
ENDTAB
  0
TABLE
  2
VIEW
 70
     1
  0
VIEW
  2
ALL
 70
     0
 40
540.0
 10
441.98319299999991
 20
270.0
 41
0.0
 11
0.0
 21
0.0
 31
1.0
 12
0.0
 22
0.0
 32
0.0
 42
0.0
 43
0.0
 44
0.0
 50
0.0
 71
     0
  0
ENDTAB
  0
TABLE
  2
UCS
 70
     0
  0
ENDTAB
  0
TABLE
  2
APPID
 70
     7
  0
APPID
  2
ACAD
 70
     0
  0
APPID
  2
ACADANNOTATIVE
 70
     0
  0
APPID
  2
ACAD_NAV_VCDISPLAY
 70
     0
  0
APPID
  2
ACAD_EXEMPT_FROM_CAD_STANDARDS
 70
     0
  0
APPID
  2
ACAD_DSTYLE_DIMJAG
 70
     0
  0
APPID
  2
ACAD_DSTYLE_DIMTALN
 70
     0
  0
APPID
  2
ACAD_MLEADERVER
 70
     0
  0
ENDTAB
  0
TABLE
  2
DIMSTYLE
 70
     2
  0
DIMSTYLE
  2
STANDARD
 70
     0
  3

  4

  5

  6

  7

 40
1.0
 41
0.18
 42
0.0625
 43
0.38
 44
0.18
 45
0.0
 46
0.0
 47
0.0
 48
0.0
140
0.18
141
0.09
142
0.0
143
25.399999999999999
144
1.0
145
0.0
146
1.0
147
0.09
 71
     0
 72
     0
 73
     1
 74
     1
 75
     0
 76
     0
 77
     0
 78
     0
170
     0
171
     2
172
     0
173
     0
174
     0
175
     0
176
     0
177
     0
178
     0
  0
DIMSTYLE
  2
ANNOTATIVE
 70
     0
  3

  4

  5

  6

  7

 40
1.0
 41
0.18
 42
0.0625
 43
0.38
 44
0.18
 45
0.0
 46
0.0
 47
0.0
 48
0.0
140
0.18
141
0.09
142
0.0
143
25.399999999999999
144
1.0
145
0.0
146
1.0
147
0.09
 71
     0
 72
     0
 73
     1
 74
     1
 75
     0
 76
     0
 77
     0
 78
     0
170
     0
171
     2
172
     0
173
     0
174
     0
175
     0
176
     0
177
     0
178
     0
  0
ENDTAB
  0
ENDSEC
  0
SECTION
  2
BLOCKS
  0
BLOCK
  8
0
  2
$MODEL_SPACE
 70
     0
 10
0.0
 20
0.0
 30
0.0
  3
$MODEL_SPACE
  1

  0
ENDBLK
  5
13B8
  8
0
  0
BLOCK
 67
     1
  8
0
  2
$PAPER_SPACE
 70
     0
 10
0.0
 20
0.0
 30
0.0
  3
$PAPER_SPACE
  1

  0
ENDBLK
  5
13B4
 67
     1
  8
0
  0
ENDSEC
  0
SECTION
  2
ENTITIES
  0
LINE
  5
88D
  8
1
 10
141.50861859123469
 20
170.49837413792719
 30
0.0
 11
141.50861859123469
 21
82.998374137927172
 31
0.0
  0
LINE
  5
88E
  8
0
 10
221.50861859123469
 20
176.56441912066819
 30
0.0
 11
221.50861859123469
 21
178.96230936554139
 31
0.0
  0
LINE
  5
88F
  8
0
 10
130.9986185912347
 20
154.31687173706959
 30
0.0
 11
130.9986185912347
 21
136.24833638507661
 31
0.0
  0
LINE
  5
890
  8
0
 10
151.99861859123459
 20
136.24833638507661
 30
0.0
 11
151.99861859123459
 21
149.99837413792719
 31
0.0
  0
ARC
  5
891
  8
0
 10
141.50861859123469
 20
157.49837413792719
 30
0.0
 40
10.00000000000002
 50
56.25101140411136
 51
123.7489885958886
  0
ARC
  5
892
  8
0
 10
136.50861859123469
 20
164.981688911475
 30
0.0
 40
1.0
 50
123.7489885958875
 51
180.0
  0
ARC
  5
893
  8
0
 10
146.50861859123469
 20
164.98168891147509
 30
0.0
 40
0.9999999999999785
 50
0.0
 51
56.25101140411293
  0
LINE
  5
894
  8
0
 10
146.50861859123469
 20
86.918374137927174
 30
0.0
 11
146.50861859123469
 21
125.9983741379272
 31
0.0
  0
LINE
  5
895
  8
0
 10
136.50861859123469
 20
125.9983741379272
 30
0.0
 11
136.50861859123469
 21
86.918374137927174
 31
0.0
  0
LINE
  5
896
  8
0
 10
145.58861859123471
 20
85.998374137927186
 30
0.0
 11
146.50861859123469
 21
86.918374137927174
 31
0.0
  0
LINE
  5
897
  8
0
 10
136.50861859123469
 20
86.918374137927174
 30
0.0
 11
137.42861859123471
 21
85.998374137927186
 31
0.0
  0
LINE
  5
898
  8
0
 10
147.50861859123469
 20
164.35999617421169
 30
0.0
 11
147.50861859123469
 21
164.981688911475
 31
0.0
  0
LINE
  5
899
  8
0
 10
135.50861859123469
 20
164.981688911475
 30
0.0
 11
135.50861859123469
 21
159.55278894548999
 31
0.0
  0
LINE
  5
89A
  8
0
 10
149.50861859123469
 20
125.9983741379272
 30
0.0
 11
149.50861859123469
 21
135.99837413792719
 31
0.0
  0
LINE
  5
89B
  8
0
 10
133.50861859123469
 20
135.99837413792719
 30
0.0
 11
133.50861859123469
 21
125.9983741379272
 31
0.0
  0
POLYLINE
  5
89C
  8
0
 66
     1
 10
0.0
 20
0.0
 30
0.0
  0
VERTEX
  5
145B
  8
0
 10
219.3073615647375
 20
180.29617719746011
 30
0.0
  0
VERTEX
  5
145C
  8
0
 10
219.32848898229301
 20
180.29776974718041
 30
0.0
  0
VERTEX
  5
145D
  8
0
 10
219.37049033238259
 20
180.30032898886569
 30
0.0
  0
VERTEX
  5
145E
  8
0
 10
219.4121167187613
 20
180.30207100962909
 30
0.0
  0
VERTEX
  5
145F
  8
0
 10
219.43277553398431
 20
180.3026425490045
 30
0.0
  0
VERTEX
  5
1460
  8
0
 10
219.45332416824701
 20
180.30301843869671
 30
0.0
  0
VERTEX
  5
1461
  8
0
 10
219.49406942354449
 20
180.3031960564112
 30
0.0
  0
VERTEX
  5
1462
  8
0
 10
219.5343101832552
 20
180.30263071839741
 30
0.0
  0
VERTEX
  5
1463
  8
0
 10
219.5740053035355
 20
180.30135125716609
 30
0.0
  0
VERTEX
  5
1464
  8
0
 10
219.6131149652
 20
180.29938836598819
 30
0.0
  0
VERTEX
  5
1465
  8
0
 10
219.65160081010211
 20
180.29677446910159
 30
0.0
  0
VERTEX
  5
1466
  8
0
 10
219.67059824127719
 20
180.2952339650918
 30
0.0
  0
VERTEX
  5
1467
  8
0
 10
219.68942605058891
 20
180.2935435816116
 30
0.0
  0
VERTEX
  5
1468
  8
0
 10
219.7265555557625
 20
180.28973116177369
 30
0.0
  0
VERTEX
  5
1469
  8
0
 10
219.76295591819959
 20
180.2853739577485
 30
0.0
  0
VERTEX
  5
146A
  8
0
 10
219.79861012147589
 20
180.2805077335384
 30
0.0
  0
VERTEX
  5
146B
  8
0
 10
219.83378885171911
 20
180.2751221482886
 30
0.0
  0
VERTEX
  5
146C
  8
0
 10
219.8686041908496
 20
180.2692165591381
 30
0.0
  0
VERTEX
  5
146D
  8
0
 10
219.88587567663521
 20
180.2660729213413
 30
0.0
  0
VERTEX
  5
146E
  8
0
 10
219.90305642374329
 20
180.2628042197982
 30
0.0
  0
VERTEX
  5
146F
  8
0
 10
219.93714585878979
 20
180.25589797066931
 30
0.0
  0
VERTEX
  5
1470
  8
0
 10
219.9708728104452
 20
180.2485102652243
 30
0.0
  0
VERTEX
  5
1471
  8
0
 10
219.98760045122259
 20
180.24463965866519
 30
0.0
  0
VERTEX
  5
1472
  8
0
 10
220.004237584381
 20
180.24065319585009
 30
0.0
  0
VERTEX
  5
1473
  8
0
 10
220.0372404650455
 20
180.2323385190488
 30
0.0
  0
VERTEX
  5
1474
  8
0
 10
220.06988170545591
 20
180.22357767989999
 30
0.0
  0
VERTEX
  5
1475
  8
0
 10
220.08606677899181
 20
180.21903344671759
 30
0.0
  0
VERTEX
  5
1476
  8
0
 10
220.1021615190374
 20
180.21438183571809
 30
0.0
  0
VERTEX
  5
1477
  8
0
 10
220.1340800733301
 20
180.20476187884319
 30
0.0
  0
VERTEX
  5
1478
  8
0
 10
220.16563748538931
 20
180.19472845852479
 30
0.0
  0
VERTEX
  5
1479
  8
0
 10
220.27324484930969
 20
180.15650423137461
 30
0.0
  0
VERTEX
  5
147A
  8
0
 10
220.4474109364246
 20
180.0807118593633
 30
0.0
  0
VERTEX
  5
147B
  8
0
 10
220.60850392921481
 20
179.99369489167691
 30
0.0
  0
VERTEX
  5
147C
  8
0
 10
220.7564368443247
 20
179.89740430708801
 30
0.0
  0
VERTEX
  5
147D
  8
0
 10
220.8911300655617
 20
179.7937776391305
 30
0.0
  0
VERTEX
  5
147E
  8
0
 10
220.9534920342528
 20
179.7398335972039
 30
0.0
  0
VERTEX
  5
147F
  8
0
 10
221.01252458038741
 20
179.684813819619
 30
0.0
  0
VERTEX
  5
1480
  8
0
 10
221.1205831578074
 20
179.5726645322647
 30
0.0
  0
VERTEX
  5
1481
  8
0
 10
221.21527265329391
 20
179.45977114173539
 30
0.0
  0
VERTEX
  5
1482
  8
0
 10
221.2967288324287
 20
179.34878549636309
 30
0.0
  0
VERTEX
  5
1483
  8
0
 10
221.3650894990989
 20
179.24287936038201
 30
0.0
  0
VERTEX
  5
1484
  8
0
 10
221.42043714166709
 20
179.14603010046619
 30
0.0
  0
VERTEX
  5
1485
  8
0
 10
221.4432212916839
 20
179.10255023305049
 30
0.0
  0
VERTEX
  5
1486
  8
0
 10
221.44670001280679
 20
179.09569803334441
 30
0.0
  0
VERTEX
  5
1487
  8
0
 10
221.45338319045339
 20
179.08236464416859
 30
0.0
  0
VERTEX
  5
1488
  8
0
 10
221.4596995780214
 20
179.06955145787481
 30
0.0
  0
VERTEX
  5
1489
  8
0
 10
221.4627197506889
 20
179.0633497398108
 30
0.0
  0
VERTEX
  5
148A
  8
0
 10
221.465647620895
 20
179.05728994921961
 30
0.0
  0
VERTEX
  5
148B
  8
0
 10
221.4712254745954
 20
179.0456125179804
 30
0.0
  0
VERTEX
  5
148C
  8
0
 10
221.47643097671431
 20
179.03455241413789
 30
0.0
  0
VERTEX
  5
148D
  8
0
 10
221.48126162214001
 20
179.02414362939419
 30
0.0
  0
VERTEX
  5
148E
  8
0
 10
221.48571454260451
 20
179.0144207498806
 30
0.0
  0
VERTEX
  5
148F
  8
0
 10
221.48978649141711
 20
179.0054187657222
 30
0.0
  0
VERTEX
  5
1490
  8
0
 10
221.49167848093299
 20
179.0011990970508
 30
0.0
  0
VERTEX
  5
1491
  8
0
 10
221.49347383399029
 20
178.9971728345574
 30
0.0
  0
VERTEX
  5
1492
  8
0
 10
221.49677254436889
 20
178.98971799822621
 30
0.0
  0
VERTEX
  5
1493
  8
0
 10
221.4996782074623
 20
178.9830888546669
 30
0.0
  0
VERTEX
  5
1494
  8
0
 10
221.50218602604519
 20
178.97731919052359
 30
0.0
  0
VERTEX
  5
1495
  8
0
 10
221.50429083087189
 20
178.97244158388841
 30
0.0
  0
VERTEX
  5
1496
  8
0
 10
221.50598709149631
 20
178.968486990663
 30
0.0
  0
VERTEX
  5
1497
  8
0
 10
221.50668019287869
 20
178.9668649523156
 30
0.0
  0
VERTEX
  5
1498
  8
0
 10
221.50726892467571
 20
178.96548433180129
 30
0.0
  0
VERTEX
  5
1499
  8
0
 10
221.5081300966458
 20
178.963460101669
 30
0.0
  0
VERTEX
  5
149A
  8
0
 10
221.50856401519471
 20
178.96243801939161
 30
0.0
  0
VERTEX
  5
149B
  8
0
 10
221.50861859123469
 20
178.96230936554139
 30
0.0
  0
SEQEND
  5
149C
  8
0
  0
LINE
  5
89D
  8
0
 10
221.50861859123469
 20
176.56441912066819
 30
0.0
 11
221.50532371876861
 21
176.53796630420021
 31
0.0
  0
POLYLINE
  5
89E
  8
0
 66
     1
 10
0.0
 20
0.0
 30
0.0
  0
VERTEX
  5
149D
  8
0
 10
221.50532371876861
 20
176.53796630420021
 30
0.0
  0
VERTEX
  5
149E
  8
0
 10
221.50509427015709
 20
176.53612605064009
 30
0.0
  0
VERTEX
  5
149F
  8
0
 10
221.5046170542191
 20
176.53231052612441
 30
0.0
  0
VERTEX
  5
14A0
  8
0
 10
221.5041161608759
 20
176.528322807233
 30
0.0
  0
VERTEX
  5
14A1
  8
0
 10
221.50385709685619
 20
176.52626714834739
 30
0.0
  0
VERTEX
  5
14A2
  8
0
 10
221.503592417997
 20
176.52417168580789
 30
0.0
  0
VERTEX
  5
14A3
  8
0
 10
221.5030465790127
 20
176.51986530052281
 30
0.0
  0
VERTEX
  5
14A4
  8
0
 10
221.50247932825451
 20
176.51541117933959
 30
0.0
  0
VERTEX
  5
14A5
  8
0
 10
221.50189128636859
 20
176.51081628356729
 30
0.0
  0
VERTEX
  5
14A6
  8
0
 10
221.50128301567
 20
176.50608705212011
 30
0.0
  0
VERTEX
  5
14A7
  8
0
 10
221.50065502531629
 20
176.50122944476809
 30
0.0
  0
VERTEX
  5
14A8
  8
0
 10
221.5003337810567
 20
176.49875424174371
 30
0.0
  0
VERTEX
  5
14A9
  8
0
 10
221.5000077762009
 20
176.49624898337709
 30
0.0
  0
VERTEX
  5
14AA
  8
0
 10
221.49934169999671
 20
176.49115090115691
 30
0.0
  0
VERTEX
  5
14AB
  8
0
 10
221.49865737536641
 20
176.48594148132889
 30
0.0
  0
VERTEX
  5
14AC
  8
0
 10
221.49612448445649
 20
176.46690227765939
 30
0.0
  0
VERTEX
  5
14AD
  8
0
 10
221.4937903092943
 20
176.44968080089799
 30
0.0
  0
VERTEX
  5
14AE
  8
0
 10
221.4913117544655
 20
176.43171634288859
 30
0.0
  0
VERTEX
  5
14AF
  8
0
 10
221.4859339335207
 20
176.3938007018142
 30
0.0
  0
VERTEX
  5
14B0
  8
0
 10
221.48000038366561
 20
176.35350717872339
 30
0.0
  0
VERTEX
  5
14B1
  8
0
 10
221.47352005067211
 20
176.31115245257661
 30
0.0
  0
VERTEX
  5
14B2
  8
0
 10
221.46651110445191
 20
176.26707749324689
 30
0.0
  0
VERTEX
  5
14B3
  8
0
 10
221.45896772529571
 20
176.22144075071461
 30
0.0
  0
VERTEX
  5
14B4
  8
0
 10
221.45499182839521
 20
176.19807041685499
 30
0.0
  0
VERTEX
  5
14B5
  8
0
 10
221.4508770615752
 20
176.1743448809583
 30
0.0
  0
VERTEX
  5
14B6
  8
0
 10
221.44222084486299
 20
176.12585424945331
 30
0.0
  0
VERTEX
  5
14B7
  8
0
 10
221.43297566184421
 20
176.07600245522241
 30
0.0
  0
VERTEX
  5
14B8
  8
0
 10
221.39562874268651
 20
175.8912385543743
 30
0.0
  0
VERTEX
  5
14B9
  8
0
 10
221.35727477917001
 20
175.72268026480299
 30
0.0
  0
VERTEX
  5
14BA
  8
0
 10
221.31270835794891
 20
175.5463592421977
 30
0.0
  0
VERTEX
  5
14BB
  8
0
 10
221.2032001035364
 20
175.17381368679469
 30
0.0
  0
VERTEX
  5
14BC
  8
0
 10
221.0637668752253
 20
174.77975129928069
 30
0.0
  0
VERTEX
  5
14BD
  8
0
 10
220.89294538066591
 20
174.37325187969009
 30
0.0
  0
VERTEX
  5
14BE
  8
0
 10
220.6900857539199
 20
173.96202647616141
 30
0.0
  0
VERTEX
  5
14BF
  8
0
 10
220.4554520650785
 20
173.55298404135121
 30
0.0
  0
VERTEX
  5
14C0
  8
0
 10
220.3265840565843
 20
173.35130036108251
 30
0.0
  0
VERTEX
  5
14C1
  8
0
 10
220.19035009988559
 20
173.1525331523633
 30
0.0
  0
VERTEX
  5
14C2
  8
0
 10
219.89511201197391
 20
172.76404480454201
 30
0.0
  0
VERTEX
  5
14C3
  8
0
 10
219.7043523081976
 20
172.5387078380304
 30
0.0
  0
VERTEX
  5
14C4
  8
0
 10
219.6472025766507
 20
172.47460330281149
 30
0.0
  0
VERTEX
  5
14C5
  8
0
 10
219.5888844715721
 20
172.4106945039893
 30
0.0
  0
VERTEX
  5
14C6
  8
0
 10
219.55928904404601
 20
172.37882563145999
 30
0.0
  0
VERTEX
  5
14C7
  8
0
 10
219.5294037416474
 20
172.3470201784996
 30
0.0
  0
VERTEX
  5
14C8
  8
0
 10
219.46876692883001
 20
172.2836185267324
 30
0.0
  0
VERTEX
  5
14C9
  8
0
 10
219.4069813324615
 20
172.2205271678948
 30
0.0
  0
VERTEX
  5
14CA
  8
0
 10
219.3440549668081
 20
172.1577830944118
 30
0.0
  0
VERTEX
  5
14CB
  8
0
 10
219.27999651141721
 20
172.09542262541771
 30
0.0
  0
VERTEX
  5
14CC
  8
0
 10
219.21481528179839
 20
172.03348138584801
 30
0.0
  0
VERTEX
  5
14CD
  8
0
 10
219.18180675858471
 20
172.00267896589639
 30
0.0
  0
VERTEX
  5
14CE
  8
0
 10
219.1485214257865
 20
171.97199449559031
 30
0.0
  0
VERTEX
  5
14CF
  8
0
 10
219.08112609880311
 20
171.91099671266511
 30
0.0
  0
VERTEX
  5
14D0
  8
0
 10
219.01264145707961
 20
171.8505223948078
 30
0.0
  0
VERTEX
  5
14D1
  8
0
 10
218.943080633477
 20
171.79060544812631
 30
0.0
  0
VERTEX
  5
14D2
  8
0
 10
218.8724577081268
 20
171.7312792753595
 30
0.0
  0
VERTEX
  5
14D3
  8
0
 10
218.80078767331599
 20
171.67257672371639
 30
0.0
  0
VERTEX
  5
14D4
  8
0
 10
218.76456491430201
 20
171.64346940574109
 30
0.0
  0
VERTEX
  5
14D5
  8
0
 10
218.72808639200341
 20
171.6145300323264
 30
0.0
  0
VERTEX
  5
14D6
  8
0
 10
218.65437054933639
 20
171.55717077938121
 30
0.0
  0
VERTEX
  5
14D7
  8
0
 10
218.57965759651779
 20
171.50052982911259
 30
0.0
  0
VERTEX
  5
14D8
  8
0
 10
218.5039656863662
 20
171.44463727880941
 30
0.0
  0
VERTEX
  5
14D9
  8
0
 10
218.4273135999166
 20
171.3895224061545
 30
0.0
  0
VERTEX
  5
14DA
  8
0
 10
218.3497206634286
 20
171.3352136172353
 30
0.0
  0
VERTEX
  5
14DB
  8
0
 10
218.31057621169461
 20
171.30836922396381
 30
0.0
  0
VERTEX
  5
14DC
  8
0
 10
218.27119951308359
 20
171.2817335976963
 30
0.0
  0
VERTEX
  5
14DD
  8
0
 10
218.1917593221398
 20
171.22910209796541
 30
0.0
  0
VERTEX
  5
14DE
  8
0
 10
218.1114213632508
 20
171.17734617232301
 30
0.0
  0
VERTEX
  5
14DF
  8
0
 10
218.07092271344749
 20
171.15180488494781
 30
0.0
  0
VERTEX
  5
14E0
  8
0
 10
218.0302081466028
 20
171.12649241841959
 30
0.0
  0
VERTEX
  5
14E1
  8
0
 10
217.94814323659469
 20
171.0765668137683
 30
0.0
  0
VERTEX
  5
14E2
  8
0
 10
217.86525119431451
 20
171.0275946455441
 30
0.0
  0
VERTEX
  5
14E3
  8
0
 10
217.82350293029489
 20
171.00347379652831
 30
0.0
  0
VERTEX
  5
14E4
  8
0
 10
217.78155751113229
 20
170.97960044144651
 30
0.0
  0
VERTEX
  5
14E5
  8
0
 10
217.69708853276049
 20
170.932607901994
 30
0.0
  0
VERTEX
  5
14E6
  8
0
 10
217.61187137316921
 20
170.88663983469991
 30
0.0
  0
VERTEX
  5
14E7
  8
0
 10
217.52593381781
 20
170.8417180906624
 30
0.0
  0
VERTEX
  5
14E8
  8
0
 10
217.4393042156764
 20
170.7978635041855
 30
0.0
  0
VERTEX
  5
14E9
  8
0
 10
217.3520113598438
 20
170.75509583613629
 30
0.0
  0
VERTEX
  5
14EA
  8
0
 10
217.3081252990095
 20
170.7341254653422
 30
0.0
  0
VERTEX
  5
14EB
  8
0
 10
217.2640843562686
 20
170.7134337218256
 30
0.0
  0
VERTEX
  5
14EC
  8
0
 10
217.1755521760642
 20
170.67289448714641
 30
0.0
  0
VERTEX
  5
14ED
  8
0
 10
217.08644343364429
 20
170.63349410283081
 30
0.0
  0
VERTEX
  5
14EE
  8
0
 10
216.9967894534372
 20
170.5952485336966
 30
0.0
  0
VERTEX
  5
14EF
  8
0
 10
216.90662267675489
 20
170.55817292203639
 30
0.0
  0
VERTEX
  5
14F0
  8
0
 10
216.8159763367093
 20
170.52228141249671
 30
0.0
  0
VERTEX
  5
14F1
  8
0
 10
216.7704839014751
 20
170.5047838256971
 30
0.0
  0
VERTEX
  5
14F2
  8
0
 10
216.72488433209361
 20
170.48758708054191
 30
0.0
  0
VERTEX
  5
14F3
  8
0
 10
216.6333810900133
 20
170.45410186736279
 30
0.0
  0
VERTEX
  5
14F4
  8
0
 10
216.54150141752561
 20
170.4218365220899
 30
0.0
  0
VERTEX
  5
14F5
  8
0
 10
216.49543136207819
 20
170.40616432067819
 30
0.0
  0
SEQEND
  5
14F6
  8
0
  0
LINE
  5
89F
  8
0
 10
216.49543136207819
 20
170.40616432067819
 30
0.0
 11
211.2698041654354
 21
168.64754647301899
 31
0.0
  0
POLYLINE
  5
8A0
  8
0
 66
     1
 10
0.0
 20
0.0
 30
0.0
  0
VERTEX
  5
14F7
  8
0
 10
130.9986185912347
 20
154.31687173706959
 30
0.0
  0
VERTEX
  5
14F8
  8
0
 10
130.9987404682054
 20
154.3517824066908
 30
0.0
  0
VERTEX
  5
14F9
  8
0
 10
130.9996907053748
 20
154.42040913115019
 30
0.0
  0
VERTEX
  5
14FA
  8
0
 10
131.0015314296661
 20
154.48751727520661
 30
0.0
  0
VERTEX
  5
14FB
  8
0
 10
131.00276803580169
 20
154.52053132505969
 30
0.0
  0
VERTEX
  5
14FC
  8
0
 10
131.00420689232931
 20
154.553201552872
 30
0.0
  0
VERTEX
  5
14FD
  8
0
 10
131.0076680827728
 20
154.6175593192614
 30
0.0
  0
VERTEX
  5
14FE
  8
0
 10
131.0118722759602
 20
154.68068650737979
 30
0.0
  0
VERTEX
  5
14FF
  8
0
 10
131.01678235282321
 20
154.74267414858241
 30
0.0
  0
VERTEX
  5
1500
  8
0
 10
131.0223659881193
 20
154.8036057814794
 30
0.0
  0
VERTEX
  5
1501
  8
0
 10
131.02859480534681
 20
154.86355589424721
 30
0.0
  0
VERTEX
  5
1502
  8
0
 10
131.0319432121222
 20
154.8931838734311
 30
0.0
  0
VERTEX
  5
1503
  8
0
 10
131.03544383611501
 20
154.9225914330859
 30
0.0
  0
VERTEX
  5
1504
  8
0
 10
131.0428917948276
 20
154.9807782962877
 30
0.0
  0
VERTEX
  5
1505
  8
0
 10
131.0509209460522
 20
155.0381816648094
 30
0.0
  0
VERTEX
  5
1506
  8
0
 10
131.05951670167821
 20
155.0948643620863
 30
0.0
  0
VERTEX
  5
1507
  8
0
 10
131.0686671960303
 20
155.15088567035991
 30
0.0
  0
VERTEX
  5
1508
  8
0
 10
131.0783628641062
 20
155.2063005311048
 30
0.0
  0
VERTEX
  5
1509
  8
0
 10
131.0834126801789
 20
155.23379640786979
 30
0.0
  0
VERTEX
  5
150A
  8
0
 10
131.08859604610561
 20
155.26115909075151
 30
0.0
  0
VERTEX
  5
150B
  8
0
 10
131.0993606301206
 20
155.31550652039141
 30
0.0
  0
VERTEX
  5
150C
  8
0
 10
131.1106466619033
 20
155.36935946529661
 30
0.0
  0
VERTEX
  5
150D
  8
0
 10
131.116481848875
 20
155.3961033289446
 30
0.0
  0
VERTEX
  5
150E
  8
0
 10
131.12244426159711
 20
155.42273063719341
 30
0.0
  0
VERTEX
  5
150F
  8
0
 10
131.13474853357931
 20
155.4756504313176
 30
0.0
  0
VERTEX
  5
1510
  8
0
 10
131.14755565311069
 20
155.5281472508814
 30
0.0
  0
VERTEX
  5
1511
  8
0
 10
131.1541468370728
 20
155.55424533591869
 30
0.0
  0
VERTEX
  5
1512
  8
0
 10
131.1608626999971
 20
155.58024734899041
 30
0.0
  0
VERTEX
  5
1513
  8
0
 10
131.17466750667941
 20
155.63197474969559
 30
0.0
  0
VERTEX
  5
1514
  8
0
 10
131.18896852218529
 20
155.68335123318101
 30
0.0
  0
VERTEX
  5
1515
  8
0
 10
131.2037646925244
 20
155.73439637178419
 30
0.0
  0
VERTEX
  5
1516
  8
0
 10
131.21905536806821
 20
155.7851276397495
 30
0.0
  0
VERTEX
  5
1517
  8
0
 10
131.234840345229
 20
155.83556091622501
 30
0.0
  0
VERTEX
  5
1518
  8
0
 10
131.24291826644401
 20
155.86067043534129
 30
0.0
  0
VERTEX
  5
1519
  8
0
 10
131.2511199001122
 20
155.88571085494939
 30
0.0
  0
VERTEX
  5
151A
  8
0
 10
131.26789471741381
 20
155.9355908694892
 30
0.0
  0
VERTEX
  5
151B
  8
0
 10
131.28516582542579
 20
155.9852131363308
 30
0.0
  0
VERTEX
  5
151C
  8
0
 10
131.34954388088531
 20
156.15700878022409
 30
0.0
  0
VERTEX
  5
151D
  8
0
 10
131.47364168681759
 20
156.44397869594411
 30
0.0
  0
VERTEX
  5
151E
  8
0
 10
131.61416533380839
 20
156.7203212650281
 30
0.0
  0
VERTEX
  5
151F
  8
0
 10
131.77007982324679
 20
156.98510334014011
 30
0.0
  0
VERTEX
  5
1520
  8
0
 10
131.85337785249129
 20
157.11275786097781
 30
0.0
  0
VERTEX
  5
1521
  8
0
 10
131.93995024312321
 20
157.23701064473099
 30
0.0
  0
VERTEX
  5
1522
  8
0
 10
132.12186915593711
 20
157.4745312842532
 30
0.0
  0
VERTEX
  5
1523
  8
0
 10
132.31486718784731
 20
157.69769642907031
 30
0.0
  0
VERTEX
  5
1524
  8
0
 10
132.52530344245039
 20
157.9135482414589
 30
0.0
  0
VERTEX
  5
1525
  8
0
 10
132.75418000881311
 20
158.1212926239977
 30
0.0
  0
VERTEX
  5
1526
  8
0
 10
133.0011753117094
 20
158.3187880013146
 30
0.0
  0
VERTEX
  5
1527
  8
0
 10
133.13131477566091
 20
158.4130368740235
 30
0.0
  0
VERTEX
  5
1528
  8
0
 10
133.26577459785051
 20
158.5039427548366
 30
0.0
  0
VERTEX
  5
1529
  8
0
 10
133.54724595180099
 20
158.67471204881079
 30
0.0
  0
VERTEX
  5
152A
  8
0
 10
133.84463552692921
 20
158.82911696075661
 30
0.0
  0
VERTEX
  5
152B
  8
0
 10
133.9989768129669
 20
158.8996037561393
 30
0.0
  0
SEQEND
  5
152C
  8
0
  0
POLYLINE
  5
8A2
  8
0
 66
     1
 10
0.0
 20
0.0
 30
0.0
  0
VERTEX
  5
152D
  8
0
 10
211.2698041654354
 20
168.64754647301899
 30
0.0
  0
VERTEX
  5
152E
  8
0
 10
211.17325428429399
 20
168.61553774139671
 30
0.0
  0
VERTEX
  5
152F
  8
0
 10
210.9793082648508
 20
168.55413860450079
 30
0.0
  0
VERTEX
  5
1530
  8
0
 10
210.78428650871561
 20
168.4962470930042
 30
0.0
  0
VERTEX
  5
1531
  8
0
 10
210.68639203871589
 20
168.4686226257339
 30
0.0
  0
VERTEX
  5
1532
  8
0
 10
210.5882524476693
 20
168.44188203640439
 30
0.0
  0
VERTEX
  5
1533
  8
0
 10
210.39126984274989
 20
168.39106111720201
 30
0.0
  0
VERTEX
  5
1534
  8
0
 10
210.1934027635138
 20
168.34380086515
 30
0.0
  0
VERTEX
  5
1535
  8
0
 10
209.9947155671972
 20
168.30011665187669
 30
0.0
  0
VERTEX
  5
1536
  8
0
 10
209.7952728777837
 20
168.26002268588621
 30
0.0
  0
VERTEX
  5
1537
  8
0
 10
209.5951395649839
 20
168.22353200793719
 30
0.0
  0
VERTEX
  5
1538
  8
0
 10
209.4948342585991
 20
168.20664165685841
 30
0.0
  0
VERTEX
  5
1539
  8
0
 10
209.3943807231374
 20
168.1906564868014
 30
0.0
  0
VERTEX
  5
153A
  8
0
 10
209.19306165004079
 20
168.1614068154031
 30
0.0
  0
VERTEX
  5
153B
  8
0
 10
208.9912478257078
 20
168.13579250734099
 30
0.0
  0
VERTEX
  5
153C
  8
0
 10
208.78900489107269
 20
168.1138218937941
 30
0.0
  0
VERTEX
  5
153D
  8
0
 10
208.5863986266402
 20
168.09550212081211
 30
0.0
  0
VERTEX
  5
153E
  8
0
 10
208.3834949310893
 20
168.08083914699091
 30
0.0
  0
VERTEX
  5
153F
  8
0
 10
208.2819521670213
 20
168.07488049664741
 30
0.0
  0
VERTEX
  5
1540
  8
0
 10
208.1803597998408
 20
168.0698377415344
 30
0.0
  0
VERTEX
  5
1541
  8
0
 10
207.9770593035901
 20
168.0625014827036
 30
0.0
  0
VERTEX
  5
1542
  8
0
 10
207.77365956681891
 20
168.05883275665269
 30
0.0
  0
VERTEX
  5
1543
  8
0
 10
207.67194315655311
 20
168.05837413792719
 30
0.0
  0
SEQEND
  5
1544
  8
0
  0
LINE
  5
8A3
  8
0
 10
207.67194315655311
 20
168.05837413792719
 30
0.0
 11
198.88466980609479
 21
168.05837413792719
 31
0.0
  0
POLYLINE
  5
8A4
  8
0
 66
     1
 10
0.0
 20
0.0
 30
0.0
  0
VERTEX
  5
1545
  8
0
 10
198.88466980609479
 20
168.05837413792719
 30
0.0
  0
VERTEX
  5
1546
  8
0
 10
198.82108037544251
 20
168.0581387670837
 30
0.0
  0
VERTEX
  5
1547
  8
0
 10
198.69391545303679
 20
168.0562558777271
 30
0.0
  0
VERTEX
  5
1548
  8
0
 10
198.56679234427301
 20
168.0524905117461
 30
0.0
  0
VERTEX
  5
1549
  8
0
 10
198.5032551785246
 20
168.04990214183621
 30
0.0
  0
VERTEX
  5
154A
  8
0
 10
198.43973891472791
 20
168.04684349451441
 30
0.0
  0
VERTEX
  5
154B
  8
0
 10
198.3127830147051
 20
168.03931606386701
 30
0.0
  0
VERTEX
  5
154C
  8
0
 10
198.18595247312911
 20
168.02990986982789
 30
0.0
  0
VERTEX
  5
154D
  8
0
 10
198.0592750914459
 20
168.018626974249
 30
0.0
  0
VERTEX
  5
154E
  8
0
 10
197.9327786375284
 20
168.005469850358
 30
0.0
  0
VERTEX
  5
154F
  8
0
 10
197.8064908395902
 20
167.99044138221629
 30
0.0
  0
VERTEX
  5
1550
  8
0
 10
197.74343383933959
 20
167.9822264075043
 30
0.0
  0
VERTEX
  5
1551
  8
0
 10
197.68043938010689
 20
167.9735448640869
 30
0.0
  0
VERTEX
  5
1552
  8
0
 10
197.5546518897485
 20
167.95478399971191
 30
0.0
  0
VERTEX
  5
1553
  8
0
 10
197.42915594132251
 20
167.93416290150111
 30
0.0
  0
VERTEX
  5
1554
  8
0
 10
197.30397904373001
 20
167.91168608963039
 30
0.0
  0
VERTEX
  5
1555
  8
0
 10
197.1791486359356
 20
167.88735849105069
 30
0.0
  0
VERTEX
  5
1556
  8
0
 10
197.054692080953
 20
167.8611854384084
 30
0.0
  0
VERTEX
  5
1557
  8
0
 10
196.99261252696351
 20
167.8474086439121
 30
0.0
  0
VERTEX
  5
1558
  8
0
 10
196.9306366598465
 20
167.8331726688759
 30
0.0
  0
VERTEX
  5
1559
  8
0
 10
196.8070095657516
 20
167.8033263228948
 30
0.0
  0
VERTEX
  5
155A
  8
0
 10
196.6838378979138
 20
167.77165294282901
 30
0.0
  0
VERTEX
  5
155B
  8
0
 10
196.62243129021999
 20
167.75513326905269
 30
0.0
  0
SEQEND
  5
155C
  8
0
  0
LINE
  5
8A9
  8
0
 10
151.7486563440853
 20
135.99837413792719
 30
0.0
 11
131.2485808383841
 21
135.99837413792719
 31
0.0
  0
POLYLINE
  5
8AA
  8
0
 66
     1
 10
0.0
 20
0.0
 30
0.0
  0
VERTEX
  5
155D
  8
0
 10
171.6880471973432
 20
159.27162356035581
 30
0.0
  0
VERTEX
  5
155E
  8
0
 10
171.13476872838481
 20
159.0436846674622
 30
0.0
  0
VERTEX
  5
155F
  8
0
 10
170.02291287581309
 20
158.58014701178041
 30
0.0
  0
VERTEX
  5
1560
  8
0
 10
168.90531560194611
 20
158.1068014794142
 30
0.0
  0
VERTEX
  5
1561
  8
0
 10
168.34486894203681
 20
157.8666154839112
 30
0.0
  0
VERTEX
  5
1562
  8
0
 10
167.7835926116241
 20
157.62418006523561
 30
0.0
  0
VERTEX
  5
1563
  8
0
 10
166.6593529222105
 20
157.1328522819648
 30
0.0
  0
VERTEX
  5
1564
  8
0
 10
165.5341929814322
 20
156.63342333416941
 30
0.0
  0
VERTEX
  5
1565
  8
0
 10
164.40970225827741
 20
156.12653714599611
 30
0.0
  0
VERTEX
  5
1566
  8
0
 10
163.28743275555291
 20
155.6128628625186
 30
0.0
  0
VERTEX
  5
1567
  8
0
 10
162.16871040613751
 20
155.0930059229251
 30
0.0
  0
VERTEX
  5
1568
  8
0
 10
161.6111380421824
 20
154.8309789675788
 30
0.0
  0
VERTEX
  5
1569
  8
0
 10
161.055012113505
 20
154.56767985420109
 30
0.0
  0
VERTEX
  5
156A
  8
0
 10
159.94785249192489
 20
154.0376573582202
 30
0.0
  0
VERTEX
  5
156B
  8
0
 10
158.84872026370019
 20
153.503740835359
 30
0.0
  0
VERTEX
  5
156C
  8
0
 10
157.759082450509
 20
152.96676374369309
 30
0.0
  0
VERTEX
  5
156D
  8
0
 10
156.68038375052399
 20
152.4275895762037
 30
0.0
  0
VERTEX
  5
156E
  8
0
 10
155.6140247220923
 20
151.88709985823371
 30
0.0
  0
VERTEX
  5
156F
  8
0
 10
155.0859018061075
 20
151.61664350105141
 30
0.0
  0
VERTEX
  5
1570
  8
0
 10
154.561378726622
 20
151.346201144677
 30
0.0
  0
VERTEX
  5
1571
  8
0
 10
153.52380776589061
 20
150.80583201535251
 30
0.0
  0
VERTEX
  5
1572
  8
0
 10
152.5026421562188
 20
150.26695138189211
 30
0.0
  0
VERTEX
  5
1573
  8
0
 10
151.99861859123459
 20
149.99837413792719
 30
0.0
  0
SEQEND
  5
1574
  8
0
  0
LINE
  5
8AB
  8
0
 10
173.15655115243629
 20
159.86788971849541
 30
0.0
 11
171.6880471973432
 21
159.27162356035581
 31
0.0
  0
POLYLINE
  5
8AC
  8
0
 66
     1
 10
0.0
 20
0.0
 30
0.0
  0
VERTEX
  5
1575
  8
0
 10
196.62243129021999
 20
167.75513326905241
 30
0.0
  0
VERTEX
  5
1576
  8
0
 10
192.6505937229291
 20
166.62965532561671
 30
0.0
  0
VERTEX
  5
1577
  8
0
 10
184.7755841576604
 20
164.1504042242623
 30
0.0
  0
VERTEX
  5
1578
  8
0
 10
177.00184095161671
 20
161.3698686206186
 30
0.0
  0
VERTEX
  5
1579
  8
0
 10
173.15655115243629
 20
159.86788971849541
 30
0.0
  0
SEQEND
  5
157A
  8
0
  0
LINE
  5
8AD
  8
0
 10
130.9986185912347
 20
136.24833638507661
 30
0.0
 11
131.2485808383841
 21
135.99837413792719
 31
0.0
  0
LINE
  5
8AE
  8
0
 10
147.5113809481204
 20
164.36103034068799
 30
0.0
 11
148.653858539315
 21
164.7838820538372
 31
0.0
  0
LINE
  5
8AF
  8
0
 10
216.00861859123469
 20
180.01091729594361
 30
0.0
 11
219.3073615647375
 21
180.29617719746011
 31
0.0
  0
POLYLINE
  5
8B0
  8
0
 66
     1
 10
0.0
 20
0.0
 30
0.0
  0
VERTEX
  5
157B
  8
0
 10
173.15655115243629
 20
172.47155475458121
 30
0.0
  0
VERTEX
  5
157C
  8
0
 10
180.20416805388939
 20
174.21288517974841
 30
0.0
  0
VERTEX
  5
157D
  8
0
 10
194.42853258184221
 20
177.11683513376499
 30
0.0
  0
VERTEX
  5
157E
  8
0
 10
208.78987479108449
 20
179.2422342747619
 30
0.0
  0
VERTEX
  5
157F
  8
0
 10
216.00861859123469
 20
180.01091729594361
 30
0.0
  0
SEQEND
  5
1580
  8
0
  0
LINE
  5
8B1
  8
0
 10
171.6880471973432
 20
172.0829564036884
 30
0.0
 11
173.15655115243629
 21
172.47155475458129
 31
0.0
  0
POLYLINE
  5
8B2
  8
0
 66
     1
 10
0.0
 20
0.0
 30
0.0
  0
VERTEX
  5
1581
  8
0
 10
146.23112885219979
 20
163.8801142987644
 30
0.0
  0
VERTEX
  5
1582
  8
0
 10
146.9108942464857
 20
164.1363955577786
 30
0.0
  0
VERTEX
  5
1583
  8
0
 10
148.27851559515489
 20
164.64561527423359
 30
0.0
  0
VERTEX
  5
1584
  8
0
 10
149.65416939406589
 20
165.14925320372711
 30
0.0
  0
VERTEX
  5
1585
  8
0
 10
150.343948881519
 20
165.39856692993939
 30
0.0
  0
VERTEX
  5
1586
  8
0
 10
151.03446078596079
 20
165.64599972740541
 30
0.0
  0
VERTEX
  5
1587
  8
0
 10
152.4159357018805
 20
166.1346083767458
 30
0.0
  0
VERTEX
  5
1588
  8
0
 10
153.79500257383239
 20
166.61386989030129
 30
0.0
  0
VERTEX
  5
1589
  8
0
 10
155.16797854386141
 20
167.0826307362907
 30
0.0
  0
VERTEX
  5
158A
  8
0
 10
156.53109774441899
 20
167.53979674860341
 30
0.0
  0
VERTEX
  5
158B
  8
0
 10
157.8872296417147
 20
167.9865264550028
 30
0.0
  0
VERTEX
  5
158C
  8
0
 10
158.5741195241404
 20
168.20973196522161
 30
0.0
  0
VERTEX
  5
158D
  8
0
 10
159.26800859683431
 20
168.43312589095109
 30
0.0
  0
VERTEX
  5
158E
  8
0
 10
160.6749722276511
 20
168.87967768410519
 30
0.0
  0
VERTEX
  5
158F
  8
0
 10
162.1044717878882
 20
169.324623862262
 30
0.0
  0
VERTEX
  5
1590
  8
0
 10
163.55280890354379
 20
169.76647738662109
 30
0.0
  0
VERTEX
  5
1591
  8
0
 10
165.01626272504109
 20
170.20383380598821
 30
0.0
  0
VERTEX
  5
1592
  8
0
 10
166.49111109957011
 20
170.63537956784691
 30
0.0
  0
VERTEX
  5
1593
  8
0
 10
167.23162303642479
 20
170.8485818538804
 30
0.0
  0
VERTEX
  5
1594
  8
0
 10
167.97356018925171
 20
171.05987300882859
 30
0.0
  0
VERTEX
  5
1595
  8
0
 10
169.45981015149141
 20
171.47616508826081
 30
0.0
  0
VERTEX
  5
1596
  8
0
 10
170.94605129825311
 20
171.88319826012469
 30
0.0
  0
VERTEX
  5
1597
  8
0
 10
171.6880471973432
 20
172.0829564036884
 30
0.0
  0
SEQEND
  5
1598
  8
0
  0
POLYLINE
  5
8B3
  8
0
 66
     1
 10
0.0
 20
0.0
 30
0.0
  0
VERTEX
  5
1599
  8
0
 10
133.99897681296679
 20
158.8996037561395
 30
0.0
  0
VERTEX
  5
159A
  8
0
 10
134.28145921948661
 20
159.02266864169309
 30
0.0
  0
VERTEX
  5
159B
  8
0
 10
134.8680991728356
 20
159.27700199733309
 30
0.0
  0
VERTEX
  5
159C
  8
0
 10
135.47762994443411
 20
159.53949192892651
 30
0.0
  0
VERTEX
  5
159D
  8
0
 10
135.7885650705029
 20
159.67270183801119
 30
0.0
  0
VERTEX
  5
159E
  8
0
 10
136.10223855477889
 20
159.80661220971271
 30
0.0
  0
VERTEX
  5
159F
  8
0
 10
136.73338172145051
 20
160.07461801999369
 30
0.0
  0
VERTEX
  5
15A0
  8
0
 10
137.37512595906131
 20
160.3451642769966
 30
0.0
  0
VERTEX
  5
15A1
  8
0
 10
138.0481546167963
 20
160.62678205946341
 30
0.0
  0
VERTEX
  5
15A2
  8
0
 10
138.7474610487418
 20
160.9171068622467
 30
0.0
  0
VERTEX
  5
15A3
  8
0
 10
139.46687114118711
 20
161.2133526487595
 30
0.0
  0
VERTEX
  5
15A4
  8
0
 10
139.83209561851521
 20
161.36280988373841
 30
0.0
  0
VERTEX
  5
15A5
  8
0
 10
140.19988358084791
 20
161.5126789801391
 30
0.0
  0
VERTEX
  5
15A6
  8
0
 10
140.93991343841529
 20
161.81229919936709
 30
0.0
  0
VERTEX
  5
15A7
  8
0
 10
141.68054836068711
 20
162.10958665748819
 30
0.0
  0
VERTEX
  5
15A8
  8
0
 10
142.4148354002798
 20
162.40178950428719
 30
0.0
  0
VERTEX
  5
15A9
  8
0
 10
143.13584598005539
 20
162.68626016270119
 30
0.0
  0
VERTEX
  5
15AA
  8
0
 10
143.83667757995079
 20
162.96045160208311
 30
0.0
  0
VERTEX
  5
15AB
  8
0
 10
144.1776269713009
 20
163.0930198497739
 30
0.0
  0
VERTEX
  5
15AC
  8
0
 10
144.51833311324521
 20
163.2249560010568
 30
0.0
  0
VERTEX
  5
15AD
  8
0
 10
145.20480829314121
 20
163.48916035192281
 30
0.0
  0
VERTEX
  5
15AE
  8
0
 10
145.890853093099
 20
163.75103013972679
 30
0.0
  0
VERTEX
  5
15AF
  8
0
 10
146.23112885219979
 20
163.8801142987644
 30
0.0
  0
SEQEND
  5
15B0
  8
0
  0
LINE
  5
8B5
  8
0
 10
136.50861859123469
 20
86.918374137927174
 30
0.0
 11
146.50861859123469
 21
86.918374137927174
 31
0.0
  0
LINE
  5
8B6
  8
0
 10
137.42861859123471
 20
85.998374137927186
 30
0.0
 11
145.58861859123471
 21
85.998374137927186
 31
0.0
  0
LINE
  5
8B8
  8
0
 10
133.50861859123469
 20
125.9983741379272
 30
0.0
 11
149.50861859123469
 21
125.9983741379272
 31
0.0
  0
LINE
  5
8B9
  8
3
 10
145.58861859123471
 20
85.998374137927186
 30
0.0
 11
145.58861859123471
 21
125.9983741379272
 31
0.0
  0
LINE
  5
8BA
  8
0
 10
146.50861859123469
 20
125.9983741379272
 30
0.0
 11
145.58861859123471
 21
125.9983741379272
 31
0.0
  0
LINE
  5
8BB
  8
3
 10
137.42861859123471
 20
85.998374137927186
 30
0.0
 11
137.42861859123471
 21
125.9983741379272
 31
0.0
  0
LINE
  5
8BC
  8
0
 10
136.50861859123469
 20
125.9983741379272
 30
0.0
 11
137.42861859123471
 21
125.9983741379272
 31
0.0
  0
LINE
  5
8C6
  8
1
 10
127.9986185912347
 20
21.713075697056212
 30
0.0
 11
224.5086199781046
 21
21.713075697056212
 31
0.0
  0
LINE
  5
8C7
  8
1
 10
141.49861859123459
 20
7.7130792684852381
 30
0.0
 11
141.49861859123459
 21
35.713072125627171
 31
0.0
  0
LINE
  5
8C8
  8
0
 10
221.50532371876861
 20
21.903424694801529
 30
0.0
 11
221.50532371876861
 21
21.522726699310901
 31
0.0
  0
LINE
  5
8CB
  8
0
 10
130.9986185912347
 20
24.959596912141649
 30
0.0
 11
130.9986185912347
 21
18.466554481970761
 31
0.0
  0
ARC
  5
8CE
  8
0
 10
164.44861859123461
 20
-33.816924302943562
 30
0.0
 40
49.09999999999971
 50
104.6885212281333
 51
111.77904945073099
  0
POLYLINE
  5
8CF
  8
0
 66
     1
 10
0.0
 20
0.0
 30
0.0
  0
VERTEX
  5
15B1
  8
0
 10
216.00861859123469
 20
16.213075697056212
 30
0.0
  0
VERTEX
  5
15B2
  8
0
 10
216.0898574134809
 20
16.213675706715449
 30
0.0
  0
VERTEX
  5
15B3
  8
0
 10
216.25226416136331
 20
16.21847499853801
 30
0.0
  0
VERTEX
  5
15B4
  8
0
 10
216.41445828128741
 20
16.228069393871341
 30
0.0
  0
VERTEX
  5
15B5
  8
0
 10
216.49543136207819
 20
16.23466230209014
 30
0.0
  0
SEQEND
  5
15B6
  8
0
  0
POLYLINE
  5
8D0
  8
0
 66
     1
 10
0.0
 20
0.0
 30
0.0
  0
VERTEX
  5
15B7
  8
0
 10
216.49543136207819
 20
16.23466230209014
 30
0.0
  0
VERTEX
  5
15B8
  8
0
 10
216.54150141752569
 20
16.238951484595901
 30
0.0
  0
VERTEX
  5
15B9
  8
0
 10
216.6333810900133
 20
16.248675288949212
 30
0.0
  0
VERTEX
  5
15BA
  8
0
 10
216.7248843320935
 20
16.259914834907359
 30
0.0
  0
VERTEX
  5
15BB
  8
0
 10
216.7704839014751
 20
16.266098439066941
 30
0.0
  0
VERTEX
  5
15BC
  8
0
 10
216.8159763367093
 20
16.272655357521572
 30
0.0
  0
VERTEX
  5
15BD
  8
0
 10
216.90662267675489
 20
16.2868810210066
 30
0.0
  0
VERTEX
  5
15BE
  8
0
 10
216.9967894534372
 20
16.302574948780329
 30
0.0
  0
VERTEX
  5
15BF
  8
0
 10
217.08644343364429
 20
16.31971926445463
 30
0.0
  0
VERTEX
  5
15C0
  8
0
 10
217.1755521760642
 20
16.338295142596621
 30
0.0
  0
VERTEX
  5
15C1
  8
0
 10
217.2640843562686
 20
16.358282917421519
 30
0.0
  0
VERTEX
  5
15C2
  8
0
 10
217.3081252990095
 20
16.36880003833048
 30
0.0
  0
VERTEX
  5
15C3
  8
0
 10
217.3520113598438
 20
16.37966254324477
 30
0.0
  0
VERTEX
  5
15C4
  8
0
 10
217.4393042156764
 20
16.402412965907128
 30
0.0
  0
VERTEX
  5
15C5
  8
0
 10
217.52593381781
 20
16.42651211537078
 30
0.0
  0
VERTEX
  5
15C6
  8
0
 10
217.61187137316921
 20
16.451936987877438
 30
0.0
  0
VERTEX
  5
15C7
  8
0
 10
217.69708853276049
 20
16.478663671187022
 30
0.0
  0
VERTEX
  5
15C8
  8
0
 10
217.78155751113229
 20
16.506667377848778
 30
0.0
  0
VERTEX
  5
15C9
  8
0
 10
217.82350293029489
 20
16.5211401393057
 30
0.0
  0
VERTEX
  5
15CA
  8
0
 10
217.8652511943144
 20
16.53592248537883
 30
0.0
  0
VERTEX
  5
15CB
  8
0
 10
217.9481432365948
 20
16.56640258231101
 30
0.0
  0
VERTEX
  5
15CC
  8
0
 10
218.03020814660289
 20
16.59808051918689
 30
0.0
  0
VERTEX
  5
15CD
  8
0
 10
218.07092271344749
 20
16.614360005089821
 30
0.0
  0
VERTEX
  5
15CE
  8
0
 10
218.1114213632508
 20
16.63092846365161
 30
0.0
  0
VERTEX
  5
15CF
  8
0
 10
218.1917593221398
 20
16.664917958924111
 30
0.0
  0
VERTEX
  5
15D0
  8
0
 10
218.2711995130837
 20
16.700019985009391
 30
0.0
  0
VERTEX
  5
15D1
  8
0
 10
218.31057621169469
 20
16.717978989923662
 30
0.0
  0
VERTEX
  5
15D2
  8
0
 10
218.3497206634286
 20
16.736205085158641
 30
0.0
  0
VERTEX
  5
15D3
  8
0
 10
218.4273135999166
 20
16.773448742014221
 30
0.0
  0
VERTEX
  5
15D4
  8
0
 10
218.5039656863662
 20
16.811724569579351
 30
0.0
  0
VERTEX
  5
15D5
  8
0
 10
218.5796575965179
 20
16.851002226476751
 30
0.0
  0
VERTEX
  5
15D6
  8
0
 10
218.65437054933639
 20
16.891250671591159
 30
0.0
  0
VERTEX
  5
15D7
  8
0
 10
218.72808639200341
 20
16.932438199757129
 30
0.0
  0
VERTEX
  5
15D8
  8
0
 10
218.76456491430201
 20
16.95337403998019
 30
0.0
  0
VERTEX
  5
15D9
  8
0
 10
218.80078767331611
 20
16.974532480299711
 30
0.0
  0
VERTEX
  5
15DA
  8
0
 10
218.8724577081268
 20
17.017500597820909
 30
0.0
  0
VERTEX
  5
15DB
  8
0
 10
218.943080633477
 20
17.061309094716901
 30
0.0
  0
VERTEX
  5
15DC
  8
0
 10
219.0126414570797
 20
17.105924014999179
 30
0.0
  0
VERTEX
  5
15DD
  8
0
 10
219.08112609880311
 20
17.151310949073672
 30
0.0
  0
VERTEX
  5
15DE
  8
0
 10
219.1485214257865
 20
17.197435079206571
 30
0.0
  0
VERTEX
  5
15DF
  8
0
 10
219.18180675858471
 20
17.220762611952939
 30
0.0
  0
VERTEX
  5
15E0
  8
0
 10
219.21481528179839
 20
17.244261225474499
 30
0.0
  0
VERTEX
  5
15E1
  8
0
 10
219.27999651141721
 20
17.291753892059191
 30
0.0
  0
VERTEX
  5
15E2
  8
0
 10
219.3440549668081
 20
17.339877304060259
 30
0.0
  0
VERTEX
  5
15E3
  8
0
 10
219.4069813324615
 20
17.388595302946179
 30
0.0
  0
VERTEX
  5
15E4
  8
0
 10
219.46876692883001
 20
17.437871201147679
 30
0.0
  0
VERTEX
  5
15E5
  8
0
 10
219.5294037416474
 20
17.487667796671531
 30
0.0
  0
VERTEX
  5
15E6
  8
0
 10
219.55928904404601
 20
17.512749598342818
 30
0.0
  0
VERTEX
  5
15E7
  8
0
 10
219.5888844715721
 20
17.537947408477319
 30
0.0
  0
VERTEX
  5
15E8
  8
0
 10
219.6472025766507
 20
17.588671912134711
 30
0.0
  0
VERTEX
  5
15E9
  8
0
 10
219.7043523081976
 20
17.639802775522
 30
0.0
  0
VERTEX
  5
15EA
  8
0
 10
219.89511201197391
 20
17.82139625360881
 30
0.0
  0
VERTEX
  5
15EB
  8
0
 10
220.19035009988559
 20
18.14052456522391
 30
0.0
  0
VERTEX
  5
15EC
  8
0
 10
220.3265840565843
 20
18.306438903964221
 30
0.0
  0
VERTEX
  5
15ED
  8
0
 10
220.4554520650785
 20
18.47646140803419
 30
0.0
  0
VERTEX
  5
15EE
  8
0
 10
220.6900857539199
 20
18.826232229754879
 30
0.0
  0
VERTEX
  5
15EF
  8
0
 10
220.89294538066591
 20
19.184567873448682
 30
0.0
  0
VERTEX
  5
15F0
  8
0
 10
221.0637668752253
 20
19.546171032132751
 30
0.0
  0
VERTEX
  5
15F1
  8
0
 10
221.2032001035364
 20
19.905778568177311
 30
0.0
  0
VERTEX
  5
15F2
  8
0
 10
221.31270835794891
 20
20.25821084194477
 30
0.0
  0
VERTEX
  5
15F3
  8
0
 10
221.35727477917001
 20
20.431718220290989
 30
0.0
  0
VERTEX
  5
15F4
  8
0
 10
221.39562874268651
 20
20.603967213563578
 30
0.0
  0
VERTEX
  5
15F5
  8
0
 10
221.43297566184421
 20
20.804037540250501
 30
0.0
  0
VERTEX
  5
15F6
  8
0
 10
221.44222084486299
 20
20.86103899047248
 30
0.0
  0
VERTEX
  5
15F7
  8
0
 10
221.4508770615752
 20
20.918202913519181
 30
0.0
  0
VERTEX
  5
15F8
  8
0
 10
221.45499182839521
 20
20.94690433140639
 30
0.0
  0
VERTEX
  5
15F9
  8
0
 10
221.45896772529571
 20
20.975719394553138
 30
0.0
  0
VERTEX
  5
15FA
  8
0
 10
221.46651110445191
 20
21.033804533110359
 30
0.0
  0
VERTEX
  5
15FB
  8
0
 10
221.47352005067211
 20
21.092711256876591
 30
0.0
  0
VERTEX
  5
15FC
  8
0
 10
221.48000038366561
 20
21.152735370597579
 30
0.0
  0
VERTEX
  5
15FD
  8
0
 10
221.4859339335207
 20
21.214060024798972
 30
0.0
  0
VERTEX
  5
15FE
  8
0
 10
221.4913117544655
 20
21.277099002882998
 30
0.0
  0
VERTEX
  5
15FF
  8
0
 10
221.4937903092943
 20
21.309477848450811
 30
0.0
  0
VERTEX
  5
1600
  8
0
 10
221.49612448445649
 20
21.342563791907811
 30
0.0
  0
VERTEX
  5
1601
  8
0
 10
221.49865737536641
 20
21.382206918338369
 30
0.0
  0
VERTEX
  5
1602
  8
0
 10
221.49934169999671
 20
21.393764339746511
 30
0.0
  0
VERTEX
  5
1603
  8
0
 10
221.5000077762009
 20
21.40543171574561
 30
0.0
  0
VERTEX
  5
1604
  8
0
 10
221.5003337810567
 20
21.411307120364899
 30
0.0
  0
VERTEX
  5
1605
  8
0
 10
221.50065502531629
 20
21.417211189687091
 30
0.0
  0
VERTEX
  5
1606
  8
0
 10
221.50128301567
 20
21.42910823317462
 30
0.0
  0
VERTEX
  5
1607
  8
0
 10
221.50189128636859
 20
21.441128832951652
 30
0.0
  0
VERTEX
  5
1608
  8
0
 10
221.50247932825451
 20
21.45327923396891
 30
0.0
  0
VERTEX
  5
1609
  8
0
 10
221.50304657901279
 20
21.465565925286541
 30
0.0
  0
VERTEX
  5
160A
  8
0
 10
221.503592417997
 20
21.47799561879097
 30
0.0
  0
VERTEX
  5
160B
  8
0
 10
221.50385709685619
 20
21.484266242848989
 30
0.0
  0
VERTEX
  5
160C
  8
0
 10
221.5041161608759
 20
21.49057522049937
 30
0.0
  0
VERTEX
  5
160D
  8
0
 10
221.5046170542191
 20
21.503311794361451
 30
0.0
  0
VERTEX
  5
160E
  8
0
 10
221.50509427015709
 20
21.516212518643972
 30
0.0
  0
VERTEX
  5
160F
  8
0
 10
221.50532371876861
 20
21.522726699310901
 30
0.0
  0
SEQEND
  5
1610
  8
0
  0
POLYLINE
  5
8D1
  8
0
 66
     1
 10
0.0
 20
0.0
 30
0.0
  0
VERTEX
  5
1611
  8
0
 10
221.50532371876861
 20
21.522726699310901
 30
0.0
  0
VERTEX
  5
1612
  8
0
 10
221.50567961464739
 20
21.533297764935501
 30
0.0
  0
VERTEX
  5
1613
  8
0
 10
221.5063304155405
 20
21.554441851714468
 30
0.0
  0
VERTEX
  5
1614
  8
0
 10
221.5068998873837
 20
21.57558828520429
 30
0.0
  0
VERTEX
  5
1615
  8
0
 10
221.50715412223201
 20
21.586162284209308
 30
0.0
  0
VERTEX
  5
1616
  8
0
 10
221.5073880217526
 20
21.59673675258037
 30
0.0
  0
VERTEX
  5
1617
  8
0
 10
221.50779481142609
 20
21.617886940988061
 30
0.0
  0
VERTEX
  5
1618
  8
0
 10
221.50812025038641
 20
21.63903853754724
 30
0.0
  0
VERTEX
  5
1619
  8
0
 10
221.5083643338192
 20
21.660191229356951
 30
0.0
  0
VERTEX
  5
161A
  8
0
 10
221.5085270581138
 20
21.681344703500059
 30
0.0
  0
VERTEX
  5
161B
  8
0
 10
221.50860842086291
 20
21.702498647047829
 30
0.0
  0
VERTEX
  5
161C
  8
0
 10
221.50861859123469
 20
21.713075697056212
 30
0.0
  0
VERTEX
  5
161D
  8
0
 10
221.50860842086291
 20
21.723652747064591
 30
0.0
  0
VERTEX
  5
161E
  8
0
 10
221.5085270581138
 20
21.744806690612371
 30
0.0
  0
VERTEX
  5
161F
  8
0
 10
221.5083643338192
 20
21.76596016475548
 30
0.0
  0
VERTEX
  5
1620
  8
0
 10
221.50812025038641
 20
21.787112856565201
 30
0.0
  0
VERTEX
  5
1621
  8
0
 10
221.50779481142609
 20
21.808264453124369
 30
0.0
  0
VERTEX
  5
1622
  8
0
 10
221.5073880217526
 20
21.829414641532068
 30
0.0
  0
VERTEX
  5
1623
  8
0
 10
221.50715412223201
 20
21.839989109903112
 30
0.0
  0
VERTEX
  5
1624
  8
0
 10
221.5068998873837
 20
21.850563108908151
 30
0.0
  0
VERTEX
  5
1625
  8
0
 10
221.5063304155405
 20
21.871709542397952
 30
0.0
  0
VERTEX
  5
1626
  8
0
 10
221.50567961464739
 20
21.89285362917693
 30
0.0
  0
VERTEX
  5
1627
  8
0
 10
221.50532371876861
 20
21.903424694801529
 30
0.0
  0
SEQEND
  5
1628
  8
0
  0
POLYLINE
  5
8D2
  8
0
 66
     1
 10
0.0
 20
0.0
 30
0.0
  0
VERTEX
  5
1629
  8
0
 10
221.50532371876861
 20
21.903424694801529
 30
0.0
  0
VERTEX
  5
162A
  8
0
 10
221.50509427015709
 20
21.909938875468448
 30
0.0
  0
VERTEX
  5
162B
  8
0
 10
221.5046170542191
 20
21.922839599750969
 30
0.0
  0
VERTEX
  5
162C
  8
0
 10
221.5041161608759
 20
21.93557617361304
 30
0.0
  0
VERTEX
  5
162D
  8
0
 10
221.50385709685619
 20
21.941885151263421
 30
0.0
  0
VERTEX
  5
162E
  8
0
 10
221.503592417997
 20
21.94815577532145
 30
0.0
  0
VERTEX
  5
162F
  8
0
 10
221.50304657901279
 20
21.960585468825901
 30
0.0
  0
VERTEX
  5
1630
  8
0
 10
221.50247932825451
 20
21.97287216014351
 30
0.0
  0
VERTEX
  5
1631
  8
0
 10
221.50189128636859
 20
21.985022561160822
 30
0.0
  0
VERTEX
  5
1632
  8
0
 10
221.50128301567
 20
21.99704316093781
 30
0.0
  0
VERTEX
  5
1633
  8
0
 10
221.50065502531629
 20
22.008940204425389
 30
0.0
  0
VERTEX
  5
1634
  8
0
 10
221.5003337810567
 20
22.014844273747538
 30
0.0
  0
VERTEX
  5
1635
  8
0
 10
221.5000077762009
 20
22.020719678366831
 30
0.0
  0
VERTEX
  5
1636
  8
0
 10
221.49934169999671
 20
22.032387054365969
 30
0.0
  0
VERTEX
  5
1637
  8
0
 10
221.49865737536641
 20
22.043944475774051
 30
0.0
  0
VERTEX
  5
1638
  8
0
 10
221.49612448445649
 20
22.083587602204599
 30
0.0
  0
VERTEX
  5
1639
  8
0
 10
221.4937903092943
 20
22.116673545661609
 30
0.0
  0
VERTEX
  5
163A
  8
0
 10
221.4913117544655
 20
22.149052391229478
 30
0.0
  0
VERTEX
  5
163B
  8
0
 10
221.4859339335207
 20
22.212091369313399
 30
0.0
  0
VERTEX
  5
163C
  8
0
 10
221.48000038366561
 20
22.273416023514841
 30
0.0
  0
VERTEX
  5
163D
  8
0
 10
221.47352005067211
 20
22.333440137235861
 30
0.0
  0
VERTEX
  5
163E
  8
0
 10
221.46651110445191
 20
22.39234686100211
 30
0.0
  0
VERTEX
  5
163F
  8
0
 10
221.45896772529571
 20
22.450431999559282
 30
0.0
  0
VERTEX
  5
1640
  8
0
 10
221.45499182839521
 20
22.479247062706069
 30
0.0
  0
VERTEX
  5
1641
  8
0
 10
221.4508770615752
 20
22.507948480593239
 30
0.0
  0
VERTEX
  5
1642
  8
0
 10
221.44222084486299
 20
22.565112403639912
 30
0.0
  0
VERTEX
  5
1643
  8
0
 10
221.43297566184421
 20
22.622113853861919
 30
0.0
  0
VERTEX
  5
1644
  8
0
 10
221.39562874268651
 20
22.822184180548831
 30
0.0
  0
VERTEX
  5
1645
  8
0
 10
221.35727477917001
 20
22.99443317382142
 30
0.0
  0
VERTEX
  5
1646
  8
0
 10
221.31270835794891
 20
23.167940552167639
 30
0.0
  0
VERTEX
  5
1647
  8
0
 10
221.2032001035364
 20
23.520372825935102
 30
0.0
  0
VERTEX
  5
1648
  8
0
 10
221.0637668752253
 20
23.879980361979658
 30
0.0
  0
VERTEX
  5
1649
  8
0
 10
220.89294538066591
 20
24.241583520663749
 30
0.0
  0
VERTEX
  5
164A
  8
0
 10
220.6900857539199
 20
24.599919164357559
 30
0.0
  0
VERTEX
  5
164B
  8
0
 10
220.4554520650785
 20
24.94968998607823
 30
0.0
  0
VERTEX
  5
164C
  8
0
 10
220.3265840565843
 20
25.11971249014822
 30
0.0
  0
VERTEX
  5
164D
  8
0
 10
220.19035009988559
 20
25.28562682888851
 30
0.0
  0
VERTEX
  5
164E
  8
0
 10
219.89511201197391
 20
25.604755140503631
 30
0.0
  0
VERTEX
  5
164F
  8
0
 10
219.7043523081976
 20
25.786348618590441
 30
0.0
  0
VERTEX
  5
1650
  8
0
 10
219.6472025766507
 20
25.837479481977709
 30
0.0
  0
VERTEX
  5
1651
  8
0
 10
219.5888844715721
 20
25.888203985635119
 30
0.0
  0
VERTEX
  5
1652
  8
0
 10
219.55928904404601
 20
25.913401795769619
 30
0.0
  0
VERTEX
  5
1653
  8
0
 10
219.5294037416474
 20
25.938483597440911
 30
0.0
  0
VERTEX
  5
1654
  8
0
 10
219.46876692883001
 20
25.988280192964741
 30
0.0
  0
VERTEX
  5
1655
  8
0
 10
219.4069813324615
 20
26.037556091166248
 30
0.0
  0
VERTEX
  5
1656
  8
0
 10
219.3440549668081
 20
26.086274090052161
 30
0.0
  0
VERTEX
  5
1657
  8
0
 10
219.27999651141721
 20
26.13439750205325
 30
0.0
  0
VERTEX
  5
1658
  8
0
 10
219.21481528179839
 20
26.181890168637938
 30
0.0
  0
VERTEX
  5
1659
  8
0
 10
219.18180675858471
 20
26.205388782159488
 30
0.0
  0
VERTEX
  5
165A
  8
0
 10
219.1485214257865
 20
26.228716314905849
 30
0.0
  0
VERTEX
  5
165B
  8
0
 10
219.08112609880311
 20
26.274840445038759
 30
0.0
  0
VERTEX
  5
165C
  8
0
 10
219.0126414570797
 20
26.320227379113248
 30
0.0
  0
VERTEX
  5
165D
  8
0
 10
218.943080633477
 20
26.364842299395519
 30
0.0
  0
VERTEX
  5
165E
  8
0
 10
218.8724577081268
 20
26.408650796291511
 30
0.0
  0
VERTEX
  5
165F
  8
0
 10
218.80078767331599
 20
26.45161891381273
 30
0.0
  0
VERTEX
  5
1660
  8
0
 10
218.76456491430201
 20
26.47277735413223
 30
0.0
  0
VERTEX
  5
1661
  8
0
 10
218.72808639200341
 20
26.493713194355308
 30
0.0
  0
VERTEX
  5
1662
  8
0
 10
218.65437054933639
 20
26.534900722521272
 30
0.0
  0
VERTEX
  5
1663
  8
0
 10
218.5796575965179
 20
26.575149167635669
 30
0.0
  0
VERTEX
  5
1664
  8
0
 10
218.5039656863662
 20
26.614426824533069
 30
0.0
  0
VERTEX
  5
1665
  8
0
 10
218.4273135999166
 20
26.65270265209822
 30
0.0
  0
VERTEX
  5
1666
  8
0
 10
218.3497206634286
 20
26.689946308953768
 30
0.0
  0
VERTEX
  5
1667
  8
0
 10
218.31057621169461
 20
26.708172404188769
 30
0.0
  0
VERTEX
  5
1668
  8
0
 10
218.2711995130837
 20
26.726131409103051
 30
0.0
  0
VERTEX
  5
1669
  8
0
 10
218.1917593221398
 20
26.76123343518832
 30
0.0
  0
VERTEX
  5
166A
  8
0
 10
218.1114213632508
 20
26.79522293046082
 30
0.0
  0
VERTEX
  5
166B
  8
0
 10
218.07092271344749
 20
26.81179138902262
 30
0.0
  0
VERTEX
  5
166C
  8
0
 10
218.03020814660289
 20
26.82807087492554
 30
0.0
  0
VERTEX
  5
166D
  8
0
 10
217.94814323659469
 20
26.85974881180141
 30
0.0
  0
VERTEX
  5
166E
  8
0
 10
217.86525119431451
 20
26.89022890873359
 30
0.0
  0
VERTEX
  5
166F
  8
0
 10
217.82350293029489
 20
26.905011254806741
 30
0.0
  0
VERTEX
  5
1670
  8
0
 10
217.78155751113229
 20
26.919484016263642
 30
0.0
  0
VERTEX
  5
1671
  8
0
 10
217.69708853276049
 20
26.947487722925398
 30
0.0
  0
VERTEX
  5
1672
  8
0
 10
217.61187137316921
 20
26.974214406234989
 30
0.0
  0
VERTEX
  5
1673
  8
0
 10
217.52593381781
 20
26.99963927874164
 30
0.0
  0
VERTEX
  5
1674
  8
0
 10
217.4393042156764
 20
27.023738428205291
 30
0.0
  0
VERTEX
  5
1675
  8
0
 10
217.3520113598438
 20
27.046488850867661
 30
0.0
  0
VERTEX
  5
1676
  8
0
 10
217.3081252990095
 20
27.05735135578195
 30
0.0
  0
VERTEX
  5
1677
  8
0
 10
217.2640843562686
 20
27.067868476690911
 30
0.0
  0
VERTEX
  5
1678
  8
0
 10
217.1755521760642
 20
27.087856251515799
 30
0.0
  0
VERTEX
  5
1679
  8
0
 10
217.08644343364429
 20
27.10643212965779
 30
0.0
  0
VERTEX
  5
167A
  8
0
 10
216.9967894534372
 20
27.123576445332091
 30
0.0
  0
VERTEX
  5
167B
  8
0
 10
216.90662267675489
 20
27.13927037310583
 30
0.0
  0
VERTEX
  5
167C
  8
0
 10
216.8159763367093
 20
27.153496036590852
 30
0.0
  0
VERTEX
  5
167D
  8
0
 10
216.7704839014751
 20
27.16005295504549
 30
0.0
  0
VERTEX
  5
167E
  8
0
 10
216.72488433209361
 20
27.166236559205061
 30
0.0
  0
VERTEX
  5
167F
  8
0
 10
216.6333810900133
 20
27.177476105163208
 30
0.0
  0
VERTEX
  5
1680
  8
0
 10
216.54150141752569
 20
27.187199909516519
 30
0.0
  0
VERTEX
  5
1681
  8
0
 10
216.49543136207819
 20
27.19148909202228
 30
0.0
  0
SEQEND
  5
1682
  8
0
  0
POLYLINE
  5
8D3
  8
0
 66
     1
 10
0.0
 20
0.0
 30
0.0
  0
VERTEX
  5
1683
  8
0
 10
216.49543136207819
 20
27.19148909202228
 30
0.0
  0
VERTEX
  5
1684
  8
0
 10
216.41445828128749
 20
27.198082000241111
 30
0.0
  0
VERTEX
  5
1685
  8
0
 10
216.2522641613634
 20
27.207676395574421
 30
0.0
  0
VERTEX
  5
1686
  8
0
 10
216.0898574134809
 20
27.212475687396971
 30
0.0
  0
VERTEX
  5
1687
  8
0
 10
216.00861859123469
 20
27.213075697056212
 30
0.0
  0
SEQEND
  5
1688
  8
0
  0
ARC
  5
8D4
  8
0
 10
141.50861859123469
 20
21.713075697056212
 30
0.0
 40
10.99999999999998
 50
64.575642792381444
 51
162.83416983514459
  0
ARC
  5
8D5
  8
0
 10
141.50861859123469
 20
21.713075697056212
 30
0.0
 40
11.0
 50
197.16583016485541
 51
295.42435720761841
  0
ARC
  5
8D6
  8
0
 10
164.4486185912348
 20
77.24307569705627
 30
0.0
 40
49.10000000000008
 50
248.22095054926891
 51
255.31147877186669
  0
ARC
  5
8D7
  8
0
 10
141.49861859123459
 20
21.713075697056212
 30
0.0
 40
10.5
 50
192.52695568936551
 51
167.47304431063429
  0
POLYLINE
  5
8D9
  8
0
 66
     1
 10
0.0
 20
0.0
 30
0.0
  0
VERTEX
  5
1689
  8
0
 10
171.6880471973432
 20
28.679708088774941
 30
0.0
  0
VERTEX
  5
168A
  8
0
 10
171.13476872838481
 20
28.600446282688679
 30
0.0
  0
VERTEX
  5
168B
  8
0
 10
170.02291287581309
 20
28.460525095135829
 30
0.0
  0
VERTEX
  5
168C
  8
0
 10
168.90531560194611
 20
28.345756222930429
 30
0.0
  0
VERTEX
  5
168D
  8
0
 10
168.34486894203681
 20
28.297910121650521
 30
0.0
  0
VERTEX
  5
168E
  8
0
 10
167.7835926116241
 20
28.256465809421289
 30
0.0
  0
VERTEX
  5
168F
  8
0
 10
166.65935292221059
 20
28.192870256937528
 30
0.0
  0
VERTEX
  5
1690
  8
0
 10
165.5341929814322
 20
28.155077894707919
 30
0.0
  0
VERTEX
  5
1691
  8
0
 10
164.40970225827741
 20
28.14309111947173
 30
0.0
  0
VERTEX
  5
1692
  8
0
 10
163.28743275555291
 20
28.156808295113589
 30
0.0
  0
VERTEX
  5
1693
  8
0
 10
162.16871040613751
 20
28.196036860164838
 30
0.0
  0
VERTEX
  5
1694
  8
0
 10
161.6111380421824
 20
28.2251330216057
 30
0.0
  0
VERTEX
  5
1695
  8
0
 10
161.055012113505
 20
28.260492720305042
 30
0.0
  0
VERTEX
  5
1696
  8
0
 10
159.94785249192489
 20
28.349792881118141
 30
0.0
  0
VERTEX
  5
1697
  8
0
 10
158.84872026370019
 20
28.463457630477631
 30
0.0
  0
VERTEX
  5
1698
  8
0
 10
157.759082450509
 20
28.600911824322029
 30
0.0
  0
VERTEX
  5
1699
  8
0
 10
156.68038375052399
 20
28.761486124729171
 30
0.0
  0
VERTEX
  5
169A
  8
0
 10
155.6140247220923
 20
28.944421977026771
 30
0.0
  0
VERTEX
  5
169B
  8
0
 10
155.0859018061075
 20
29.044014146010451
 30
0.0
  0
VERTEX
  5
169C
  8
0
 10
154.561378726622
 20
29.148871390719929
 30
0.0
  0
VERTEX
  5
169D
  8
0
 10
153.52380776589061
 20
29.373894500482091
 30
0.0
  0
VERTEX
  5
169E
  8
0
 10
152.50264215621891
 20
29.618463918963489
 30
0.0
  0
VERTEX
  5
169F
  8
0
 10
151.99861859123459
 20
29.74773382019421
 30
0.0
  0
SEQEND
  5
16A0
  8
0
  0
POLYLINE
  5
8DA
  8
0
 66
     1
 10
0.0
 20
0.0
 30
0.0
  0
VERTEX
  5
16A1
  8
0
 10
173.15655115243629
 20
28.761922648826449
 30
0.0
  0
VERTEX
  5
16A2
  8
0
 10
172.91386075184221
 20
28.767009274696839
 30
0.0
  0
VERTEX
  5
16A3
  8
0
 10
172.428370212354
 20
28.75507701317909
 30
0.0
  0
VERTEX
  5
16A4
  8
0
 10
171.9358239012229
 20
28.712696360986129
 30
0.0
  0
VERTEX
  5
16A5
  8
0
 10
171.6880471973432
 20
28.679708088774991
 30
0.0
  0
SEQEND
  5
16A6
  8
0
  0
LINE
  5
8DB
  8
0
 10
216.00861859123469
 20
27.213075697056212
 30
0.0
 11
173.15655115243629
 21
28.76192264882647
 31
0.0
  0
LINE
  5
8DD
  8
0
 10
173.15655115243629
 20
14.66422874528595
 30
0.0
 11
216.00861859123469
 21
16.213075697056212
 31
0.0
  0
POLYLINE
  5
8DE
  8
0
 66
     1
 10
0.0
 20
0.0
 30
0.0
  0
VERTEX
  5
16A7
  8
0
 10
171.6880471973432
 20
14.746443305337451
 30
0.0
  0
VERTEX
  5
16A8
  8
0
 10
171.93582390122279
 20
14.71345503312631
 30
0.0
  0
VERTEX
  5
16A9
  8
0
 10
172.428370212354
 20
14.67107438093333
 30
0.0
  0
VERTEX
  5
16AA
  8
0
 10
172.91386075184221
 20
14.659142119415581
 30
0.0
  0
VERTEX
  5
16AB
  8
0
 10
173.15655115243629
 20
14.66422874528595
 30
0.0
  0
SEQEND
  5
16AC
  8
0
  0
POLYLINE
  5
8DF
  8
0
 66
     1
 10
0.0
 20
0.0
 30
0.0
  0
VERTEX
  5
16AD
  8
0
 10
151.99861859123459
 20
13.678417573918139
 30
0.0
  0
VERTEX
  5
16AE
  8
0
 10
152.50264215621891
 20
13.80768747514886
 30
0.0
  0
VERTEX
  5
16AF
  8
0
 10
153.52380776589061
 20
14.05225689363027
 30
0.0
  0
VERTEX
  5
16B0
  8
0
 10
154.56137872662191
 20
14.27728000339242
 30
0.0
  0
VERTEX
  5
16B1
  8
0
 10
155.0859018061075
 20
14.382137248101911
 30
0.0
  0
VERTEX
  5
16B2
  8
0
 10
155.6140247220923
 20
14.481729417085591
 30
0.0
  0
VERTEX
  5
16B3
  8
0
 10
156.68038375052399
 20
14.664665269383191
 30
0.0
  0
VERTEX
  5
16B4
  8
0
 10
157.759082450509
 20
14.825239569790339
 30
0.0
  0
VERTEX
  5
16B5
  8
0
 10
158.84872026370019
 20
14.962693763634711
 30
0.0
  0
VERTEX
  5
16B6
  8
0
 10
159.94785249192489
 20
15.076358512994229
 30
0.0
  0
VERTEX
  5
16B7
  8
0
 10
161.055012113505
 20
15.16565867380733
 30
0.0
  0
VERTEX
  5
16B8
  8
0
 10
161.6111380421824
 20
15.20101837250666
 30
0.0
  0
VERTEX
  5
16B9
  8
0
 10
162.16871040613751
 20
15.23011453394753
 30
0.0
  0
VERTEX
  5
16BA
  8
0
 10
163.28743275555291
 20
15.269343098998769
 30
0.0
  0
VERTEX
  5
16BB
  8
0
 10
164.40970225827741
 20
15.28306027464062
 30
0.0
  0
VERTEX
  5
16BC
  8
0
 10
165.5341929814322
 20
15.27107349940445
 30
0.0
  0
VERTEX
  5
16BD
  8
0
 10
166.6593529222105
 20
15.23328113717484
 30
0.0
  0
VERTEX
  5
16BE
  8
0
 10
167.7835926116241
 20
15.169685584691081
 30
0.0
  0
VERTEX
  5
16BF
  8
0
 10
168.3448689420367
 20
15.12824127246185
 30
0.0
  0
VERTEX
  5
16C0
  8
0
 10
168.90531560194611
 20
15.08039517118195
 30
0.0
  0
VERTEX
  5
16C1
  8
0
 10
170.02291287581309
 20
14.96562629897652
 30
0.0
  0
VERTEX
  5
16C2
  8
0
 10
171.13476872838481
 20
14.825705111423691
 30
0.0
  0
VERTEX
  5
16C3
  8
0
 10
171.6880471973432
 20
14.746443305337429
 30
0.0
  0
SEQEND
  5
16C4
  8
0
  0
POLYLINE
  5
8E1
  8
0
 66
     1
 10
0.0
 20
0.0
 30
0.0
  0
VERTEX
  5
16C5
  8
0
 10
131.2485808383841
 20
19.435637209382321
 30
0.0
  0
VERTEX
  5
16C6
  8
0
 10
131.2216747801948
 20
19.560304017400039
 30
0.0
  0
VERTEX
  5
16C7
  8
0
 10
131.17241504068781
 20
19.810572022244049
 30
0.0
  0
VERTEX
  5
16C8
  8
0
 10
131.1292489878868
 20
20.061962730247519
 30
0.0
  0
VERTEX
  5
16C9
  8
0
 10
131.10995919523859
 20
20.188032761929119
 30
0.0
  0
VERTEX
  5
16CA
  8
0
 10
131.09220209489021
 20
20.314327791030919
 30
0.0
  0
VERTEX
  5
16CB
  8
0
 10
131.06129622376579
 20
20.56751827923091
 30
0.0
  0
VERTEX
  5
16CC
  8
0
 10
131.03654961264871
 20
20.821384782383891
 30
0.0
  0
VERTEX
  5
16CD
  8
0
 10
131.017976864979
 20
21.07577748909716
 30
0.0
  0
VERTEX
  5
16CE
  8
0
 10
131.005588940884
 20
21.330546277455401
 30
0.0
  0
VERTEX
  5
16CF
  8
0
 10
130.9993931507104
 20
21.585540803610439
 30
0.0
  0
VERTEX
  5
16D0
  8
0
 10
130.9986185912347
 20
21.713075697056212
 30
0.0
  0
VERTEX
  5
16D1
  8
0
 10
130.9993931507104
 20
21.840610590501999
 30
0.0
  0
VERTEX
  5
16D2
  8
0
 10
131.005588940884
 20
22.09560511665703
 30
0.0
  0
VERTEX
  5
16D3
  8
0
 10
131.017976864979
 20
22.35037390501526
 30
0.0
  0
VERTEX
  5
16D4
  8
0
 10
131.03654961264871
 20
22.604766611728522
 30
0.0
  0
VERTEX
  5
16D5
  8
0
 10
131.06129622376579
 20
22.85863311488151
 30
0.0
  0
VERTEX
  5
16D6
  8
0
 10
131.09220209489021
 20
23.111823603081501
 30
0.0
  0
VERTEX
  5
16D7
  8
0
 10
131.10995919523859
 20
23.238118632183308
 30
0.0
  0
VERTEX
  5
16D8
  8
0
 10
131.1292489878868
 20
23.364188663864908
 30
0.0
  0
VERTEX
  5
16D9
  8
0
 10
131.17241504068781
 20
23.61557937186836
 30
0.0
  0
VERTEX
  5
16DA
  8
0
 10
131.2216747801948
 20
23.865847376712381
 30
0.0
  0
VERTEX
  5
16DB
  8
0
 10
131.2485808383841
 20
23.990514184730088
 30
0.0
  0
SEQEND
  5
16DC
  8
0
  0
CIRCLE
  5
8E3
  8
0
 10
141.50861859123469
 20
21.713075697056212
 30
0.0
 40
5.0
  0
CIRCLE
  5
8E4
  8
0
 10
141.50861859123469
 20
21.713075697056212
 30
0.0
 40
8.0
  0
LINE
  5
916
  8
1
 10
275.42564921795707
 20
183.30322248146879
 30
0.0
 11
275.42564921795707
 21
82.998374137927215
 31
0.0
  0
LINE
  5
917
  8
0
 10
279.68906126937009
 20
180.30322248146879
 30
0.0
 11
271.16223716654412
 21
180.30322248146879
 31
0.0
  0
LINE
  5
918
  8
0
 10
282.47971662258323
 20
159.75155814466839
 30
0.0
 11
282.47971662258323
 21
172.395795809763
 31
0.0
  0
LINE
  5
919
  8
0
 10
264.42564921795707
 20
162.04080418300481
 30
0.0
 11
264.92564921795707
 21
135.99837413792719
 31
0.0
  0
LINE
  5
91A
  8
0
 10
285.92564921795719
 20
135.99837413792719
 30
0.0
 11
286.42564921795707
 21
162.04080418300481
 31
0.0
  0
LINE
  5
91B
  8
0
 10
268.37158181333098
 20
172.39579580976289
 30
0.0
 11
268.37158181333098
 21
159.75155814466831
 31
0.0
  0
LINE
  5
91E
  8
0
 10
280.42564921795707
 20
86.918374137927174
 30
0.0
 11
280.42564921795707
 21
125.9983741379272
 31
0.0
  0
LINE
  5
91F
  8
0
 10
270.42564921795707
 20
125.9983741379272
 30
0.0
 11
270.42564921795707
 21
86.918374137927174
 31
0.0
  0
LINE
  5
920
  8
0
 10
279.50564921795728
 20
85.998374137927186
 30
0.0
 11
280.42564921795707
 21
86.918374137927174
 31
0.0
  0
LINE
  5
921
  8
0
 10
270.42564921795707
 20
86.918374137927174
 30
0.0
 11
271.34564921795709
 21
85.998374137927186
 31
0.0
  0
LINE
  5
922
  8
0
 10
283.42564921795707
 20
125.9983741379272
 30
0.0
 11
283.42564921795707
 21
135.99837413792719
 31
0.0
  0
LINE
  5
923
  8
0
 10
267.42564921795707
 20
135.99837413792719
 30
0.0
 11
267.42564921795707
 21
125.9983741379272
 31
0.0
  0
LINE
  5
924
  8
0
 10
275.23530022021191
 20
176.53796630420021
 30
0.0
 11
275.61599821570252
 21
176.53796630420021
 31
0.0
  0
LINE
  5
925
  8
0
 10
269.9472358229911
 20
170.40616432067819
 30
0.0
 11
280.90406261292321
 21
170.40616432067819
 31
0.0
  0
LINE
  5
926
  8
0
 10
269.75436930739312
 20
168.64754647301899
 30
0.0
 11
281.0969291285212
 21
168.64754647301899
 31
0.0
  0
POLYLINE
  5
927
  8
0
 66
     1
 10
0.0
 20
0.0
 30
0.0
  0
VERTEX
  5
16DD
  8
0
 10
271.02470672858442
 20
180.29617719746011
 30
0.0
  0
VERTEX
  5
16DE
  8
0
 10
271.04719840633533
 20
180.29836397301131
 30
0.0
  0
VERTEX
  5
16DF
  8
0
 10
271.0927375997108
 20
180.30149914126309
 30
0.0
  0
VERTEX
  5
16E0
  8
0
 10
271.13893044496871
 20
180.30303403251941
 30
0.0
  0
VERTEX
  5
16E1
  8
0
 10
271.16223716682271
 20
180.30322248146879
 30
0.0
  0
SEQEND
  5
16E2
  8
0
  0
POLYLINE
  5
928
  8
0
 66
     1
 10
0.0
 20
0.0
 30
0.0
  0
VERTEX
  5
16E3
  8
0
 10
271.16223716682271
 20
180.30322248146879
 30
0.0
  0
VERTEX
  5
16E4
  8
0
 10
271.1941597743193
 20
180.3028802096716
 30
0.0
  0
VERTEX
  5
16E5
  8
0
 10
271.25851961854488
 20
180.3002197389996
 30
0.0
  0
VERTEX
  5
16E6
  8
0
 10
271.32329222033093
 20
180.29511016123931
 30
0.0
  0
VERTEX
  5
16E7
  8
0
 10
271.3557264270359
 20
180.29171175794181
 30
0.0
  0
VERTEX
  5
16E8
  8
0
 10
271.38813359496538
 20
180.28779330629311
 30
0.0
  0
VERTEX
  5
16E9
  8
0
 10
271.4527697868902
 20
180.2785161725856
 30
0.0
  0
VERTEX
  5
16EA
  8
0
 10
271.51802406544402
 20
180.26732695508321
 30
0.0
  0
VERTEX
  5
16EB
  8
0
 10
271.58418196567879
 20
180.2542807442467
 30
0.0
  0
VERTEX
  5
16EC
  8
0
 10
271.65122336401538
 20
180.23946659738951
 30
0.0
  0
VERTEX
  5
16ED
  8
0
 10
271.71912876564289
 20
180.22296872246929
 30
0.0
  0
VERTEX
  5
16EE
  8
0
 10
271.75339946368871
 20
180.21411353578421
 30
0.0
  0
VERTEX
  5
16EF
  8
0
 10
271.78787896857432
 20
180.20486712418099
 30
0.0
  0
VERTEX
  5
16F0
  8
0
 10
271.85745478280188
 20
180.18523820944191
 30
0.0
  0
VERTEX
  5
16F1
  8
0
 10
271.92783680425617
 20
180.16415534752321
 30
0.0
  0
VERTEX
  5
16F2
  8
0
 10
271.99900524161598
 20
180.14168938257001
 30
0.0
  0
VERTEX
  5
16F3
  8
0
 10
272.07093979284531
 20
180.1179090983081
 30
0.0
  0
VERTEX
  5
16F4
  8
0
 10
272.14361956760359
 20
180.0928816363878
 30
0.0
  0
VERTEX
  5
16F5
  8
0
 10
272.18023221507468
 20
180.07992083961781
 30
0.0
  0
VERTEX
  5
16F6
  8
0
 10
272.2170230512732
 20
180.0666728710934
 30
0.0
  0
VERTEX
  5
16F7
  8
0
 10
272.29112810622598
 20
180.03934774411141
 30
0.0
  0
VERTEX
  5
16F8
  8
0
 10
272.36591214081108
 20
180.01097051191769
 30
0.0
  0
VERTEX
  5
16F9
  8
0
 10
272.40355181167212
 20
179.99640723429309
 30
0.0
  0
VERTEX
  5
16FA
  8
0
 10
272.44135288809321
 20
179.9816047261389
 30
0.0
  0
VERTEX
  5
16FB
  8
0
 10
272.51742807237309
 20
179.95131361133471
 30
0.0
  0
VERTEX
  5
16FC
  8
0
 10
272.59411520046228
 20
179.92016041046571
 30
0.0
  0
VERTEX
  5
16FD
  8
0
 10
272.63268117467732
 20
179.90428035432109
 30
0.0
  0
VERTEX
  5
16FE
  8
0
 10
272.67139164374572
 20
179.8882086203719
 30
0.0
  0
VERTEX
  5
16FF
  8
0
 10
272.74923473733293
 20
179.85552222068779
 30
0.0
  0
VERTEX
  5
1700
  8
0
 10
272.82762189397579
 20
179.8221659014543
 30
0.0
  0
VERTEX
  5
1701
  8
0
 10
272.90653073109007
 20
179.78820529476559
 30
0.0
  0
VERTEX
  5
1702
  8
0
 10
272.98593920939572
 20
179.75370721606581
 30
0.0
  0
VERTEX
  5
1703
  8
0
 10
273.06582578180098
 20
179.71873992102601
 30
0.0
  0
VERTEX
  5
1704
  8
0
 10
273.10594179307878
 20
179.70110210913211
 30
0.0
  0
VERTEX
  5
1705
  8
0
 10
273.1461695511955
 20
179.68337338429879
 30
0.0
  0
VERTEX
  5
1706
  8
0
 10
273.22695043575459
 20
179.64767960686009
 30
0.0
  0
VERTEX
  5
1707
  8
0
 10
273.30814615155032
 20
179.61173437111231
 30
0.0
  0
VERTEX
  5
1708
  8
0
 10
273.38971372022098
 20
179.5756258781677
 30
0.0
  0
VERTEX
  5
1709
  8
0
 10
273.4716363392962
 20
179.5394344148277
 30
0.0
  0
VERTEX
  5
170A
  8
0
 10
273.55390537539228
 20
179.50324087454121
 30
0.0
  0
VERTEX
  5
170B
  8
0
 10
273.59516761111911
 20
179.48516970113701
 30
0.0
  0
VERTEX
  5
170C
  8
0
 10
273.6365140834148
 20
179.46713022329331
 30
0.0
  0
VERTEX
  5
170D
  8
0
 10
273.7194578591895
 20
179.4311921518925
 30
0.0
  0
VERTEX
  5
170E
  8
0
 10
273.80273445860831
 20
179.39552182629811
 30
0.0
  0
VERTEX
  5
170F
  8
0
 10
273.88634417267781
 20
179.36022074326871
 30
0.0
  0
VERTEX
  5
1710
  8
0
 10
273.97029040364862
 20
179.3253975055178
 30
0.0
  0
VERTEX
  5
1711
  8
0
 10
274.0545804880785
 20
179.29116859665291
 30
0.0
  0
VERTEX
  5
1712
  8
0
 10
274.09685794159969
 20
179.2743158287528
 30
0.0
  0
VERTEX
  5
1713
  8
0
 10
274.1392260736958
 20
179.25765944054081
 30
0.0
  0
VERTEX
  5
1714
  8
0
 10
274.22424324756162
 20
179.22500562413961
 30
0.0
  0
VERTEX
  5
1715
  8
0
 10
274.30965238290952
 20
179.19335423386369
 30
0.0
  0
VERTEX
  5
1716
  8
0
 10
274.39547511304238
 20
179.1628661042057
 30
0.0
  0
VERTEX
  5
1717
  8
0
 10
274.48173520785417
 20
179.13371627333169
 30
0.0
  0
VERTEX
  5
1718
  8
0
 10
274.56846597566943
 20
179.10609211992869
 30
0.0
  0
VERTEX
  5
1719
  8
0
 10
274.61202055527031
 20
179.09291437674321
 30
0.0
  0
VERTEX
  5
171A
  8
0
 10
274.65570902443312
 20
179.0801943998008
 30
0.0
  0
VERTEX
  5
171B
  8
0
 10
274.74351350500672
 20
179.05623743579881
 30
0.0
  0
VERTEX
  5
171C
  8
0
 10
274.83193453104741
 20
179.03444857133891
 30
0.0
  0
VERTEX
  5
171D
  8
0
 10
274.92103085278052
 20
179.01506642258619
 30
0.0
  0
VERTEX
  5
171E
  8
0
 10
275.0108620448915
 20
178.99833742499331
 30
0.0
  0
VERTEX
  5
171F
  8
0
 10
275.10148570422848
 20
178.984510255152
 30
0.0
  0
VERTEX
  5
1720
  8
0
 10
275.14711163284471
 20
178.97876129217551
 30
0.0
  0
VERTEX
  5
1721
  8
0
 10
275.19295539969482
 20
178.97382798712371
 30
0.0
  0
VERTEX
  5
1722
  8
0
 10
275.28532028300668
 20
178.9665183469979
 30
0.0
  0
VERTEX
  5
1723
  8
0
 10
275.37862722982021
 20
178.96278310011809
 30
0.0
  0
VERTEX
  5
1724
  8
0
 10
275.42564921795707
 20
178.96230936554139
 30
0.0
  0
VERTEX
  5
1725
  8
0
 10
275.47267120609411
 20
178.96278310011809
 30
0.0
  0
VERTEX
  5
1726
  8
0
 10
275.56597815290752
 20
178.9665183469979
 30
0.0
  0
VERTEX
  5
1727
  8
0
 10
275.65834303621949
 20
178.97382798712371
 30
0.0
  0
VERTEX
  5
1728
  8
0
 10
275.70418680306938
 20
178.97876129217551
 30
0.0
  0
VERTEX
  5
1729
  8
0
 10
275.74981273168572
 20
178.984510255152
 30
0.0
  0
VERTEX
  5
172A
  8
0
 10
275.84043639102282
 20
178.99833742499331
 30
0.0
  0
VERTEX
  5
172B
  8
0
 10
275.93026758313368
 20
179.01506642258619
 30
0.0
  0
VERTEX
  5
172C
  8
0
 10
276.01936390486691
 20
179.03444857133891
 30
0.0
  0
VERTEX
  5
172D
  8
0
 10
276.10778493090748
 20
179.05623743579881
 30
0.0
  0
VERTEX
  5
172E
  8
0
 10
276.19558941148119
 20
179.0801943998008
 30
0.0
  0
VERTEX
  5
172F
  8
0
 10
276.2392778806439
 20
179.09291437674321
 30
0.0
  0
VERTEX
  5
1730
  8
0
 10
276.28283246024478
 20
179.10609211992869
 30
0.0
  0
VERTEX
  5
1731
  8
0
 10
276.36956322806009
 20
179.13371627333169
 30
0.0
  0
VERTEX
  5
1732
  8
0
 10
276.45582332287188
 20
179.1628661042057
 30
0.0
  0
VERTEX
  5
1733
  8
0
 10
276.54164605300468
 20
179.19335423386369
 30
0.0
  0
VERTEX
  5
1734
  8
0
 10
276.62705518835247
 20
179.22500562413961
 30
0.0
  0
VERTEX
  5
1735
  8
0
 10
276.71207236221852
 20
179.25765944054081
 30
0.0
  0
VERTEX
  5
1736
  8
0
 10
276.75444049431439
 20
179.2743158287528
 30
0.0
  0
VERTEX
  5
1737
  8
0
 10
276.79671794783587
 20
179.29116859665291
 30
0.0
  0
VERTEX
  5
1738
  8
0
 10
276.88100803226558
 20
179.3253975055178
 30
0.0
  0
VERTEX
  5
1739
  8
0
 10
276.96495426323651
 20
179.36022074326871
 30
0.0
  0
VERTEX
  5
173A
  8
0
 10
277.048563977306
 20
179.39552182629819
 30
0.0
  0
VERTEX
  5
173B
  8
0
 10
277.13184057672481
 20
179.43119215189259
 30
0.0
  0
VERTEX
  5
173C
  8
0
 10
277.21478435249952
 20
179.4671302232934
 30
0.0
  0
VERTEX
  5
173D
  8
0
 10
277.25613082479521
 20
179.48516970113701
 30
0.0
  0
VERTEX
  5
173E
  8
0
 10
277.29739306052198
 20
179.50324087454129
 30
0.0
  0
VERTEX
  5
173F
  8
0
 10
277.37966209661812
 20
179.5394344148277
 30
0.0
  0
VERTEX
  5
1740
  8
0
 10
277.46158471569328
 20
179.5756258781677
 30
0.0
  0
VERTEX
  5
1741
  8
0
 10
277.54315228436411
 20
179.61173437111231
 30
0.0
  0
VERTEX
  5
1742
  8
0
 10
277.62434800015978
 20
179.64767960686021
 30
0.0
  0
VERTEX
  5
1743
  8
0
 10
277.70512888471882
 20
179.68337338429879
 30
0.0
  0
VERTEX
  5
1744
  8
0
 10
277.74535664283547
 20
179.70110210913211
 30
0.0
  0
VERTEX
  5
1745
  8
0
 10
277.78547265411328
 20
179.71873992102601
 30
0.0
  0
VERTEX
  5
1746
  8
0
 10
277.86535922651842
 20
179.75370721606581
 30
0.0
  0
VERTEX
  5
1747
  8
0
 10
277.94476770482407
 20
179.78820529476559
 30
0.0
  0
VERTEX
  5
1748
  8
0
 10
278.02367654193853
 20
179.8221659014543
 30
0.0
  0
VERTEX
  5
1749
  8
0
 10
278.10206369858139
 20
179.85552222068779
 30
0.0
  0
VERTEX
  5
174A
  8
0
 10
278.17990679216859
 20
179.8882086203719
 30
0.0
  0
VERTEX
  5
174B
  8
0
 10
278.218617261237
 20
179.90428035432109
 30
0.0
  0
VERTEX
  5
174C
  8
0
 10
278.25718323545181
 20
179.92016041046571
 30
0.0
  0
VERTEX
  5
174D
  8
0
 10
278.33387036354111
 20
179.95131361133471
 30
0.0
  0
VERTEX
  5
174E
  8
0
 10
278.409945547821
 20
179.9816047261389
 30
0.0
  0
VERTEX
  5
174F
  8
0
 10
278.44774662424209
 20
179.99640723429309
 30
0.0
  0
VERTEX
  5
1750
  8
0
 10
278.48538629510318
 20
180.01097051191769
 30
0.0
  0
VERTEX
  5
1751
  8
0
 10
278.56017032968828
 20
180.03934774411141
 30
0.0
  0
VERTEX
  5
1752
  8
0
 10
278.634275384641
 20
180.0666728710934
 30
0.0
  0
VERTEX
  5
1753
  8
0
 10
278.67106622083958
 20
180.07992083961781
 30
0.0
  0
VERTEX
  5
1754
  8
0
 10
278.70767886831072
 20
180.0928816363878
 30
0.0
  0
VERTEX
  5
1755
  8
0
 10
278.78035864306901
 20
180.1179090983081
 30
0.0
  0
VERTEX
  5
1756
  8
0
 10
278.85229319429823
 20
180.14168938257001
 30
0.0
  0
VERTEX
  5
1757
  8
0
 10
278.92346163165797
 20
180.16415534752321
 30
0.0
  0
VERTEX
  5
1758
  8
0
 10
278.99384365311238
 20
180.18523820944191
 30
0.0
  0
VERTEX
  5
1759
  8
0
 10
279.06341946733988
 20
180.20486712418099
 30
0.0
  0
VERTEX
  5
175A
  8
0
 10
279.09789897222561
 20
180.21411353578421
 30
0.0
  0
VERTEX
  5
175B
  8
0
 10
279.13216967027148
 20
180.22296872246929
 30
0.0
  0
VERTEX
  5
175C
  8
0
 10
279.20007507189888
 20
180.23946659738951
 30
0.0
  0
VERTEX
  5
175D
  8
0
 10
279.26711647023529
 20
180.2542807442467
 30
0.0
  0
VERTEX
  5
175E
  8
0
 10
279.33327437047029
 20
180.26732695508321
 30
0.0
  0
VERTEX
  5
175F
  8
0
 10
279.39852864902412
 20
180.2785161725856
 30
0.0
  0
VERTEX
  5
1760
  8
0
 10
279.46316484094882
 20
180.28779330629311
 30
0.0
  0
VERTEX
  5
1761
  8
0
 10
279.49557200887841
 20
180.29171175794181
 30
0.0
  0
VERTEX
  5
1762
  8
0
 10
279.52800621558339
 20
180.29511016123931
 30
0.0
  0
VERTEX
  5
1763
  8
0
 10
279.59277881736938
 20
180.3002197389996
 30
0.0
  0
VERTEX
  5
1764
  8
0
 10
279.65713866159501
 20
180.3028802096716
 30
0.0
  0
VERTEX
  5
1765
  8
0
 10
279.68906126909161
 20
180.30322248146879
 30
0.0
  0
SEQEND
  5
1766
  8
0
  0
POLYLINE
  5
929
  8
0
 66
     1
 10
0.0
 20
0.0
 30
0.0
  0
VERTEX
  5
1767
  8
0
 10
279.68906126909161
 20
180.30322248146879
 30
0.0
  0
VERTEX
  5
1768
  8
0
 10
279.71236799094549
 20
180.30303403251941
 30
0.0
  0
VERTEX
  5
1769
  8
0
 10
279.75856083620329
 20
180.30149914126309
 30
0.0
  0
VERTEX
  5
176A
  8
0
 10
279.80410002957888
 20
180.29836397301131
 30
0.0
  0
VERTEX
  5
176B
  8
0
 10
279.82659170732973
 20
180.29617719746011
 30
0.0
  0
SEQEND
  5
176C
  8
0
  0
POLYLINE
  5
92A
  8
0
 66
     1
 10
0.0
 20
0.0
 30
0.0
  0
VERTEX
  5
176D
  8
0
 10
280.92564921795707
 20
170.24233372292261
 30
0.0
  0
VERTEX
  5
176E
  8
0
 10
280.92504920829788
 20
170.2696736071793
 30
0.0
  0
VERTEX
  5
176F
  8
0
 10
280.92024991647531
 20
170.3243295163474
 30
0.0
  0
VERTEX
  5
1770
  8
0
 10
280.91065552114202
 20
170.37891386830191
 30
0.0
  0
VERTEX
  5
1771
  8
0
 10
280.90406261292321
 20
170.40616432067819
 30
0.0
  0
SEQEND
  5
1772
  8
0
  0
POLYLINE
  5
92B
  8
0
 66
     1
 10
0.0
 20
0.0
 30
0.0
  0
VERTEX
  5
1773
  8
0
 10
280.90406261292321
 20
170.40616432067819
 30
0.0
  0
VERTEX
  5
1774
  8
0
 10
280.89977343041738
 20
170.4218365220899
 30
0.0
  0
VERTEX
  5
1775
  8
0
 10
280.89004962606413
 20
170.45410186736279
 30
0.0
  0
VERTEX
  5
1776
  8
0
 10
280.87881008010578
 20
170.4875870805418
 30
0.0
  0
VERTEX
  5
1777
  8
0
 10
280.87262647594639
 20
170.5047838256971
 30
0.0
  0
VERTEX
  5
1778
  8
0
 10
280.86606955749181
 20
170.52228141249671
 30
0.0
  0
VERTEX
  5
1779
  8
0
 10
280.85184389400672
 20
170.55817292203639
 30
0.0
  0
VERTEX
  5
177A
  8
0
 10
280.83614996623299
 20
170.5952485336966
 30
0.0
  0
VERTEX
  5
177B
  8
0
 10
280.81900565055872
 20
170.63349410283081
 30
0.0
  0
VERTEX
  5
177C
  8
0
 10
280.80042977241669
 20
170.67289448714641
 30
0.0
  0
VERTEX
  5
177D
  8
0
 10
280.78044199759188
 20
170.7134337218256
 30
0.0
  0
VERTEX
  5
177E
  8
0
 10
280.76992487668292
 20
170.7341254653422
 30
0.0
  0
VERTEX
  5
177F
  8
0
 10
280.75906237176861
 20
170.75509583613629
 30
0.0
  0
VERTEX
  5
1780
  8
0
 10
280.7363119491061
 20
170.7978635041855
 30
0.0
  0
VERTEX
  5
1781
  8
0
 10
280.71221279964249
 20
170.8417180906624
 30
0.0
  0
VERTEX
  5
1782
  8
0
 10
280.68678792713592
 20
170.88663983469991
 30
0.0
  0
VERTEX
  5
1783
  8
0
 10
280.66006124382642
 20
170.932607901994
 30
0.0
  0
VERTEX
  5
1784
  8
0
 10
280.63205753716448
 20
170.97960044144651
 30
0.0
  0
VERTEX
  5
1785
  8
0
 10
280.6175847757076
 20
171.00347379652831
 30
0.0
  0
VERTEX
  5
1786
  8
0
 10
280.60280242963449
 20
171.0275946455441
 30
0.0
  0
VERTEX
  5
1787
  8
0
 10
280.5723223327023
 20
171.0765668137683
 30
0.0
  0
VERTEX
  5
1788
  8
0
 10
280.54064439582652
 20
171.12649241841959
 30
0.0
  0
VERTEX
  5
1789
  8
0
 10
280.52436490992352
 20
171.15180488494781
 30
0.0
  0
VERTEX
  5
178A
  8
0
 10
280.5077964513618
 20
171.17734617232301
 30
0.0
  0
VERTEX
  5
178B
  8
0
 10
280.47380695608922
 20
171.22910209796541
 30
0.0
  0
VERTEX
  5
178C
  8
0
 10
280.43870493000389
 20
171.2817335976963
 30
0.0
  0
VERTEX
  5
178D
  8
0
 10
280.4207459250897
 20
171.30836922396381
 30
0.0
  0
VERTEX
  5
178E
  8
0
 10
280.40251982985473
 20
171.3352136172353
 30
0.0
  0
VERTEX
  5
178F
  8
0
 10
280.36527617299907
 20
171.3895224061545
 30
0.0
  0
VERTEX
  5
1790
  8
0
 10
280.32700034543399
 20
171.44463727880941
 30
0.0
  0
VERTEX
  5
1791
  8
0
 10
280.28772268853669
 20
171.50052982911259
 30
0.0
  0
VERTEX
  5
1792
  8
0
 10
280.24747424342218
 20
171.55717077938121
 30
0.0
  0
VERTEX
  5
1793
  8
0
 10
280.20628671525623
 20
171.6145300323264
 30
0.0
  0
VERTEX
  5
1794
  8
0
 10
280.18535087503312
 20
171.64346940574109
 30
0.0
  0
VERTEX
  5
1795
  8
0
 10
280.1641924347137
 20
171.67257672371639
 30
0.0
  0
VERTEX
  5
1796
  8
0
 10
280.1212243171924
 20
171.7312792753595
 30
0.0
  0
VERTEX
  5
1797
  8
0
 10
280.07741582029649
 20
171.79060544812631
 30
0.0
  0
VERTEX
  5
1798
  8
0
 10
280.03280090001408
 20
171.8505223948078
 30
0.0
  0
VERTEX
  5
1799
  8
0
 10
279.9874139659396
 20
171.91099671266511
 30
0.0
  0
VERTEX
  5
179A
  8
0
 10
279.94128983580669
 20
171.97199449559031
 30
0.0
  0
VERTEX
  5
179B
  8
0
 10
279.91796230306039
 20
172.00267896589639
 30
0.0
  0
VERTEX
  5
179C
  8
0
 10
279.89446368953878
 20
172.03348138584801
 30
0.0
  0
VERTEX
  5
179D
  8
0
 10
279.84697102295428
 20
172.09542262541771
 30
0.0
  0
VERTEX
  5
179E
  8
0
 10
279.79884761095309
 20
172.1577830944118
 30
0.0
  0
VERTEX
  5
179F
  8
0
 10
279.7501296120671
 20
172.2205271678948
 30
0.0
  0
VERTEX
  5
17A0
  8
0
 10
279.70085371386563
 20
172.2836185267324
 30
0.0
  0
VERTEX
  5
17A1
  8
0
 10
279.65105711834173
 20
172.3470201784996
 30
0.0
  0
VERTEX
  5
17A2
  8
0
 10
279.62597531667052
 20
172.37882563145999
 30
0.0
  0
VERTEX
  5
17A3
  8
0
 10
279.60077750653602
 20
172.41069450398939
 30
0.0
  0
VERTEX
  5
17A4
  8
0
 10
279.5500530028786
 20
172.4746033028114
 30
0.0
  0
VERTEX
  5
17A5
  8
0
 10
279.49892213949141
 20
172.5387078380304
 30
0.0
  0
VERTEX
  5
17A6
  8
0
 10
279.31732866140447
 20
172.76404480454201
 30
0.0
  0
VERTEX
  5
17A7
  8
0
 10
278.99820034978939
 20
173.1525331523633
 30
0.0
  0
VERTEX
  5
17A8
  8
0
 10
278.83228601104912
 20
173.35130036108251
 30
0.0
  0
VERTEX
  5
17A9
  8
0
 10
278.66226350697912
 20
173.55298404135121
 30
0.0
  0
VERTEX
  5
17AA
  8
0
 10
278.31249268525852
 20
173.96202647616141
 30
0.0
  0
VERTEX
  5
17AB
  8
0
 10
277.95415704156471
 20
174.37325187969009
 30
0.0
  0
VERTEX
  5
17AC
  8
0
 10
277.59255388288051
 20
174.77975129928069
 30
0.0
  0
VERTEX
  5
17AD
  8
0
 10
277.232946346836
 20
175.1738136867946
 30
0.0
  0
VERTEX
  5
17AE
  8
0
 10
276.88051407306853
 20
175.54635924219761
 30
0.0
  0
VERTEX
  5
17AF
  8
0
 10
276.70700669472239
 20
175.72268026480299
 30
0.0
  0
VERTEX
  5
17B0
  8
0
 10
276.53475770144968
 20
175.8912385543743
 30
0.0
  0
VERTEX
  5
17B1
  8
0
 10
276.33468737476278
 20
176.07600245522241
 30
0.0
  0
VERTEX
  5
17B2
  8
0
 10
276.27768592454078
 20
176.12585424945331
 30
0.0
  0
VERTEX
  5
17B3
  8
0
 10
276.2205220014942
 20
176.1743448809583
 30
0.0
  0
VERTEX
  5
17B4
  8
0
 10
276.19182058360701
 20
176.19807041685499
 30
0.0
  0
VERTEX
  5
17B5
  8
0
 10
276.16300552046022
 20
176.22144075071461
 30
0.0
  0
VERTEX
  5
17B6
  8
0
 10
276.1049203819029
 20
176.2670774932468
 30
0.0
  0
VERTEX
  5
17B7
  8
0
 10
276.04601365813681
 20
176.31115245257661
 30
0.0
  0
VERTEX
  5
17B8
  8
0
 10
275.9859895444157
 20
176.35350717872339
 30
0.0
  0
VERTEX
  5
17B9
  8
0
 10
275.92466489021439
 20
176.3938007018142
 30
0.0
  0
VERTEX
  5
17BA
  8
0
 10
275.86162591213031
 20
176.43171634288851
 30
0.0
  0
VERTEX
  5
17BB
  8
0
 10
275.82924706656252
 20
176.44968080089799
 30
0.0
  0
VERTEX
  5
17BC
  8
0
 10
275.79616112310549
 20
176.46690227765939
 30
0.0
  0
VERTEX
  5
17BD
  8
0
 10
275.75651799667497
 20
176.48594148132889
 30
0.0
  0
VERTEX
  5
17BE
  8
0
 10
275.74496057526687
 20
176.4911509011568
 30
0.0
  0
VERTEX
  5
17BF
  8
0
 10
275.73329319926779
 20
176.49624898337709
 30
0.0
  0
VERTEX
  5
17C0
  8
0
 10
275.72741779464837
 20
176.49875424174371
 30
0.0
  0
VERTEX
  5
17C1
  8
0
 10
275.72151372532608
 20
176.501229444768
 30
0.0
  0
VERTEX
  5
17C2
  8
0
 10
275.70961668183872
 20
176.50608705212011
 30
0.0
  0
VERTEX
  5
17C3
  8
0
 10
275.69759608206169
 20
176.51081628356721
 30
0.0
  0
VERTEX
  5
17C4
  8
0
 10
275.68544568104443
 20
176.51541117933959
 30
0.0
  0
VERTEX
  5
17C5
  8
0
 10
275.67315898972691
 20
176.51986530052281
 30
0.0
  0
VERTEX
  5
17C6
  8
0
 10
275.66072929622243
 20
176.52417168580789
 30
0.0
  0
VERTEX
  5
17C7
  8
0
 10
275.65445867216431
 20
176.52626714834739
 30
0.0
  0
VERTEX
  5
17C8
  8
0
 10
275.64814969451402
 20
176.52832280723311
 30
0.0
  0
VERTEX
  5
17C9
  8
0
 10
275.63541312065189
 20
176.53231052612441
 30
0.0
  0
VERTEX
  5
17CA
  8
0
 10
275.62251239636942
 20
176.53612605064009
 30
0.0
  0
VERTEX
  5
17CB
  8
0
 10
275.61599821570252
 20
176.53796630420021
 30
0.0
  0
SEQEND
  5
17CC
  8
0
  0
POLYLINE
  5
92C
  8
0
 66
     1
 10
0.0
 20
0.0
 30
0.0
  0
VERTEX
  5
17CD
  8
0
 10
275.61599821570252
 20
176.53796630420021
 30
0.0
  0
VERTEX
  5
17CE
  8
0
 10
275.60542715007767
 20
176.5408236070121
 30
0.0
  0
VERTEX
  5
17CF
  8
0
 10
275.58428306329893
 20
176.5460485487244
 30
0.0
  0
VERTEX
  5
17D0
  8
0
 10
275.56313662980898
 20
176.55062054181559
 30
0.0
  0
VERTEX
  5
17D1
  8
0
 10
275.552562630804
 20
176.55266166111539
 30
0.0
  0
VERTEX
  5
17D2
  8
0
 10
275.54198816243297
 20
176.5545395186515
 30
0.0
  0
VERTEX
  5
17D3
  8
0
 10
275.52083797402531
 20
176.5578054212574
 30
0.0
  0
VERTEX
  5
17D4
  8
0
 10
275.49968637746611
 20
176.56041820131989
 30
0.0
  0
VERTEX
  5
17D5
  8
0
 10
275.47853368565637
 20
176.56237782018769
 30
0.0
  0
VERTEX
  5
17D6
  8
0
 10
275.45738021151328
 20
176.56368424887151
 30
0.0
  0
VERTEX
  5
17D7
  8
0
 10
275.43622626796548
 20
176.56433746804501
 30
0.0
  0
VERTEX
  5
17D8
  8
0
 10
275.42564921795707
 20
176.56441912066819
 30
0.0
  0
VERTEX
  5
17D9
  8
0
 10
275.41507216794878
 20
176.56433746804501
 30
0.0
  0
VERTEX
  5
17DA
  8
0
 10
275.39391822440098
 20
176.56368424887151
 30
0.0
  0
VERTEX
  5
17DB
  8
0
 10
275.37276475025777
 20
176.56237782018769
 30
0.0
  0
VERTEX
  5
17DC
  8
0
 10
275.35161205844821
 20
176.56041820131989
 30
0.0
  0
VERTEX
  5
17DD
  8
0
 10
275.330460461889
 20
176.5578054212574
 30
0.0
  0
VERTEX
  5
17DE
  8
0
 10
275.30931027348129
 20
176.5545395186515
 30
0.0
  0
VERTEX
  5
17DF
  8
0
 10
275.29873580511031
 20
176.55266166111539
 30
0.0
  0
VERTEX
  5
17E0
  8
0
 10
275.28816180610522
 20
176.55062054181559
 30
0.0
  0
VERTEX
  5
17E1
  8
0
 10
275.26701537261528
 20
176.5460485487244
 30
0.0
  0
VERTEX
  5
17E2
  8
0
 10
275.24587128583642
 20
176.5408236070121
 30
0.0
  0
VERTEX
  5
17E3
  8
0
 10
275.23530022021191
 20
176.53796630420021
 30
0.0
  0
SEQEND
  5
17E4
  8
0
  0
POLYLINE
  5
92D
  8
0
 66
     1
 10
0.0
 20
0.0
 30
0.0
  0
VERTEX
  5
17E5
  8
0
 10
275.23530022021191
 20
176.53796630420021
 30
0.0
  0
VERTEX
  5
17E6
  8
0
 10
275.2287860395449
 20
176.53612605064009
 30
0.0
  0
VERTEX
  5
17E7
  8
0
 10
275.21588531526243
 20
176.53231052612441
 30
0.0
  0
VERTEX
  5
17E8
  8
0
 10
275.2031487414003
 20
176.528322807233
 30
0.0
  0
VERTEX
  5
17E9
  8
0
 10
275.19683976375001
 20
176.52626714834739
 30
0.0
  0
VERTEX
  5
17EA
  8
0
 10
275.19056913969189
 20
176.52417168580789
 30
0.0
  0
VERTEX
  5
17EB
  8
0
 10
275.1781394461874
 20
176.51986530052281
 30
0.0
  0
VERTEX
  5
17EC
  8
0
 10
275.16585275486977
 20
176.51541117933959
 30
0.0
  0
VERTEX
  5
17ED
  8
0
 10
275.1537023538524
 20
176.51081628356729
 30
0.0
  0
VERTEX
  5
17EE
  8
0
 10
275.14168175407548
 20
176.50608705212011
 30
0.0
  0
VERTEX
  5
17EF
  8
0
 10
275.12978471058801
 20
176.50122944476809
 30
0.0
  0
VERTEX
  5
17F0
  8
0
 10
275.12388064126583
 20
176.49875424174371
 30
0.0
  0
VERTEX
  5
17F1
  8
0
 10
275.11800523664652
 20
176.49624898337709
 30
0.0
  0
VERTEX
  5
17F2
  8
0
 10
275.10633786064739
 20
176.49115090115691
 30
0.0
  0
VERTEX
  5
17F3
  8
0
 10
275.09478043923929
 20
176.48594148132889
 30
0.0
  0
VERTEX
  5
17F4
  8
0
 10
275.05513731280871
 20
176.46690227765939
 30
0.0
  0
VERTEX
  5
17F5
  8
0
 10
275.0220513693518
 20
176.44968080089799
 30
0.0
  0
VERTEX
  5
17F6
  8
0
 10
274.98967252378378
 20
176.43171634288859
 30
0.0
  0
VERTEX
  5
17F7
  8
0
 10
274.92663354569987
 20
176.3938007018142
 30
0.0
  0
VERTEX
  5
17F8
  8
0
 10
274.8653088914985
 20
176.35350717872339
 30
0.0
  0
VERTEX
  5
17F9
  8
0
 10
274.8052847777775
 20
176.31115245257661
 30
0.0
  0
VERTEX
  5
17FA
  8
0
 10
274.74637805401119
 20
176.26707749324689
 30
0.0
  0
VERTEX
  5
17FB
  8
0
 10
274.6882929154541
 20
176.22144075071461
 30
0.0
  0
VERTEX
  5
17FC
  8
0
 10
274.6594778523073
 20
176.19807041685499
 30
0.0
  0
VERTEX
  5
17FD
  8
0
 10
274.63077643442011
 20
176.1743448809583
 30
0.0
  0
VERTEX
  5
17FE
  8
0
 10
274.57361251137343
 20
176.12585424945331
 30
0.0
  0
VERTEX
  5
17FF
  8
0
 10
274.51661106115142
 20
176.07600245522241
 30
0.0
  0
VERTEX
  5
1800
  8
0
 10
274.31654073446441
 20
175.8912385543743
 30
0.0
  0
VERTEX
  5
1801
  8
0
 10
274.14429174119192
 20
175.72268026480299
 30
0.0
  0
VERTEX
  5
1802
  8
0
 10
273.97078436284568
 20
175.5463592421977
 30
0.0
  0
VERTEX
  5
1803
  8
0
 10
273.6183520890782
 20
175.17381368679469
 30
0.0
  0
VERTEX
  5
1804
  8
0
 10
273.25874455303369
 20
174.77975129928069
 30
0.0
  0
VERTEX
  5
1805
  8
0
 10
272.8971413943496
 20
174.37325187969009
 30
0.0
  0
VERTEX
  5
1806
  8
0
 10
272.5388057506558
 20
173.96202647616141
 30
0.0
  0
VERTEX
  5
1807
  8
0
 10
272.18903492893509
 20
173.55298404135121
 30
0.0
  0
VERTEX
  5
1808
  8
0
 10
272.01901242486508
 20
173.35130036108251
 30
0.0
  0
VERTEX
  5
1809
  8
0
 10
271.85309808612487
 20
173.1525331523633
 30
0.0
  0
VERTEX
  5
180A
  8
0
 10
271.53396977450973
 20
172.76404480454201
 30
0.0
  0
VERTEX
  5
180B
  8
0
 10
271.3523762964229
 20
172.5387078380304
 30
0.0
  0
VERTEX
  5
180C
  8
0
 10
271.30124543303572
 20
172.47460330281149
 30
0.0
  0
VERTEX
  5
180D
  8
0
 10
271.25052092937818
 20
172.4106945039893
 30
0.0
  0
VERTEX
  5
180E
  8
0
 10
271.2253231192438
 20
172.37882563145999
 30
0.0
  0
VERTEX
  5
180F
  8
0
 10
271.20024131757248
 20
172.3470201784996
 30
0.0
  0
VERTEX
  5
1810
  8
0
 10
271.15044472204869
 20
172.2836185267324
 30
0.0
  0
VERTEX
  5
1811
  8
0
 10
271.1011688238471
 20
172.2205271678948
 30
0.0
  0
VERTEX
  5
1812
  8
0
 10
271.05245082496123
 20
172.1577830944118
 30
0.0
  0
VERTEX
  5
1813
  8
0
 10
271.00432741296009
 20
172.09542262541771
 30
0.0
  0
VERTEX
  5
1814
  8
0
 10
270.95683474637542
 20
172.03348138584801
 30
0.0
  0
VERTEX
  5
1815
  8
0
 10
270.93333613285392
 20
172.00267896589639
 30
0.0
  0
VERTEX
  5
1816
  8
0
 10
270.91000860010752
 20
171.97199449559031
 30
0.0
  0
VERTEX
  5
1817
  8
0
 10
270.86388446997449
 20
171.91099671266511
 30
0.0
  0
VERTEX
  5
1818
  8
0
 10
270.81849753590012
 20
171.8505223948078
 30
0.0
  0
VERTEX
  5
1819
  8
0
 10
270.77388261561782
 20
171.79060544812631
 30
0.0
  0
VERTEX
  5
181A
  8
0
 10
270.73007411872192
 20
171.7312792753595
 30
0.0
  0
VERTEX
  5
181B
  8
0
 10
270.68710600120062
 20
171.67257672371639
 30
0.0
  0
VERTEX
  5
181C
  8
0
 10
270.66594756088119
 20
171.64346940574109
 30
0.0
  0
VERTEX
  5
181D
  8
0
 10
270.64501172065798
 20
171.6145300323264
 30
0.0
  0
VERTEX
  5
181E
  8
0
 10
270.60382419249208
 20
171.55717077938121
 30
0.0
  0
VERTEX
  5
181F
  8
0
 10
270.56357574737763
 20
171.50052982911259
 30
0.0
  0
VERTEX
  5
1820
  8
0
 10
270.52429809048027
 20
171.44463727880941
 30
0.0
  0
VERTEX
  5
1821
  8
0
 10
270.48602226291513
 20
171.3895224061545
 30
0.0
  0
VERTEX
  5
1822
  8
0
 10
270.44877860605959
 20
171.3352136172353
 30
0.0
  0
VERTEX
  5
1823
  8
0
 10
270.4305525108245
 20
171.30836922396381
 30
0.0
  0
VERTEX
  5
1824
  8
0
 10
270.41259350591031
 20
171.2817335976963
 30
0.0
  0
VERTEX
  5
1825
  8
0
 10
270.3774914798251
 20
171.22910209796541
 30
0.0
  0
VERTEX
  5
1826
  8
0
 10
270.34350198455252
 20
171.17734617232301
 30
0.0
  0
VERTEX
  5
1827
  8
0
 10
270.32693352599068
 20
171.15180488494781
 30
0.0
  0
VERTEX
  5
1828
  8
0
 10
270.3106540400878
 20
171.12649241841959
 30
0.0
  0
VERTEX
  5
1829
  8
0
 10
270.2789761032119
 20
171.0765668137683
 30
0.0
  0
VERTEX
  5
182A
  8
0
 10
270.24849600627982
 20
171.0275946455441
 30
0.0
  0
VERTEX
  5
182B
  8
0
 10
270.2337136602066
 20
171.00347379652831
 30
0.0
  0
VERTEX
  5
182C
  8
0
 10
270.21924089874972
 20
170.97960044144651
 30
0.0
  0
VERTEX
  5
182D
  8
0
 10
270.1912371920879
 20
170.932607901994
 30
0.0
  0
VERTEX
  5
182E
  8
0
 10
270.16451050877828
 20
170.88663983469991
 30
0.0
  0
VERTEX
  5
182F
  8
0
 10
270.13908563627172
 20
170.8417180906624
 30
0.0
  0
VERTEX
  5
1830
  8
0
 10
270.11498648680811
 20
170.7978635041855
 30
0.0
  0
VERTEX
  5
1831
  8
0
 10
270.09223606414571
 20
170.75509583613629
 30
0.0
  0
VERTEX
  5
1832
  8
0
 10
270.08137355923139
 20
170.7341254653422
 30
0.0
  0
VERTEX
  5
1833
  8
0
 10
270.07085643832238
 20
170.7134337218256
 30
0.0
  0
VERTEX
  5
1834
  8
0
 10
270.05086866349762
 20
170.67289448714641
 30
0.0
  0
VERTEX
  5
1835
  8
0
 10
270.03229278535548
 20
170.63349410283081
 30
0.0
  0
VERTEX
  5
1836
  8
0
 10
270.01514846968121
 20
170.5952485336966
 30
0.0
  0
VERTEX
  5
1837
  8
0
 10
269.99945454190748
 20
170.55817292203639
 30
0.0
  0
VERTEX
  5
1838
  8
0
 10
269.9852288784225
 20
170.52228141249671
 30
0.0
  0
VERTEX
  5
1839
  8
0
 10
269.97867195996781
 20
170.5047838256971
 30
0.0
  0
VERTEX
  5
183A
  8
0
 10
269.97248835580831
 20
170.48758708054191
 30
0.0
  0
VERTEX
  5
183B
  8
0
 10
269.96124880985008
 20
170.45410186736279
 30
0.0
  0
VERTEX
  5
183C
  8
0
 10
269.95152500549682
 20
170.4218365220899
 30
0.0
  0
VERTEX
  5
183D
  8
0
 10
269.9472358229911
 20
170.40616432067819
 30
0.0
  0
SEQEND
  5
183E
  8
0
  0
POLYLINE
  5
92E
  8
0
 66
     1
 10
0.0
 20
0.0
 30
0.0
  0
VERTEX
  5
183F
  8
0
 10
269.9472358229911
 20
170.40616432067819
 30
0.0
  0
VERTEX
  5
1840
  8
0
 10
269.94064291477213
 20
170.37891386830191
 30
0.0
  0
VERTEX
  5
1841
  8
0
 10
269.931048519439
 20
170.3243295163474
 30
0.0
  0
VERTEX
  5
1842
  8
0
 10
269.92624922761638
 20
170.2696736071793
 30
0.0
  0
VERTEX
  5
1843
  8
0
 10
269.92564921795707
 20
170.24233372292269
 30
0.0
  0
SEQEND
  5
1844
  8
0
  0
LINE
  5
92F
  8
0
 10
280.92564921795707
 20
180.01091729594361
 30
0.0
 11
280.92564921795707
 21
170.24233372292261
 31
0.0
  0
POLYLINE
  5
930
  8
0
 66
     1
 10
0.0
 20
0.0
 30
0.0
  0
VERTEX
  5
1845
  8
0
 10
281.62634439796238
 20
167.75513326905269
 30
0.0
  0
VERTEX
  5
1846
  8
0
 10
281.62412491491682
 20
167.77165294282901
 30
0.0
  0
VERTEX
  5
1847
  8
0
 10
281.61967299290518
 20
167.8033263228948
 30
0.0
  0
VERTEX
  5
1848
  8
0
 10
281.61520460994751
 20
167.8331726688759
 30
0.0
  0
VERTEX
  5
1849
  8
0
 10
281.61296455156503
 20
167.8474086439121
 30
0.0
  0
VERTEX
  5
184A
  8
0
 10
281.61072074552021
 20
167.8611854384084
 30
0.0
  0
VERTEX
  5
184B
  8
0
 10
281.60622238249277
 20
167.88735849105069
 30
0.0
  0
VERTEX
  5
184C
  8
0
 10
281.60171050691338
 20
167.91168608963039
 30
0.0
  0
VERTEX
  5
184D
  8
0
 10
281.59718610779203
 20
167.93416290150111
 30
0.0
  0
VERTEX
  5
184E
  8
0
 10
281.59265017688381
 20
167.95478399971191
 30
0.0
  0
VERTEX
  5
184F
  8
0
 10
281.58810370847141
 20
167.9735448640869
 30
0.0
  0
VERTEX
  5
1850
  8
0
 10
281.58582683405223
 20
167.9822264075043
 30
0.0
  0
VERTEX
  5
1851
  8
0
 10
281.58354769914803
 20
167.99044138221629
 30
0.0
  0
VERTEX
  5
1852
  8
0
 10
281.57898314759711
 20
168.005469850358
 30
0.0
  0
VERTEX
  5
1853
  8
0
 10
281.57441105437567
 20
168.018626974249
 30
0.0
  0
VERTEX
  5
1854
  8
0
 10
281.56983242169338
 20
168.02990986982789
 30
0.0
  0
VERTEX
  5
1855
  8
0
 10
281.56524825319337
 20
168.03931606386701
 30
0.0
  0
VERTEX
  5
1856
  8
0
 10
281.56065955373242
 20
168.04684349451441
 30
0.0
  0
VERTEX
  5
1857
  8
0
 10
281.55836381918681
 20
168.04990214183621
 30
0.0
  0
VERTEX
  5
1858
  8
0
 10
281.55606732916021
 20
168.0524905117461
 30
0.0
  0
VERTEX
  5
1859
  8
0
 10
281.55147258609918
 20
168.0562558777271
 30
0.0
  0
VERTEX
  5
185A
  8
0
 10
281.54687633172438
 20
168.0581387670837
 30
0.0
  0
VERTEX
  5
185B
  8
0
 10
281.54457795263278
 20
168.05837413792719
 30
0.0
  0
SEQEND
  5
185C
  8
0
  0
LINE
  5
931
  8
0
 10
281.54457795263278
 20
168.05837413792719
 30
0.0
 11
269.30672048328142
 21
168.05837413792719
 31
0.0
  0
POLYLINE
  5
932
  8
0
 66
     1
 10
0.0
 20
0.0
 30
0.0
  0
VERTEX
  5
185D
  8
0
 10
281.22697037015928
 20
168.05837413792719
 30
0.0
  0
VERTEX
  5
185E
  8
0
 10
281.22329392789169
 20
168.05883275665269
 30
0.0
  0
VERTEX
  5
185F
  8
0
 10
281.21594223913741
 20
168.0625014827036
 30
0.0
  0
VERTEX
  5
1860
  8
0
 10
281.20859413733672
 20
168.0698377415344
 30
0.0
  0
VERTEX
  5
1861
  8
0
 10
281.20492217848772
 20
168.07488049664741
 30
0.0
  0
VERTEX
  5
1862
  8
0
 10
281.20125201249567
 20
168.08083914699091
 30
0.0
  0
VERTEX
  5
1863
  8
0
 10
281.19391825267638
 20
168.09550212081211
 30
0.0
  0
VERTEX
  5
1864
  8
0
 10
281.1865952432201
 20
168.1138218937941
 30
0.0
  0
VERTEX
  5
1865
  8
0
 10
281.17928536597151
 20
168.13579250734099
 30
0.0
  0
VERTEX
  5
1866
  8
0
 10
281.17199099850387
 20
168.1614068154031
 30
0.0
  0
VERTEX
  5
1867
  8
0
 10
281.1647145133461
 20
168.1906564868014
 30
0.0
  0
VERTEX
  5
1868
  8
0
 10
281.1610837164792
 20
168.20664165685841
 30
0.0
  0
VERTEX
  5
1869
  8
0
 10
281.15745827721059
 20
168.22353200793719
 30
0.0
  0
VERTEX
  5
186A
  8
0
 10
281.15022465022338
 20
168.26002268588621
 30
0.0
  0
VERTEX
  5
186B
  8
0
 10
281.14301598515749
 20
168.30011665187669
 30
0.0
  0
VERTEX
  5
186C
  8
0
 10
281.13583462666628
 20
168.34380086515
 30
0.0
  0
VERTEX
  5
186D
  8
0
 10
281.1286829105216
 20
168.39106111720201
 30
0.0
  0
VERTEX
  5
186E
  8
0
 10
281.12156316285439
 20
168.44188203640439
 30
0.0
  0
VERTEX
  5
186F
  8
0
 10
281.1180160012932
 20
168.4686226257339
 30
0.0
  0
VERTEX
  5
1870
  8
0
 10
281.11447769939741
 20
168.4962470930042
 30
0.0
  0
VERTEX
  5
1871
  8
0
 10
281.10742882473221
 20
168.55413860450079
 30
0.0
  0
VERTEX
  5
1872
  8
0
 10
281.10041883154003
 20
168.61553774139671
 30
0.0
  0
VERTEX
  5
1873
  8
0
 10
281.0969291285212
 20
168.64754647301899
 30
0.0
  0
SEQEND
  5
1874
  8
0
  0
LINE
  5
933
  8
0
 10
281.0969291285212
 20
168.64754647301899
 30
0.0
 11
280.92564921795707
 21
170.24233372292261
 31
0.0
  0
LINE
  5
934
  8
0
 10
282.47449616972739
 20
172.47155475458129
 30
0.0
 11
282.47449616972739
 21
159.86788971849541
 31
0.0
  0
POLYLINE
  5
936
  8
0
 66
     1
 10
0.0
 20
0.0
 30
0.0
  0
VERTEX
  5
1875
  8
0
 10
269.75436930739312
 20
168.64754647301899
 30
0.0
  0
VERTEX
  5
1876
  8
0
 10
269.75087960437429
 20
168.61553774139671
 30
0.0
  0
VERTEX
  5
1877
  8
0
 10
269.74386961118199
 20
168.55413860450079
 30
0.0
  0
VERTEX
  5
1878
  8
0
 10
269.7368207365169
 20
168.4962470930042
 30
0.0
  0
VERTEX
  5
1879
  8
0
 10
269.73328243462112
 20
168.4686226257339
 30
0.0
  0
VERTEX
  5
187A
  8
0
 10
269.72973527305987
 20
168.44188203640439
 30
0.0
  0
VERTEX
  5
187B
  8
0
 10
269.72261552539271
 20
168.39106111720201
 30
0.0
  0
VERTEX
  5
187C
  8
0
 10
269.71546380924809
 20
168.34380086515
 30
0.0
  0
VERTEX
  5
187D
  8
0
 10
269.70828245075671
 20
168.30011665187669
 30
0.0
  0
VERTEX
  5
187E
  8
0
 10
269.70107378569082
 20
168.26002268588621
 30
0.0
  0
VERTEX
  5
187F
  8
0
 10
269.69384015870372
 20
168.22353200793719
 30
0.0
  0
VERTEX
  5
1880
  8
0
 10
269.69021471943501
 20
168.20664165685841
 30
0.0
  0
VERTEX
  5
1881
  8
0
 10
269.68658392256822
 20
168.1906564868014
 30
0.0
  0
VERTEX
  5
1882
  8
0
 10
269.67930743741027
 20
168.1614068154031
 30
0.0
  0
VERTEX
  5
1883
  8
0
 10
269.67201306994281
 20
168.13579250734099
 30
0.0
  0
VERTEX
  5
1884
  8
0
 10
269.66470319269411
 20
168.1138218937941
 30
0.0
  0
VERTEX
  5
1885
  8
0
 10
269.65738018323788
 20
168.09550212081211
 30
0.0
  0
VERTEX
  5
1886
  8
0
 10
269.65004642341859
 20
168.08083914699091
 30
0.0
  0
VERTEX
  5
1887
  8
0
 10
269.6463762574266
 20
168.07488049664741
 30
0.0
  0
VERTEX
  5
1888
  8
0
 10
269.64270429857748
 20
168.0698377415344
 30
0.0
  0
VERTEX
  5
1889
  8
0
 10
269.6353561967768
 20
168.0625014827036
 30
0.0
  0
VERTEX
  5
188A
  8
0
 10
269.62800450802251
 20
168.05883275665269
 30
0.0
  0
VERTEX
  5
188B
  8
0
 10
269.62432806575498
 20
168.05837413792719
 30
0.0
  0
SEQEND
  5
188C
  8
0
  0
POLYLINE
  5
937
  8
0
 66
     1
 10
0.0
 20
0.0
 30
0.0
  0
VERTEX
  5
188D
  8
0
 10
269.30672048328142
 20
168.05837413792719
 30
0.0
  0
VERTEX
  5
188E
  8
0
 10
269.30442210418988
 20
168.0581387670837
 30
0.0
  0
VERTEX
  5
188F
  8
0
 10
269.29982584981502
 20
168.0562558777271
 30
0.0
  0
VERTEX
  5
1890
  8
0
 10
269.2952311067541
 20
168.0524905117461
 30
0.0
  0
VERTEX
  5
1891
  8
0
 10
269.29293461672751
 20
168.04990214183621
 30
0.0
  0
VERTEX
  5
1892
  8
0
 10
269.29063888218172
 20
168.04684349451441
 30
0.0
  0
VERTEX
  5
1893
  8
0
 10
269.28605018272083
 20
168.03931606386701
 30
0.0
  0
VERTEX
  5
1894
  8
0
 10
269.28146601422088
 20
168.02990986982789
 30
0.0
  0
VERTEX
  5
1895
  8
0
 10
269.27688738153847
 20
168.018626974249
 30
0.0
  0
VERTEX
  5
1896
  8
0
 10
269.2723152883172
 20
168.005469850358
 30
0.0
  0
VERTEX
  5
1897
  8
0
 10
269.2677507367664
 20
167.99044138221629
 30
0.0
  0
VERTEX
  5
1898
  8
0
 10
269.26547160186198
 20
167.9822264075043
 30
0.0
  0
VERTEX
  5
1899
  8
0
 10
269.26319472744291
 20
167.9735448640869
 30
0.0
  0
VERTEX
  5
189A
  8
0
 10
269.25864825903039
 20
167.95478399971191
 30
0.0
  0
VERTEX
  5
189B
  8
0
 10
269.25411232812212
 20
167.93416290150111
 30
0.0
  0
VERTEX
  5
189C
  8
0
 10
269.24958792900088
 20
167.91168608963039
 30
0.0
  0
VERTEX
  5
189D
  8
0
 10
269.2450760534216
 20
167.88735849105069
 30
0.0
  0
VERTEX
  5
189E
  8
0
 10
269.24057769039428
 20
167.8611854384084
 30
0.0
  0
VERTEX
  5
189F
  8
0
 10
269.23833388434912
 20
167.8474086439121
 30
0.0
  0
VERTEX
  5
18A0
  8
0
 10
269.2360938259668
 20
167.8331726688759
 30
0.0
  0
VERTEX
  5
18A1
  8
0
 10
269.23162544300919
 20
167.8033263228948
 30
0.0
  0
VERTEX
  5
18A2
  8
0
 10
269.22717352099738
 20
167.77165294282901
 30
0.0
  0
VERTEX
  5
18A3
  8
0
 10
269.22495403795187
 20
167.75513326905269
 30
0.0
  0
SEQEND
  5
18A4
  8
0
  0
LINE
  5
938
  8
0
 10
269.92564921795707
 20
180.01091729594361
 30
0.0
 11
269.92564921795707
 21
170.24233372292269
 31
0.0
  0
LINE
  5
939
  8
0
 10
269.92564921795707
 20
170.24233372292269
 30
0.0
 11
269.75436930739312
 21
168.64754647301899
 31
0.0
  0
LINE
  5
93A
  8
0
 10
268.37680226618693
 20
172.47155475458129
 30
0.0
 11
268.37680226618693
 21
159.86788971849541
 31
0.0
  0
LINE
  5
93C
  8
0
 10
285.92564921795719
 20
135.99837413792719
 30
0.0
 11
264.92564921795707
 21
135.99837413792719
 31
0.0
  0
POLYLINE
  5
93E
  8
0
 66
     1
 10
0.0
 20
0.0
 30
0.0
  0
VERTEX
  5
18A5
  8
0
 10
268.45901682623838
 20
159.27162356035581
 30
0.0
  0
VERTEX
  5
18A6
  8
0
 10
268.62213735719928
 20
158.77718909953921
 30
0.0
  0
VERTEX
  5
18A7
  8
0
 10
268.86089957398121
 20
157.7540695995861
 30
0.0
  0
VERTEX
  5
18A8
  8
0
 10
268.9806930072258
 20
156.68984009459109
 30
0.0
  0
VERTEX
  5
18A9
  8
0
 10
268.99564921795718
 20
156.14420960036171
 30
0.0
  0
SEQEND
  5
18AA
  8
0
  0
POLYLINE
  5
940
  8
0
 66
     1
 10
0.0
 20
0.0
 30
0.0
  0
VERTEX
  5
18AB
  8
0
 10
268.37680226618693
 20
159.86788971849541
 30
0.0
  0
VERTEX
  5
18AC
  8
0
 10
268.37519907113551
 20
159.84843220532511
 30
0.0
  0
VERTEX
  5
18AD
  8
0
 10
268.37287810099718
 20
159.80959501172319
 30
0.0
  0
VERTEX
  5
18AE
  8
0
 10
268.37172516847278
 20
159.7708724070109
 30
0.0
  0
VERTEX
  5
18AF
  8
0
 10
268.37158181333098
 20
159.75155814466831
 30
0.0
  0
SEQEND
  5
18B0
  8
0
  0
POLYLINE
  5
941
  8
0
 66
     1
 10
0.0
 20
0.0
 30
0.0
  0
VERTEX
  5
18B1
  8
0
 10
268.37158181333098
 20
159.75155814466831
 30
0.0
  0
VERTEX
  5
18B2
  8
0
 10
268.37392866359272
 20
159.67327926866341
 30
0.0
  0
VERTEX
  5
18B3
  8
0
 10
268.39302984187191
 20
159.5143841069324
 30
0.0
  0
VERTEX
  5
18B4
  8
0
 10
268.43194904621328
 20
159.35300507112891
 30
0.0
  0
VERTEX
  5
18B5
  8
0
 10
268.45901682623838
 20
159.27162356035581
 30
0.0
  0
SEQEND
  5
18B6
  8
0
  0
POLYLINE
  5
942
  8
0
 66
     1
 10
0.0
 20
0.0
 30
0.0
  0
VERTEX
  5
18B7
  8
0
 10
269.22495403795187
 20
167.75513326905241
 30
0.0
  0
VERTEX
  5
18B8
  8
0
 10
269.0813957716486
 20
166.62965532561671
 30
0.0
  0
VERTEX
  5
18B9
  8
0
 10
268.79676109030572
 20
164.1504042242623
 30
0.0
  0
VERTEX
  5
18BA
  8
0
 10
268.5157865845664
 20
161.3698686206186
 30
0.0
  0
VERTEX
  5
18BB
  8
0
 10
268.37680226618693
 20
159.86788971849541
 30
0.0
  0
SEQEND
  5
18BC
  8
0
  0
LINE
  5
943
  8
0
 10
269.22495403795187
 20
167.75513326905261
 30
0.0
 11
281.62634439796238
 21
167.75513326905261
 31
0.0
  0
POLYLINE
  5
944
  8
0
 66
     1
 10
0.0
 20
0.0
 30
0.0
  0
VERTEX
  5
18BD
  8
0
 10
282.47449616972739
 20
159.86788971849541
 30
0.0
  0
VERTEX
  5
18BE
  8
0
 10
282.33551185134792
 20
161.3698686206186
 30
0.0
  0
VERTEX
  5
18BF
  8
0
 10
282.05453734560848
 20
164.1504042242623
 30
0.0
  0
VERTEX
  5
18C0
  8
0
 10
281.76990266426571
 20
166.62965532561671
 30
0.0
  0
VERTEX
  5
18C1
  8
0
 10
281.62634439796238
 20
167.75513326905241
 30
0.0
  0
SEQEND
  5
18C2
  8
0
  0
POLYLINE
  5
945
  8
0
 66
     1
 10
0.0
 20
0.0
 30
0.0
  0
VERTEX
  5
18C3
  8
0
 10
282.39228160967588
 20
159.27162356035581
 30
0.0
  0
VERTEX
  5
18C4
  8
0
 10
282.41934938970093
 20
159.35300507112891
 30
0.0
  0
VERTEX
  5
18C5
  8
0
 10
282.45826859404229
 20
159.5143841069324
 30
0.0
  0
VERTEX
  5
18C6
  8
0
 10
282.47736977232159
 20
159.67327926866341
 30
0.0
  0
VERTEX
  5
18C7
  8
0
 10
282.47971662258323
 20
159.75155814466839
 30
0.0
  0
SEQEND
  5
18C8
  8
0
  0
POLYLINE
  5
946
  8
0
 66
     1
 10
0.0
 20
0.0
 30
0.0
  0
VERTEX
  5
18C9
  8
0
 10
282.47971662258323
 20
159.75155814466839
 30
0.0
  0
VERTEX
  5
18CA
  8
0
 10
282.47957326744142
 20
159.7708724070109
 30
0.0
  0
VERTEX
  5
18CB
  8
0
 10
282.47842033491708
 20
159.80959501172319
 30
0.0
  0
VERTEX
  5
18CC
  8
0
 10
282.47609936477869
 20
159.84843220532511
 30
0.0
  0
VERTEX
  5
18CD
  8
0
 10
282.47449616972739
 20
159.86788971849541
 30
0.0
  0
SEQEND
  5
18CE
  8
0
  0
POLYLINE
  5
948
  8
0
 66
     1
 10
0.0
 20
0.0
 30
0.0
  0
VERTEX
  5
18CF
  8
0
 10
281.85564921795708
 20
156.14420960036171
 30
0.0
  0
VERTEX
  5
18D0
  8
0
 10
281.87060542868852
 20
156.68984009459109
 30
0.0
  0
VERTEX
  5
18D1
  8
0
 10
281.99039886193299
 20
157.7540695995861
 30
0.0
  0
VERTEX
  5
18D2
  8
0
 10
282.22916107871492
 20
158.77718909953921
 30
0.0
  0
VERTEX
  5
18D3
  8
0
 10
282.39228160967588
 20
159.27162356035581
 30
0.0
  0
SEQEND
  5
18D4
  8
0
  0
POLYLINE
  5
949
  8
0
 66
     1
 10
0.0
 20
0.0
 30
0.0
  0
VERTEX
  5
18D5
  8
0
 10
285.36033073449698
 20
163.8801142987644
 30
0.0
  0
VERTEX
  5
18D6
  8
0
 10
285.419691874482
 20
163.83201515469469
 30
0.0
  0
VERTEX
  5
18D7
  8
0
 10
285.53306621115053
 20
163.73516944864991
 30
0.0
  0
VERTEX
  5
18D8
  8
0
 10
285.63927424202302
 20
163.63758832133601
 30
0.0
  0
VERTEX
  5
18D9
  8
0
 10
285.68968378150112
 20
163.5885706161755
 30
0.0
  0
VERTEX
  5
18DA
  8
0
 10
285.73829601170758
 20
163.5394283062839
 30
0.0
  0
VERTEX
  5
18DB
  8
0
 10
285.83013432964788
 20
163.4408528718734
 30
0.0
  0
VERTEX
  5
18DC
  8
0
 10
285.91481616394827
 20
163.34203171179641
 30
0.0
  0
VERTEX
  5
18DD
  8
0
 10
285.99239394718848
 20
163.24313971468891
 30
0.0
  0
VERTEX
  5
18DE
  8
0
 10
286.06294645536849
 20
163.14435592384069
 30
0.0
  0
VERTEX
  5
18DF
  8
0
 10
286.12660794620467
 20
163.04581571470689
 30
0.0
  0
VERTEX
  5
18E0
  8
0
 10
286.15617575685093
 20
162.99620499293229
 30
0.0
  0
VERTEX
  5
18E1
  8
0
 10
286.18435751528278
 20
162.94613868386901
 30
0.0
  0
VERTEX
  5
18E2
  8
0
 10
286.23643360175788
 20
162.84470010331651
 30
0.0
  0
VERTEX
  5
18E3
  8
0
 10
286.28259277976719
 20
162.7416244242099
 30
0.0
  0
VERTEX
  5
18E4
  8
0
 10
286.32261624004332
 20
162.63704000940459
 30
0.0
  0
VERTEX
  5
18E5
  8
0
 10
286.35631014528423
 20
162.5310781791986
 30
0.0
  0
VERTEX
  5
18E6
  8
0
 10
286.38350566221578
 20
162.4238722167168
 30
0.0
  0
VERTEX
  5
18E7
  8
0
 10
286.3946205371231
 20
162.3698446173444
 30
0.0
  0
VERTEX
  5
18E8
  8
0
 10
286.40405867095291
 20
162.31555632885431
 30
0.0
  0
VERTEX
  5
18E9
  8
0
 10
286.4178490614845
 20
162.20626547729779
 30
0.0
  0
VERTEX
  5
18EA
  8
0
 10
286.42477996297549
 20
162.0961377454752
 30
0.0
  0
VERTEX
  5
18EB
  8
0
 10
286.42564921795707
 20
162.04080418299461
 30
0.0
  0
SEQEND
  5
18EC
  8
0
  0
POLYLINE
  5
94A
  8
0
 66
     1
 10
0.0
 20
0.0
 30
0.0
  0
VERTEX
  5
18ED
  8
0
 10
282.4806379406624
 20
167.5757821409774
 30
0.0
  0
VERTEX
  5
18EE
  8
0
 10
282.78975366365978
 20
166.99747981763781
 30
0.0
  0
VERTEX
  5
18EF
  8
0
 10
283.23578837220111
 20
166.2999629718353
 30
0.0
  0
VERTEX
  5
18F0
  8
0
 10
283.38037063542492
 20
166.09662113552059
 30
0.0
  0
VERTEX
  5
18F1
  8
0
 10
283.53262008008949
 20
165.89163757160441
 30
0.0
  0
VERTEX
  5
18F2
  8
0
 10
283.6116240237784
 20
165.788558117923
 30
0.0
  0
VERTEX
  5
18F3
  8
0
 10
283.6925485240742
 20
165.6851020169843
 30
0.0
  0
VERTEX
  5
18F4
  8
0
 10
283.8601592594174
 20
165.47710585794951
 30
0.0
  0
VERTEX
  5
18F5
  8
0
 10
284.03544780168971
 20
165.2677412926023
 30
0.0
  0
VERTEX
  5
18F6
  8
0
 10
284.21840324820249
 20
165.05709996887941
 30
0.0
  0
VERTEX
  5
18F7
  8
0
 10
284.40900438159372
 20
164.84527762619169
 30
0.0
  0
VERTEX
  5
18F8
  8
0
 10
284.6072212928625
 20
164.63237197235239
 30
0.0
  0
VERTEX
  5
18F9
  8
0
 10
284.70917404646798
 20
164.52554384974059
 30
0.0
  0
VERTEX
  5
18FA
  8
0
 10
284.81301578241852
 20
164.41848220254411
 30
0.0
  0
VERTEX
  5
18FB
  8
0
 10
285.0263415573591
 20
164.20370879332191
 30
0.0
  0
VERTEX
  5
18FC
  8
0
 10
285.24714445662107
 20
163.98815329003941
 30
0.0
  0
VERTEX
  5
18FD
  8
0
 10
285.3603307344971
 20
163.8801142987644
 30
0.0
  0
SEQEND
  5
18FE
  8
0
  0
POLYLINE
  5
94B
  8
0
 66
     1
 10
0.0
 20
0.0
 30
0.0
  0
VERTEX
  5
18FF
  8
0
 10
282.47449616972739
 20
172.47155475458129
 30
0.0
  0
VERTEX
  5
1900
  8
0
 10
282.47609888268181
 20
172.45888955797881
 30
0.0
  0
VERTEX
  5
1901
  8
0
 10
282.47841981702447
 20
172.43360241231679
 30
0.0
  0
VERTEX
  5
1902
  8
0
 10
282.47957317205152
 20
172.4083800348088
 30
0.0
  0
VERTEX
  5
1903
  8
0
 10
282.47971662258323
 20
172.395795809763
 30
0.0
  0
SEQEND
  5
1904
  8
0
  0
POLYLINE
  5
94C
  8
0
 66
     1
 10
0.0
 20
0.0
 30
0.0
  0
VERTEX
  5
1905
  8
0
 10
280.92564921795707
 20
180.01091729594361
 30
0.0
  0
VERTEX
  5
1906
  8
0
 10
281.18656380151702
 20
179.2422342747619
 30
0.0
  0
VERTEX
  5
1907
  8
0
 10
281.7056407663772
 20
177.11683513376499
 30
0.0
  0
VERTEX
  5
1908
  8
0
 10
282.2197668040871
 20
174.21288517974841
 30
0.0
  0
VERTEX
  5
1909
  8
0
 10
282.47449616972739
 20
172.47155475458121
 30
0.0
  0
SEQEND
  5
190A
  8
0
  0
POLYLINE
  5
94D
  8
0
 66
     1
 10
0.0
 20
0.0
 30
0.0
  0
VERTEX
  5
190B
  8
0
 10
279.82659170732973
 20
180.29617719746011
 30
0.0
  0
VERTEX
  5
190C
  8
0
 10
279.88453612505032
 20
180.2898475672003
 30
0.0
  0
VERTEX
  5
190D
  8
0
 10
279.99665950049462
 20
180.27681407017531
 30
0.0
  0
VERTEX
  5
190E
  8
0
 10
280.10346883424342
 20
180.26329517118771
 30
0.0
  0
VERTEX
  5
190F
  8
0
 10
280.15477852210802
 20
180.2563592409538
 30
0.0
  0
VERTEX
  5
1910
  8
0
 10
280.20464029737741
 20
180.24930898068561
 30
0.0
  0
VERTEX
  5
1911
  8
0
 10
280.29987732013041
 20
180.234876469353
 30
0.0
  0
VERTEX
  5
1912
  8
0
 10
280.38891448913603
 20
180.22002118004551
 30
0.0
  0
VERTEX
  5
1913
  8
0
 10
280.47152067016998
 20
180.20476885230991
 30
0.0
  0
VERTEX
  5
1914
  8
0
 10
280.54750713507588
 20
180.18914567521259
 30
0.0
  0
VERTEX
  5
1915
  8
0
 10
280.61674126659551
 20
180.17317386063931
 30
0.0
  0
VERTEX
  5
1916
  8
0
 10
280.64878314534838
 20
180.1650665429712
 30
0.0
  0
VERTEX
  5
1917
  8
0
 10
280.67908826657998
 20
180.1568838091423
 30
0.0
  0
VERTEX
  5
1918
  8
0
 10
280.73444127294692
 20
180.14030961847411
 30
0.0
  0
VERTEX
  5
1919
  8
0
 10
280.78272916194021
 20
180.12348769643569
 30
0.0
  0
VERTEX
  5
191A
  8
0
 10
280.8239184264441
 20
180.1064562612209
 30
0.0
  0
VERTEX
  5
191B
  8
0
 10
280.858013808686
 20
180.0892548885061
 30
0.0
  0
VERTEX
  5
191C
  8
0
 10
280.8850565731571
 20
180.07192515116861
 30
0.0
  0
VERTEX
  5
191D
  8
0
 10
280.89595606233661
 20
180.063225879463
 30
0.0
  0
VERTEX
  5
191E
  8
0
 10
280.90512462140839
 20
180.0545112959762
 30
0.0
  0
VERTEX
  5
191F
  8
0
 10
280.91833503311477
 20
180.03705978188631
 30
0.0
  0
VERTEX
  5
1920
  8
0
 10
280.92484568235773
 20
180.01961866420899
 30
0.0
  0
VERTEX
  5
1921
  8
0
 10
280.92564921795707
 20
180.01091729594361
 30
0.0
  0
SEQEND
  5
1922
  8
0
  0
POLYLINE
  5
94E
  8
0
 66
     1
 10
0.0
 20
0.0
 30
0.0
  0
VERTEX
  5
1923
  8
0
 10
269.92564921795707
 20
180.01091729594361
 30
0.0
  0
VERTEX
  5
1924
  8
0
 10
269.92645280451819
 20
180.01961893958051
 30
0.0
  0
VERTEX
  5
1925
  8
0
 10
269.9329637329011
 20
180.03706036797101
 30
0.0
  0
VERTEX
  5
1926
  8
0
 10
269.94617440939072
 20
180.05451192036489
 30
0.0
  0
VERTEX
  5
1927
  8
0
 10
269.95534301734278
 20
180.06322643827841
 30
0.0
  0
VERTEX
  5
1928
  8
0
 10
269.96624246647008
 20
180.07192559689759
 30
0.0
  0
VERTEX
  5
1929
  8
0
 10
269.99328480880558
 20
180.08925499113721
 30
0.0
  0
VERTEX
  5
192A
  8
0
 10
270.02737922615171
 20
180.1064559048593
 30
0.0
  0
VERTEX
  5
192B
  8
0
 10
270.06856693396333
 20
180.12348681080479
 30
0.0
  0
VERTEX
  5
192C
  8
0
 10
270.11685270624429
 20
180.14030818208539
 30
0.0
  0
VERTEX
  5
192D
  8
0
 10
270.172203140975
 20
180.1568818464589
 30
0.0
  0
VERTEX
  5
192E
  8
0
 10
270.2025068561606
 20
180.16506433917209
 30
0.0
  0
VERTEX
  5
192F
  8
0
 10
270.23454728276869
 20
180.17317143651141
 30
0.0
  0
VERTEX
  5
1930
  8
0
 10
270.3037784923651
 20
180.18914288860631
 30
0.0
  0
VERTEX
  5
1931
  8
0
 10
270.37976205024961
 20
180.2047657929302
 30
0.0
  0
VERTEX
  5
1932
  8
0
 10
270.46236562909797
 20
180.2200179673234
 30
0.0
  0
VERTEX
  5
1933
  8
0
 10
270.55140118073132
 20
180.23487330145699
 30
0.0
  0
VERTEX
  5
1934
  8
0
 10
270.6466380970474
 20
180.2493060814455
 30
0.0
  0
VERTEX
  5
1935
  8
0
 10
270.69650056193399
 20
180.25635656584041
 30
0.0
  0
VERTEX
  5
1936
  8
0
 10
270.74781153257601
 20
180.26329278218751
 30
0.0
  0
VERTEX
  5
1937
  8
0
 10
270.85462551198918
 20
180.2768124426521
 30
0.0
  0
VERTEX
  5
1938
  8
0
 10
270.96675683515502
 20
180.28984695664789
 30
0.0
  0
VERTEX
  5
1939
  8
0
 10
271.02470672858442
 20
180.29617719746011
 30
0.0
  0
SEQEND
  5
193A
  8
0
  0
POLYLINE
  5
94F
  8
0
 66
     1
 10
0.0
 20
0.0
 30
0.0
  0
VERTEX
  5
193B
  8
0
 10
268.37680226618693
 20
172.47155475458121
 30
0.0
  0
VERTEX
  5
193C
  8
0
 10
268.63153163182722
 20
174.21288517974841
 30
0.0
  0
VERTEX
  5
193D
  8
0
 10
269.14565766953712
 20
177.11683513376499
 30
0.0
  0
VERTEX
  5
193E
  8
0
 10
269.66473463439729
 20
179.2422342747619
 30
0.0
  0
VERTEX
  5
193F
  8
0
 10
269.92564921795707
 20
180.01091729594361
 30
0.0
  0
SEQEND
  5
1940
  8
0
  0
POLYLINE
  5
950
  8
0
 66
     1
 10
0.0
 20
0.0
 30
0.0
  0
VERTEX
  5
1941
  8
0
 10
268.37158181333098
 20
172.39579580976289
 30
0.0
  0
VERTEX
  5
1942
  8
0
 10
268.37172526386269
 20
172.40838003480869
 30
0.0
  0
VERTEX
  5
1943
  8
0
 10
268.37287861888967
 20
172.4336024123167
 30
0.0
  0
VERTEX
  5
1944
  8
0
 10
268.37519955323251
 20
172.45888955797881
 30
0.0
  0
VERTEX
  5
1945
  8
0
 10
268.37680226618693
 20
172.47155475458129
 30
0.0
  0
SEQEND
  5
1946
  8
0
  0
POLYLINE
  5
951
  8
0
 66
     1
 10
0.0
 20
0.0
 30
0.0
  0
VERTEX
  5
1947
  8
0
 10
265.49096770141722
 20
163.8801142987644
 30
0.0
  0
VERTEX
  5
1948
  8
0
 10
265.60415397929199
 20
163.98815329003821
 30
0.0
  0
VERTEX
  5
1949
  8
0
 10
265.8249568785518
 20
164.20370879331861
 30
0.0
  0
VERTEX
  5
194A
  8
0
 10
266.03828265349279
 20
164.4184822025409
 30
0.0
  0
VERTEX
  5
194B
  8
0
 10
266.14212438944338
 20
164.52554384973769
 30
0.0
  0
VERTEX
  5
194C
  8
0
 10
266.24407714304908
 20
164.6323719723494
 30
0.0
  0
VERTEX
  5
194D
  8
0
 10
266.4422940543181
 20
164.84527762618899
 30
0.0
  0
VERTEX
  5
194E
  8
0
 10
266.63289518770938
 20
165.05709996887691
 30
0.0
  0
VERTEX
  5
194F
  8
0
 10
267.23967441213449
 20
165.78855811792121
 30
0.0
  0
VERTEX
  5
1950
  8
0
 10
268.06154477225408
 20
166.99747981763721
 30
0.0
  0
VERTEX
  5
1951
  8
0
 10
268.37066049525191
 20
167.57578214097731
 30
0.0
  0
SEQEND
  5
1952
  8
0
  0
POLYLINE
  5
952
  8
0
 66
     1
 10
0.0
 20
0.0
 30
0.0
  0
VERTEX
  5
1953
  8
0
 10
264.42564921795707
 20
162.04080418299461
 30
0.0
  0
VERTEX
  5
1954
  8
0
 10
264.42651847293888
 20
162.0961377454752
 30
0.0
  0
VERTEX
  5
1955
  8
0
 10
264.43344937442981
 20
162.20626547729779
 30
0.0
  0
VERTEX
  5
1956
  8
0
 10
264.4472397649613
 20
162.3155563288544
 30
0.0
  0
VERTEX
  5
1957
  8
0
 10
264.45667789879121
 20
162.3698446173444
 30
0.0
  0
VERTEX
  5
1958
  8
0
 10
264.46779277369842
 20
162.4238722167168
 30
0.0
  0
VERTEX
  5
1959
  8
0
 10
264.49498829063009
 20
162.5310781791986
 30
0.0
  0
VERTEX
  5
195A
  8
0
 10
264.52868219587089
 20
162.63704000940459
 30
0.0
  0
VERTEX
  5
195B
  8
0
 10
264.56870565614702
 20
162.7416244242099
 30
0.0
  0
VERTEX
  5
195C
  8
0
 10
264.61486483415649
 20
162.84470010331651
 30
0.0
  0
VERTEX
  5
195D
  8
0
 10
264.66694092063142
 20
162.94613868386901
 30
0.0
  0
VERTEX
  5
195E
  8
0
 10
264.69512267906327
 20
162.99620499293229
 30
0.0
  0
VERTEX
  5
195F
  8
0
 10
264.72469048970959
 20
163.04581571470689
 30
0.0
  0
VERTEX
  5
1960
  8
0
 10
264.78835198054571
 20
163.14435592384069
 30
0.0
  0
VERTEX
  5
1961
  8
0
 10
264.85890448872573
 20
163.24313971468891
 30
0.0
  0
VERTEX
  5
1962
  8
0
 10
264.9364822719661
 20
163.34203171179641
 30
0.0
  0
VERTEX
  5
1963
  8
0
 10
265.02116410626638
 20
163.4408528718734
 30
0.0
  0
VERTEX
  5
1964
  8
0
 10
265.11300242420663
 20
163.5394283062839
 30
0.0
  0
VERTEX
  5
1965
  8
0
 10
265.1616146544132
 20
163.5885706161755
 30
0.0
  0
VERTEX
  5
1966
  8
0
 10
265.2120241938913
 20
163.63758832133601
 30
0.0
  0
VERTEX
  5
1967
  8
0
 10
265.31823222476368
 20
163.73516944864991
 30
0.0
  0
VERTEX
  5
1968
  8
0
 10
265.4316065614322
 20
163.83201515469469
 30
0.0
  0
VERTEX
  5
1969
  8
0
 10
265.49096770141722
 20
163.8801142987644
 30
0.0
  0
SEQEND
  5
196A
  8
0
  0
LINE
  5
953
  8
0
 10
270.42564921795707
 20
86.918374137927174
 30
0.0
 11
280.42564921795707
 21
86.918374137927174
 31
0.0
  0
LINE
  5
954
  8
0
 10
271.34564921795709
 20
85.998374137927186
 30
0.0
 11
279.50564921795728
 21
85.998374137927186
 31
0.0
  0
LINE
  5
955
  8
0
 10
267.42564921795707
 20
125.9983741379272
 30
0.0
 11
283.42564921795707
 21
125.9983741379272
 31
0.0
  0
LINE
  5
956
  8
3
 10
279.50564921795728
 20
85.998374137927186
 30
0.0
 11
279.50564921795728
 21
125.9983741379272
 31
0.0
  0
LINE
  5
957
  8
0
 10
280.42564921795707
 20
125.9983741379272
 30
0.0
 11
279.50564921795728
 21
125.9983741379272
 31
0.0
  0
LINE
  5
958
  8
3
 10
271.34564921795709
 20
85.998374137927186
 30
0.0
 11
271.34564921795709
 21
125.9983741379272
 31
0.0
  0
LINE
  5
959
  8
0
 10
270.42564921795707
 20
125.9983741379272
 30
0.0
 11
271.34564921795709
 21
125.9983741379272
 31
0.0
  0
LINE
  5
995
  8
1
 10
51.212626776428472
 20
183.29617719746011
 30
0.0
 11
51.212626776428458
 21
82.998374137927172
 31
0.0
  0
LINE
  5
996
  8
0
 10
55.476038827841521
 20
180.30322248146879
 30
0.0
 11
46.94921472501543
 21
180.30322248146879
 31
0.0
  0
LINE
  5
997
  8
0
 10
44.15855937180234
 20
172.395795809763
 30
0.0
 11
44.15855937180234
 21
167.59828976139099
 31
0.0
  0
LINE
  5
998
  8
0
 10
61.712626776428472
 20
135.99837413792719
 30
0.0
 11
62.212626776428472
 21
162.04080418300481
 31
0.0
  0
LINE
  5
999
  8
0
 10
40.212626776428451
 20
162.04080418300481
 30
0.0
 11
40.712626776428444
 21
135.99837413792719
 31
0.0
  0
LINE
  5
99A
  8
0
 10
58.266694181054561
 20
167.5982897613909
 30
0.0
 11
58.266694181054561
 21
172.39579580976289
 31
0.0
  0
ARC
  5
99D
  8
0
 10
51.212626776428458
 20
157.49837413792719
 30
0.0
 40
10.00000000000002
 50
56.25101140411136
 51
123.7489885958886
  0
ARC
  5
99E
  8
0
 10
46.212626776428451
 20
164.981688911475
 30
0.0
 40
1.0
 50
123.74898859588821
 51
180.0
  0
ARC
  5
99F
  8
0
 10
56.2126267764285
 20
164.98168891147509
 30
0.0
 40
0.9999999999999785
 50
0.0
 51
56.251011404112248
  0
LINE
  5
9A0
  8
0
 10
56.212626776428458
 20
86.918374137927174
 30
0.0
 11
56.212626776428458
 21
125.9983741379272
 31
0.0
  0
LINE
  5
9A1
  8
0
 10
46.212626776428451
 20
125.9983741379272
 30
0.0
 11
46.212626776428451
 21
86.918374137927174
 31
0.0
  0
LINE
  5
9A2
  8
0
 10
55.292626776428463
 20
85.998374137927186
 30
0.0
 11
56.212626776428458
 21
86.918374137927174
 31
0.0
  0
LINE
  5
9A3
  8
0
 10
46.212626776428451
 20
86.918374137927174
 30
0.0
 11
47.132626776428467
 21
85.998374137927186
 31
0.0
  0
LINE
  5
9A4
  8
0
 10
57.212626776428472
 20
161.50940443849609
 30
0.0
 11
57.212626776428472
 21
164.981688911475
 31
0.0
  0
LINE
  5
9A5
  8
0
 10
45.212626776428451
 20
164.981688911475
 30
0.0
 11
45.212626776428451
 21
161.5094043870088
 31
0.0
  0
LINE
  5
9A6
  8
0
 10
59.212626776428472
 20
125.9983741379272
 30
0.0
 11
59.212626776428472
 21
135.99837413792719
 31
0.0
  0
LINE
  5
9A7
  8
0
 10
43.212626776428444
 20
135.99837413792719
 30
0.0
 11
43.212626776428444
 21
125.9983741379272
 31
0.0
  0
LINE
  5
9A8
  8
0
 10
54.459147991513902
 20
154.31687173706959
 30
0.0
 11
47.966105561343007
 21
154.31687173706959
 31
0.0
  0
POLYLINE
  5
9A9
  8
0
 66
     1
 10
0.0
 20
0.0
 30
0.0
  0
VERTEX
  5
196B
  8
0
 10
55.613569265801168
 20
180.29617719746011
 30
0.0
  0
VERTEX
  5
196C
  8
0
 10
55.591077588050247
 20
180.29836397301131
 30
0.0
  0
VERTEX
  5
196D
  8
0
 10
55.545538394674701
 20
180.30149914126309
 30
0.0
  0
VERTEX
  5
196E
  8
0
 10
55.499345549416887
 20
180.30303403251941
 30
0.0
  0
VERTEX
  5
196F
  8
0
 10
55.476038827562959
 20
180.30322248146879
 30
0.0
  0
SEQEND
  5
1970
  8
0
  0
POLYLINE
  5
9AA
  8
0
 66
     1
 10
0.0
 20
0.0
 30
0.0
  0
VERTEX
  5
1971
  8
0
 10
46.949214725293963
 20
180.30322248146879
 30
0.0
  0
VERTEX
  5
1972
  8
0
 10
46.925908003440071
 20
180.30303403251941
 30
0.0
  0
VERTEX
  5
1973
  8
0
 10
46.879715158182222
 20
180.30149914126309
 30
0.0
  0
VERTEX
  5
1974
  8
0
 10
46.834175964806647
 20
180.29836397301131
 30
0.0
  0
VERTEX
  5
1975
  8
0
 10
46.811684287055769
 20
180.29617719746011
 30
0.0
  0
SEQEND
  5
1976
  8
0
  0
POLYLINE
  5
9AD
  8
0
 66
     1
 10
0.0
 20
0.0
 30
0.0
  0
VERTEX
  5
1977
  8
0
 10
54.459147991513902
 20
154.31687173706959
 30
0.0
  0
VERTEX
  5
1978
  8
0
 10
54.459542518955622
 20
154.3517824066908
 30
0.0
  0
VERTEX
  5
1979
  8
0
 10
54.462616728689461
 20
154.42040913115019
 30
0.0
  0
VERTEX
  5
197A
  8
0
 10
54.468562798404292
 20
154.48751727520661
 30
0.0
  0
VERTEX
  5
197B
  8
0
 10
54.472550718318679
 20
154.52053132505969
 30
0.0
  0
VERTEX
  5
197C
  8
0
 10
54.47718415222996
 20
154.553201552872
 30
0.0
  0
VERTEX
  5
197D
  8
0
 10
54.488300511530063
 20
154.6175593192614
 30
0.0
  0
VERTEX
  5
197E
  8
0
 10
54.501747752125517
 20
154.68068650737979
 30
0.0
  0
VERTEX
  5
197F
  8
0
 10
54.517376743726373
 20
154.74267414858241
 30
0.0
  0
VERTEX
  5
1980
  8
0
 10
54.53505154512618
 20
154.8036057814794
 30
0.0
  0
VERTEX
  5
1981
  8
0
 10
54.554647339983489
 20
154.86355589424721
 30
0.0
  0
VERTEX
  5
1982
  8
0
 10
54.565129274667271
 20
154.8931838734311
 30
0.0
  0
VERTEX
  5
1983
  8
0
 10
54.576049222200389
 20
154.9225914330859
 30
0.0
  0
VERTEX
  5
1984
  8
0
 10
54.599153407501447
 20
154.9807782962877
 30
0.0
  0
VERTEX
  5
1985
  8
0
 10
54.623867014515632
 20
155.0381816648094
 30
0.0
  0
VERTEX
  5
1986
  8
0
 10
54.650106914795593
 20
155.0948643620863
 30
0.0
  0
VERTEX
  5
1987
  8
0
 10
54.677798469976928
 20
155.15088567035991
 30
0.0
  0
VERTEX
  5
1988
  8
0
 10
54.706874258605751
 20
155.2063005311048
 30
0.0
  0
VERTEX
  5
1989
  8
0
 10
54.721911847790857
 20
155.23379640786979
 30
0.0
  0
VERTEX
  5
198A
  8
0
 10
54.737272880507568
 20
155.26115909075151
 30
0.0
  0
VERTEX
  5
198B
  8
0
 10
54.768937884723499
 20
155.31550652039141
 30
0.0
  0
VERTEX
  5
198C
  8
0
 10
54.801802135314723
 20
155.36935946529661
 30
0.0
  0
VERTEX
  5
198D
  8
0
 10
54.818662539991607
 20
155.3961033289446
 30
0.0
  0
VERTEX
  5
198E
  8
0
 10
54.835799804918281
 20
155.42273063719341
 30
0.0
  0
VERTEX
  5
198F
  8
0
 10
54.870880461847278
 20
155.4756504313176
 30
0.0
  0
VERTEX
  5
1990
  8
0
 10
54.906997466036302
 20
155.5281472508814
 30
0.0
  0
VERTEX
  5
1991
  8
0
 10
54.925430931277717
 20
155.55424533591869
 30
0.0
  0
VERTEX
  5
1992
  8
0
 10
54.944107449748103
 20
155.58024734899041
 30
0.0
  0
VERTEX
  5
1993
  8
0
 10
54.982169849801991
 20
155.63197474969559
 30
0.0
  0
VERTEX
  5
1994
  8
0
 10
55.021146495737803
 20
155.68335123318101
 30
0.0
  0
VERTEX
  5
1995
  8
0
 10
55.061001254858972
 20
155.73439637178419
 30
0.0
  0
VERTEX
  5
1996
  8
0
 10
55.10169976063171
 20
155.7851276397495
 30
0.0
  0
VERTEX
  5
1997
  8
0
 10
55.143209500643927
 20
155.83556091622501
 30
0.0
  0
VERTEX
  5
1998
  8
0
 10
55.164258950807998
 20
155.86067043534129
 30
0.0
  0
VERTEX
  5
1999
  8
0
 10
55.185499867985683
 20
155.88571085494939
 30
0.0
  0
VERTEX
  5
199A
  8
0
 10
55.228541932424008
 20
155.9355908694892
 30
0.0
  0
VERTEX
  5
199B
  8
0
 10
55.272308235025299
 20
155.9852131363308
 30
0.0
  0
VERTEX
  5
199C
  8
0
 10
55.430825566141692
 20
156.15700878022409
 30
0.0
  0
VERTEX
  5
199D
  8
0
 10
55.718094402304366
 20
156.44397869594411
 30
0.0
  0
VERTEX
  5
199E
  8
0
 10
56.018851358842937
 20
156.7203212650281
 30
0.0
  0
VERTEX
  5
199F
  8
0
 10
56.327395848869322
 20
156.98510334014011
 30
0.0
  0
VERTEX
  5
19A0
  8
0
 10
56.482951840113742
 20
157.11275786097781
 30
0.0
  0
VERTEX
  5
19A1
  8
0
 10
56.6385447673171
 20
157.23701064473099
 30
0.0
  0
VERTEX
  5
19A2
  8
0
 10
56.94751431141465
 20
157.4745312842532
 30
0.0
  0
VERTEX
  5
19A3
  8
0
 10
57.252075023802703
 20
157.69769642907031
 30
0.0
  0
VERTEX
  5
19A4
  8
0
 10
57.56085873010047
 20
157.9135482414589
 30
0.0
  0
VERTEX
  5
19A5
  8
0
 10
57.872942467640677
 20
158.1212926239977
 30
0.0
  0
VERTEX
  5
19A6
  8
0
 10
58.185675524691923
 20
158.3187880013146
 30
0.0
  0
VERTEX
  5
19A7
  8
0
 10
58.341496306835957
 20
158.4130368740235
 30
0.0
  0
VERTEX
  5
19A8
  8
0
 10
58.496548995997372
 20
158.5039427548366
 30
0.0
  0
VERTEX
  5
19A9
  8
0
 10
58.803183126003731
 20
158.67471204881079
 30
0.0
  0
VERTEX
  5
19AA
  8
0
 10
59.103340533119827
 20
158.82911696075661
 30
0.0
  0
VERTEX
  5
19AB
  8
0
 10
59.25036777512296
 20
158.8996037561393
 30
0.0
  0
SEQEND
  5
19AC
  8
0
  0
POLYLINE
  5
9AF
  8
0
 66
     1
 10
0.0
 20
0.0
 30
0.0
  0
VERTEX
  5
19AD
  8
0
 10
43.174885777733962
 20
158.8996037561393
 30
0.0
  0
VERTEX
  5
19AE
  8
0
 10
43.321913019737082
 20
158.82911696075661
 30
0.0
  0
VERTEX
  5
19AF
  8
0
 10
43.622070426853192
 20
158.67471204881079
 30
0.0
  0
VERTEX
  5
19B0
  8
0
 10
43.928704556859529
 20
158.5039427548366
 30
0.0
  0
VERTEX
  5
19B1
  8
0
 10
44.083757246020937
 20
158.4130368740235
 30
0.0
  0
VERTEX
  5
19B2
  8
0
 10
44.239578028164971
 20
158.3187880013146
 30
0.0
  0
VERTEX
  5
19B3
  8
0
 10
44.552311085216218
 20
158.1212926239977
 30
0.0
  0
VERTEX
  5
19B4
  8
0
 10
44.864394822756452
 20
157.9135482414589
 30
0.0
  0
VERTEX
  5
19B5
  8
0
 10
45.173178529054212
 20
157.69769642907031
 30
0.0
  0
VERTEX
  5
19B6
  8
0
 10
45.477739241442251
 20
157.4745312842532
 30
0.0
  0
VERTEX
  5
19B7
  8
0
 10
45.786708785539808
 20
157.23701064473099
 30
0.0
  0
VERTEX
  5
19B8
  8
0
 10
45.942301712743159
 20
157.11275786097781
 30
0.0
  0
VERTEX
  5
19B9
  8
0
 10
46.097857703987572
 20
156.98510334014011
 30
0.0
  0
VERTEX
  5
19BA
  8
0
 10
46.406402194013957
 20
156.7203212650281
 30
0.0
  0
VERTEX
  5
19BB
  8
0
 10
46.707159150552542
 20
156.44397869594411
 30
0.0
  0
VERTEX
  5
19BC
  8
0
 10
46.994427986715209
 20
156.15700878022409
 30
0.0
  0
VERTEX
  5
19BD
  8
0
 10
47.152945317831602
 20
155.9852131363308
 30
0.0
  0
VERTEX
  5
19BE
  8
0
 10
47.196711620432893
 20
155.9355908694892
 30
0.0
  0
VERTEX
  5
19BF
  8
0
 10
47.239753684871218
 20
155.88571085494939
 30
0.0
  0
VERTEX
  5
19C0
  8
0
 10
47.260994602048903
 20
155.86067043534129
 30
0.0
  0
VERTEX
  5
19C1
  8
0
 10
47.282044052212967
 20
155.83556091622501
 30
0.0
  0
VERTEX
  5
19C2
  8
0
 10
47.323553792225212
 20
155.7851276397495
 30
0.0
  0
VERTEX
  5
19C3
  8
0
 10
47.364252297997943
 20
155.73439637178419
 30
0.0
  0
VERTEX
  5
19C4
  8
0
 10
47.404107057119113
 20
155.68335123318101
 30
0.0
  0
VERTEX
  5
19C5
  8
0
 10
47.443083703054903
 20
155.63197474969559
 30
0.0
  0
VERTEX
  5
19C6
  8
0
 10
47.481146103108813
 20
155.58024734899041
 30
0.0
  0
VERTEX
  5
19C7
  8
0
 10
47.49982262157917
 20
155.55424533591869
 30
0.0
  0
VERTEX
  5
19C8
  8
0
 10
47.518256086820607
 20
155.5281472508814
 30
0.0
  0
VERTEX
  5
19C9
  8
0
 10
47.554373091009637
 20
155.4756504313176
 30
0.0
  0
VERTEX
  5
19CA
  8
0
 10
47.589453747938649
 20
155.42273063719341
 30
0.0
  0
VERTEX
  5
19CB
  8
0
 10
47.60659101286528
 20
155.3961033289446
 30
0.0
  0
VERTEX
  5
19CC
  8
0
 10
47.623451417542192
 20
155.36935946529661
 30
0.0
  0
VERTEX
  5
19CD
  8
0
 10
47.656315668133402
 20
155.31550652039141
 30
0.0
  0
VERTEX
  5
19CE
  8
0
 10
47.687980672349347
 20
155.26115909075151
 30
0.0
  0
VERTEX
  5
19CF
  8
0
 10
47.703341705066052
 20
155.23379640786979
 30
0.0
  0
VERTEX
  5
19D0
  8
0
 10
47.718379294251143
 20
155.2063005311048
 30
0.0
  0
VERTEX
  5
19D1
  8
0
 10
47.747455082879974
 20
155.15088567035991
 30
0.0
  0
VERTEX
  5
19D2
  8
0
 10
47.775146638061322
 20
155.0948643620863
 30
0.0
  0
VERTEX
  5
19D3
  8
0
 10
47.801386538341291
 20
155.0381816648094
 30
0.0
  0
VERTEX
  5
19D4
  8
0
 10
47.826100145355461
 20
154.9807782962877
 30
0.0
  0
VERTEX
  5
19D5
  8
0
 10
47.849204330656519
 20
154.9225914330859
 30
0.0
  0
VERTEX
  5
19D6
  8
0
 10
47.86012427818963
 20
154.8931838734311
 30
0.0
  0
VERTEX
  5
19D7
  8
0
 10
47.870606212873412
 20
154.86355589424721
 30
0.0
  0
VERTEX
  5
19D8
  8
0
 10
47.890202007730721
 20
154.8036057814794
 30
0.0
  0
VERTEX
  5
19D9
  8
0
 10
47.907876809130528
 20
154.74267414858241
 30
0.0
  0
VERTEX
  5
19DA
  8
0
 10
47.923505800731391
 20
154.68068650737979
 30
0.0
  0
VERTEX
  5
19DB
  8
0
 10
47.936953041326838
 20
154.6175593192614
 30
0.0
  0
VERTEX
  5
19DC
  8
0
 10
47.948069400626963
 20
154.553201552872
 30
0.0
  0
VERTEX
  5
19DD
  8
0
 10
47.952702834538229
 20
154.52053132505969
 30
0.0
  0
VERTEX
  5
19DE
  8
0
 10
47.956690754452623
 20
154.48751727520661
 30
0.0
  0
VERTEX
  5
19DF
  8
0
 10
47.962636824167433
 20
154.42040913115019
 30
0.0
  0
VERTEX
  5
19E0
  8
0
 10
47.965711033901272
 20
154.3517824066908
 30
0.0
  0
VERTEX
  5
19E1
  8
0
 10
47.966105561343007
 20
154.31687173706959
 30
0.0
  0
SEQEND
  5
19E2
  8
0
  0
LINE
  5
9B2
  8
0
 10
61.712626776428472
 20
135.99837413792719
 30
0.0
 11
40.712626776428444
 21
135.99837413792719
 31
0.0
  0
POLYLINE
  5
9B4
  8
0
 66
     1
 10
0.0
 20
0.0
 30
0.0
  0
VERTEX
  5
19E3
  8
0
 10
45.743882891663098
 20
161.03797097201661
 30
0.0
  0
VERTEX
  5
19E4
  8
0
 10
45.706258138265483
 20
161.06461547301981
 30
0.0
  0
VERTEX
  5
19E5
  8
0
 10
45.633345306483918
 20
161.11834248139741
 30
0.0
  0
VERTEX
  5
19E6
  8
0
 10
45.563583857689402
 20
161.17261669154681
 30
0.0
  0
VERTEX
  5
19E7
  8
0
 10
45.529897974653423
 20
161.1999445982417
 30
0.0
  0
VERTEX
  5
19E8
  8
0
 10
45.49701704251607
 20
161.22739029493351
 30
0.0
  0
VERTEX
  5
19E9
  8
0
 10
45.433692951543989
 20
161.28260625938651
 30
0.0
  0
VERTEX
  5
19EA
  8
0
 10
45.373653428092069
 20
161.33820618909161
 30
0.0
  0
VERTEX
  5
19EB
  8
0
 10
45.316933619294787
 20
161.39413061617239
 30
0.0
  0
VERTEX
  5
19EC
  8
0
 10
45.263561607834923
 20
161.45031929596709
 30
0.0
  0
VERTEX
  5
19ED
  8
0
 10
45.213558119892888
 20
161.50671150686719
 30
0.0
  0
VERTEX
  5
19EE
  8
0
 10
45.189823982234202
 20
161.53496490564629
 30
0.0
  0
VERTEX
  5
19EF
  8
0
 10
45.166936305966438
 20
161.56324635600521
 30
0.0
  0
VERTEX
  5
19F0
  8
0
 10
45.123701611001991
 20
161.61986306707209
 30
0.0
  0
VERTEX
  5
19F1
  8
0
 10
45.083852129606427
 20
161.67650064787821
 30
0.0
  0
VERTEX
  5
19F2
  8
0
 10
45.047379117128862
 20
161.733097055689
 30
0.0
  0
VERTEX
  5
19F3
  8
0
 10
45.014266663653139
 20
161.78958929416891
 30
0.0
  0
VERTEX
  5
19F4
  8
0
 10
44.984491282012137
 20
161.84591371786411
 30
0.0
  0
VERTEX
  5
19F5
  8
0
 10
44.970845500222957
 20
161.87399300694651
 30
0.0
  0
VERTEX
  5
19F6
  8
0
 10
44.958021584742113
 20
161.90200633471079
 30
0.0
  0
VERTEX
  5
19F7
  8
0
 10
44.934818046317361
 20
161.9578031073531
 30
0.0
  0
VERTEX
  5
19F8
  8
0
 10
44.914832847863487
 20
162.01324025502711
 30
0.0
  0
VERTEX
  5
19F9
  8
0
 10
44.906029895069928
 20
162.04080418307669
 30
0.0
  0
SEQEND
  5
19FA
  8
0
  0
POLYLINE
  5
9B5
  8
0
 66
     1
 10
0.0
 20
0.0
 30
0.0
  0
VERTEX
  5
19FB
  8
0
 10
44.906029895069928
 20
162.04080418307669
 30
0.0
  0
VERTEX
  5
19FC
  8
0
 10
44.897105484925447
 20
162.0715192684959
 30
0.0
  0
VERTEX
  5
19FD
  8
0
 10
44.881960063740813
 20
162.13336758536309
 30
0.0
  0
VERTEX
  5
19FE
  8
0
 10
44.870509076665442
 20
162.19571151067669
 30
0.0
  0
VERTEX
  5
19FF
  8
0
 10
44.866200253726063
 20
162.22704592421141
 30
0.0
  0
VERTEX
  5
1A00
  8
0
 10
44.86285122558661
 20
162.2584761004276
 30
0.0
  0
VERTEX
  5
1A01
  8
0
 10
44.85907461002963
 20
162.32158609448371
 30
0.0
  0
VERTEX
  5
1A02
  8
0
 10
44.859256721393763
 20
162.38496637196539
 30
0.0
  0
VERTEX
  5
1A03
  8
0
 10
44.863464564516789
 20
162.4485424022491
 30
0.0
  0
VERTEX
  5
1A04
  8
0
 10
44.871754908841993
 20
162.5122406940587
 30
0.0
  0
VERTEX
  5
1A05
  8
0
 10
44.884174672149499
 20
162.57598923691449
 30
0.0
  0
VERTEX
  5
1A06
  8
0
 10
44.891945153631347
 20
162.60786026403039
 30
0.0
  0
VERTEX
  5
1A07
  8
0
 10
44.900761278937729
 20
162.63971738606551
 30
0.0
  0
VERTEX
  5
1A08
  8
0
 10
44.921542532345107
 20
162.7033546098364
 30
0.0
  0
VERTEX
  5
1A09
  8
0
 10
44.94653643200833
 20
162.76683037352561
 30
0.0
  0
VERTEX
  5
1A0A
  8
0
 10
44.975751160334937
 20
162.8300745597362
 30
0.0
  0
VERTEX
  5
1A0B
  8
0
 10
45.009185186723663
 20
162.8930178830208
 30
0.0
  0
VERTEX
  5
1A0C
  8
0
 10
45.046827490519703
 20
162.95559229409241
 30
0.0
  0
VERTEX
  5
1A0D
  8
0
 10
45.067220790011419
 20
162.98672032767811
 30
0.0
  0
VERTEX
  5
1A0E
  8
0
 10
45.088657906663506
 20
163.01773137547619
 30
0.0
  0
VERTEX
  5
1A0F
  8
0
 10
45.134649257372502
 20
163.0793728465583
 30
0.0
  0
VERTEX
  5
1A10
  8
0
 10
45.184778574226627
 20
163.1404703842361
 30
0.0
  0
VERTEX
  5
1A11
  8
0
 10
45.211383065444991
 20
163.17079696783119
 30
0.0
  0
SEQEND
  5
1A12
  8
0
  0
POLYLINE
  5
9B6
  8
0
 66
     1
 10
0.0
 20
0.0
 30
0.0
  0
VERTEX
  5
1A13
  8
0
 10
57.213822562133288
 20
163.1708504300849
 30
0.0
  0
VERTEX
  5
1A14
  8
0
 10
57.240430779044971
 20
163.14052188286229
 30
0.0
  0
VERTEX
  5
1A15
  8
0
 10
57.290562056561463
 20
163.07942678232419
 30
0.0
  0
VERTEX
  5
1A16
  8
0
 10
57.33655370243406
 20
163.017790493056
 30
0.0
  0
VERTEX
  5
1A17
  8
0
 10
57.357990367069817
 20
162.98678330408359
 30
0.0
  0
VERTEX
  5
1A18
  8
0
 10
57.378382648136281
 20
162.9556604230431
 30
0.0
  0
VERTEX
  5
1A19
  8
0
 10
57.416022069713819
 20
162.89309964248631
 30
0.0
  0
VERTEX
  5
1A1A
  8
0
 10
57.449453335794601
 20
162.83017337392329
 30
0.0
  0
VERTEX
  5
1A1B
  8
0
 10
57.47866665561186
 20
162.76694834933369
 30
0.0
  0
VERTEX
  5
1A1C
  8
0
 10
57.503661393384419
 20
162.70349243005859
 30
0.0
  0
VERTEX
  5
1A1D
  8
0
 10
57.52444626601725
 20
162.63987421774081
 30
0.0
  0
VERTEX
  5
1A1E
  8
0
 10
57.533265307366861
 20
162.6080257940111
 30
0.0
  0
VERTEX
  5
1A1F
  8
0
 10
57.541039427448652
 20
162.57616265459691
 30
0.0
  0
VERTEX
  5
1A20
  8
0
 10
57.553468438063661
 20
162.51242662957671
 30
0.0
  0
VERTEX
  5
1A21
  8
0
 10
57.561770058338418
 20
162.44873528705099
 30
0.0
  0
VERTEX
  5
1A22
  8
0
 10
57.56599017681647
 20
162.3851592289094
 30
0.0
  0
VERTEX
  5
1A23
  8
0
 10
57.56618419953184
 20
162.32177047243181
 30
0.0
  0
VERTEX
  5
1A24
  8
0
 10
57.56241741927127
 20
162.2586420208074
 30
0.0
  0
VERTEX
  5
1A25
  8
0
 10
57.559071897376072
 20
162.227198385978
 30
0.0
  0
VERTEX
  5
1A26
  8
0
 10
57.554765256890143
 20
162.19584743051439
 30
0.0
  0
VERTEX
  5
1A27
  8
0
 10
57.543313378371877
 20
162.133460375982
 30
0.0
  0
VERTEX
  5
1A28
  8
0
 10
57.528157689545651
 20
162.07155420928359
 30
0.0
  0
VERTEX
  5
1A29
  8
0
 10
57.51922365781293
 20
162.0408041831615
 30
0.0
  0
SEQEND
  5
1A2A
  8
0
  0
POLYLINE
  5
9B7
  8
0
 66
     1
 10
0.0
 20
0.0
 30
0.0
  0
VERTEX
  5
1A2B
  8
0
 10
57.51922365781293
 20
162.0408041831615
 30
0.0
  0
VERTEX
  5
1A2C
  8
0
 10
57.510420705021012
 20
162.01324025510991
 30
0.0
  0
VERTEX
  5
1A2D
  8
0
 10
57.490435506570101
 20
161.9578031074318
 30
0.0
  0
VERTEX
  5
1A2E
  8
0
 10
57.467231968147772
 20
161.90200633478511
 30
0.0
  0
VERTEX
  5
1A2F
  8
0
 10
57.454408052667993
 20
161.87399300701861
 30
0.0
  0
VERTEX
  5
1A30
  8
0
 10
57.440762270879723
 20
161.84591371793391
 30
0.0
  0
VERTEX
  5
1A31
  8
0
 10
57.410986889240149
 20
161.7895892942341
 30
0.0
  0
VERTEX
  5
1A32
  8
0
 10
57.377874435765321
 20
161.7330970557496
 30
0.0
  0
VERTEX
  5
1A33
  8
0
 10
57.341401423288097
 20
161.67650064793401
 30
0.0
  0
VERTEX
  5
1A34
  8
0
 10
57.301551941892292
 20
161.61986306712319
 30
0.0
  0
VERTEX
  5
1A35
  8
0
 10
57.258317246927071
 20
161.56324635605131
 30
0.0
  0
VERTEX
  5
1A36
  8
0
 10
57.235429570658717
 20
161.5349649056898
 30
0.0
  0
VERTEX
  5
1A37
  8
0
 10
57.211695432999221
 20
161.50671150690829
 30
0.0
  0
VERTEX
  5
1A38
  8
0
 10
57.161691945055253
 20
161.4503192960033
 30
0.0
  0
VERTEX
  5
1A39
  8
0
 10
57.10831993359281
 20
161.39413061620371
 30
0.0
  0
VERTEX
  5
1A3A
  8
0
 10
57.051600124792358
 20
161.33820618911781
 30
0.0
  0
VERTEX
  5
1A3B
  8
0
 10
56.991560601336701
 20
161.2826062594078
 30
0.0
  0
VERTEX
  5
1A3C
  8
0
 10
56.928236510360307
 20
161.22739029495
 30
0.0
  0
VERTEX
  5
1A3D
  8
0
 10
56.895355578220602
 20
161.1999445982558
 30
0.0
  0
VERTEX
  5
1A3E
  8
0
 10
56.86166969518213
 20
161.1726166915586
 30
0.0
  0
VERTEX
  5
1A3F
  8
0
 10
56.791908246382178
 20
161.11834248140451
 30
0.0
  0
VERTEX
  5
1A40
  8
0
 10
56.71899541459463
 20
161.06461547302209
 30
0.0
  0
VERTEX
  5
1A41
  8
0
 10
56.68137066119381
 20
161.03797097201661
 30
0.0
  0
SEQEND
  5
1A42
  8
0
  0
POLYLINE
  5
9B9
  8
0
 66
     1
 10
0.0
 20
0.0
 30
0.0
  0
VERTEX
  5
1A43
  8
0
 10
41.277945259888533
 20
163.8801142987644
 30
0.0
  0
VERTEX
  5
1A44
  8
0
 10
41.218584119903561
 20
163.83201515469469
 30
0.0
  0
VERTEX
  5
1A45
  8
0
 10
41.105209783235132
 20
163.73516944864991
 30
0.0
  0
VERTEX
  5
1A46
  8
0
 10
40.999001752362631
 20
163.63758832133601
 30
0.0
  0
VERTEX
  5
1A47
  8
0
 10
40.948592212884471
 20
163.5885706161755
 30
0.0
  0
VERTEX
  5
1A48
  8
0
 10
40.899979982677927
 20
163.5394283062839
 30
0.0
  0
VERTEX
  5
1A49
  8
0
 10
40.808141664737697
 20
163.4408528718734
 30
0.0
  0
VERTEX
  5
1A4A
  8
0
 10
40.723459830437342
 20
163.34203171179641
 30
0.0
  0
VERTEX
  5
1A4B
  8
0
 10
40.645882047197112
 20
163.24313971468891
 30
0.0
  0
VERTEX
  5
1A4C
  8
0
 10
40.575329539017048
 20
163.14435592384069
 30
0.0
  0
VERTEX
  5
1A4D
  8
0
 10
40.511668048180873
 20
163.04581571470689
 30
0.0
  0
VERTEX
  5
1A4E
  8
0
 10
40.482100237534652
 20
162.99620499293229
 30
0.0
  0
VERTEX
  5
1A4F
  8
0
 10
40.453918479102732
 20
162.94613868386901
 30
0.0
  0
VERTEX
  5
1A50
  8
0
 10
40.401842392627742
 20
162.84470010331651
 30
0.0
  0
VERTEX
  5
1A51
  8
0
 10
40.355683214618352
 20
162.7416244242099
 30
0.0
  0
VERTEX
  5
1A52
  8
0
 10
40.315659754342207
 20
162.63704000940459
 30
0.0
  0
VERTEX
  5
1A53
  8
0
 10
40.281965849101397
 20
162.5310781791986
 30
0.0
  0
VERTEX
  5
1A54
  8
0
 10
40.254770332169713
 20
162.4238722167168
 30
0.0
  0
VERTEX
  5
1A55
  8
0
 10
40.243655457262463
 20
162.3698446173444
 30
0.0
  0
VERTEX
  5
1A56
  8
0
 10
40.23421732343261
 20
162.31555632885431
 30
0.0
  0
VERTEX
  5
1A57
  8
0
 10
40.220426932901091
 20
162.20626547729779
 30
0.0
  0
VERTEX
  5
1A58
  8
0
 10
40.213496031410173
 20
162.0961377454752
 30
0.0
  0
VERTEX
  5
1A59
  8
0
 10
40.212626776428451
 20
162.04080418299461
 30
0.0
  0
SEQEND
  5
1A5A
  8
0
  0
POLYLINE
  5
9BA
  8
0
 66
     1
 10
0.0
 20
0.0
 30
0.0
  0
VERTEX
  5
1A5B
  8
0
 10
40.212626776428451
 20
162.04080418299461
 30
0.0
  0
VERTEX
  5
1A5C
  8
0
 10
40.215068903578931
 20
161.9478595596986
 30
0.0
  0
VERTEX
  5
1A5D
  8
0
 10
40.234658892997807
 20
161.76100071032599
 30
0.0
  0
VERTEX
  5
1A5E
  8
0
 10
40.273879667190627
 20
161.5734183657068
 30
0.0
  0
VERTEX
  5
1A5F
  8
0
 10
40.300824187315868
 20
161.4795514976978
 30
0.0
  0
VERTEX
  5
1A60
  8
0
 10
40.332625021013207
 20
161.38573753919439
 30
0.0
  0
VERTEX
  5
1A61
  8
0
 10
40.410623515838417
 20
161.1986170378828
 30
0.0
  0
VERTEX
  5
1A62
  8
0
 10
40.507417383393381
 20
161.01275925329099
 30
0.0
  0
VERTEX
  5
1A63
  8
0
 10
40.622370034135969
 20
160.8288649141297
 30
0.0
  0
VERTEX
  5
1A64
  8
0
 10
40.754672685579742
 20
160.6476216061493
 30
0.0
  0
VERTEX
  5
1A65
  8
0
 10
40.903338605175058
 20
160.46971121235009
 30
0.0
  0
VERTEX
  5
1A66
  8
0
 10
40.983448215929108
 20
160.38221862205941
 30
0.0
  0
VERTEX
  5
1A67
  8
0
 10
41.067194021488582
 20
160.29581308518451
 30
0.0
  0
VERTEX
  5
1A68
  8
0
 10
41.244884502997131
 20
160.1265886878447
 30
0.0
  0
VERTEX
  5
1A69
  8
0
 10
41.439109924468013
 20
159.9591936195078
 30
0.0
  0
VERTEX
  5
1A6A
  8
0
 10
41.653294700845073
 20
159.7912804725529
 30
0.0
  0
VERTEX
  5
1A6B
  8
0
 10
41.887351927912569
 20
159.6238038891845
 30
0.0
  0
VERTEX
  5
1A6C
  8
0
 10
42.141003067270987
 20
159.45769185072231
 30
0.0
  0
VERTEX
  5
1A6D
  8
0
 10
42.2750425522405
 20
159.37542655977481
 30
0.0
  0
VERTEX
  5
1A6E
  8
0
 10
42.413797665481297
 20
159.293833026768
 30
0.0
  0
VERTEX
  5
1A6F
  8
0
 10
42.705098210845527
 20
159.13308672298359
 30
0.0
  0
VERTEX
  5
1A70
  8
0
 10
43.014074957772742
 20
158.9762817098408
 30
0.0
  0
VERTEX
  5
1A71
  8
0
 10
43.174885777733998
 20
158.8996037561395
 30
0.0
  0
SEQEND
  5
1A72
  8
0
  0
POLYLINE
  5
9BB
  8
0
 66
     1
 10
0.0
 20
0.0
 30
0.0
  0
VERTEX
  5
1A73
  8
0
 10
44.245994384709689
 20
172.0829564036884
 30
0.0
  0
VERTEX
  5
1A74
  8
0
 10
44.410910509696123
 20
171.75625708850239
 30
0.0
  0
VERTEX
  5
1A75
  8
0
 10
44.64981187953267
 20
171.0836612920568
 30
0.0
  0
VERTEX
  5
1A76
  8
0
 10
44.768029128158219
 20
170.3891715722807
 30
0.0
  0
VERTEX
  5
1A77
  8
0
 10
44.782626776428437
 20
170.03527606362991
 30
0.0
  0
SEQEND
  5
1A78
  8
0
  0
POLYLINE
  5
9BC
  8
0
 66
     1
 10
0.0
 20
0.0
 30
0.0
  0
VERTEX
  5
1A79
  8
0
 10
44.782626776428437
 20
170.03527606362991
 30
0.0
  0
VERTEX
  5
1A7A
  8
0
 10
44.779736089243357
 20
169.8758209936567
 30
0.0
  0
VERTEX
  5
1A7B
  8
0
 10
44.756793952503877
 20
169.55505012298201
 30
0.0
  0
VERTEX
  5
1A7C
  8
0
 10
44.711424721586837
 20
169.232241206894
 30
0.0
  0
VERTEX
  5
1A7D
  8
0
 10
44.680521299988797
 20
169.07024545470401
 30
0.0
  0
VERTEX
  5
1A7E
  8
0
 10
44.644251924140889
 20
168.90795048423919
 30
0.0
  0
VERTEX
  5
1A7F
  8
0
 10
44.555988179215753
 20
168.58275504920391
 30
0.0
  0
VERTEX
  5
1A80
  8
0
 10
44.447434039679557
 20
168.25725164900689
 30
0.0
  0
VERTEX
  5
1A81
  8
0
 10
44.319477574044498
 20
167.93205733235081
 30
0.0
  0
VERTEX
  5
1A82
  8
0
 10
44.172714636538572
 20
167.60701843369031
 30
0.0
  0
VERTEX
  5
1A83
  8
0
 10
44.004706083406923
 20
167.27650213567901
 30
0.0
  0
VERTEX
  5
1A84
  8
0
 10
43.912401104173092
 20
167.1088224206419
 30
0.0
  0
VERTEX
  5
1A85
  8
0
 10
43.814504943405183
 20
166.93959571463401
 30
0.0
  0
VERTEX
  5
1A86
  8
0
 10
43.601796858767052
 20
166.59670987740679
 30
0.0
  0
VERTEX
  5
1A87
  8
0
 10
43.366346273964773
 20
166.24827138668479
 30
0.0
  0
VERTEX
  5
1A88
  8
0
 10
43.107996202656949
 20
165.89472380174479
 30
0.0
  0
VERTEX
  5
1A89
  8
0
 10
42.826668239587349
 20
165.53652802000491
 30
0.0
  0
VERTEX
  5
1A8A
  8
0
 10
42.522358614625013
 20
165.1741577919118
 30
0.0
  0
VERTEX
  5
1A8B
  8
0
 10
42.361602761901821
 20
164.99155670036541
 30
0.0
  0
VERTEX
  5
1A8C
  8
0
 10
42.195132350150558
 20
164.80809445074601
 30
0.0
  0
VERTEX
  5
1A8D
  8
0
 10
41.845135165964408
 20
164.438841240226
 30
0.0
  0
VERTEX
  5
1A8E
  8
0
 10
41.47258733616637
 20
164.06691520854491
 30
0.0
  0
VERTEX
  5
1A8F
  8
0
 10
41.277945259888469
 20
163.8801142987644
 30
0.0
  0
SEQEND
  5
1A90
  8
0
  0
POLYLINE
  5
9BD
  8
0
 66
     1
 10
0.0
 20
0.0
 30
0.0
  0
VERTEX
  5
1A91
  8
0
 10
44.163779824658199
 20
172.47155475458129
 30
0.0
  0
VERTEX
  5
1A92
  8
0
 10
44.162177111703841
 20
172.45888955797881
 30
0.0
  0
VERTEX
  5
1A93
  8
0
 10
44.159856177361128
 20
172.43360241231679
 30
0.0
  0
VERTEX
  5
1A94
  8
0
 10
44.158702822334078
 20
172.4083800348088
 30
0.0
  0
VERTEX
  5
1A95
  8
0
 10
44.15855937180234
 20
172.395795809763
 30
0.0
  0
SEQEND
  5
1A96
  8
0
  0
POLYLINE
  5
9BE
  8
0
 66
     1
 10
0.0
 20
0.0
 30
0.0
  0
VERTEX
  5
1A97
  8
0
 10
44.15855937180234
 20
172.395795809763
 30
0.0
  0
VERTEX
  5
1A98
  8
0
 10
44.160907373140233
 20
172.34478967681071
 30
0.0
  0
VERTEX
  5
1A99
  8
0
 10
44.180014934411403
 20
172.24122674838421
 30
0.0
  0
VERTEX
  5
1A9A
  8
0
 10
44.2189348439464
 20
172.1360179957961
 30
0.0
  0
VERTEX
  5
1A9B
  8
0
 10
44.245994384709689
 20
172.0829564036884
 30
0.0
  0
SEQEND
  5
1A9C
  8
0
  0
POLYLINE
  5
9BF
  8
0
 66
     1
 10
0.0
 20
0.0
 30
0.0
  0
VERTEX
  5
1A9D
  8
0
 10
45.712626776428451
 20
180.01091729594361
 30
0.0
  0
VERTEX
  5
1A9E
  8
0
 10
45.451712192868598
 20
179.2422342747619
 30
0.0
  0
VERTEX
  5
1A9F
  8
0
 10
44.932635228008451
 20
177.11683513376499
 30
0.0
  0
VERTEX
  5
1AA0
  8
0
 10
44.418509190298487
 20
174.21288517974841
 30
0.0
  0
VERTEX
  5
1AA1
  8
0
 10
44.163779824658199
 20
172.47155475458121
 30
0.0
  0
SEQEND
  5
1AA2
  8
0
  0
POLYLINE
  5
9C0
  8
0
 66
     1
 10
0.0
 20
0.0
 30
0.0
  0
VERTEX
  5
1AA3
  8
0
 10
46.811684287055769
 20
180.29617719746011
 30
0.0
  0
VERTEX
  5
1AA4
  8
0
 10
46.753739869335277
 20
180.2898475672003
 30
0.0
  0
VERTEX
  5
1AA5
  8
0
 10
46.641616493891028
 20
180.27681407017531
 30
0.0
  0
VERTEX
  5
1AA6
  8
0
 10
46.534807160142208
 20
180.26329517118771
 30
0.0
  0
VERTEX
  5
1AA7
  8
0
 10
46.48349747227757
 20
180.2563592409538
 30
0.0
  0
VERTEX
  5
1AA8
  8
0
 10
46.433635697008171
 20
180.24930898068561
 30
0.0
  0
VERTEX
  5
1AA9
  8
0
 10
46.338398674255188
 20
180.234876469353
 30
0.0
  0
VERTEX
  5
1AAA
  8
0
 10
46.249361505249588
 20
180.22002118004551
 30
0.0
  0
VERTEX
  5
1AAB
  8
0
 10
46.166755324215593
 20
180.20476885230991
 30
0.0
  0
VERTEX
  5
1AAC
  8
0
 10
46.090768859309698
 20
180.18914567521259
 30
0.0
  0
VERTEX
  5
1AAD
  8
0
 10
46.021534727790183
 20
180.17317386063931
 30
0.0
  0
VERTEX
  5
1AAE
  8
0
 10
45.989492849037191
 20
180.1650665429712
 30
0.0
  0
VERTEX
  5
1AAF
  8
0
 10
45.959187727805613
 20
180.1568838091423
 30
0.0
  0
VERTEX
  5
1AB0
  8
0
 10
45.903834721438713
 20
180.14030961847411
 30
0.0
  0
VERTEX
  5
1AB1
  8
0
 10
45.855546832445441
 20
180.12348769643569
 30
0.0
  0
VERTEX
  5
1AB2
  8
0
 10
45.814357567941407
 20
180.1064562612209
 30
0.0
  0
VERTEX
  5
1AB3
  8
0
 10
45.780262185699598
 20
180.0892548885061
 30
0.0
  0
VERTEX
  5
1AB4
  8
0
 10
45.753219421228387
 20
180.07192515116861
 30
0.0
  0
VERTEX
  5
1AB5
  8
0
 10
45.742319932049028
 20
180.063225879463
 30
0.0
  0
VERTEX
  5
1AB6
  8
0
 10
45.73315137297714
 20
180.0545112959762
 30
0.0
  0
VERTEX
  5
1AB7
  8
0
 10
45.719940961270851
 20
180.03705978188631
 30
0.0
  0
VERTEX
  5
1AB8
  8
0
 10
45.713430312027839
 20
180.01961866420899
 30
0.0
  0
VERTEX
  5
1AB9
  8
0
 10
45.712626776428451
 20
180.01091729594361
 30
0.0
  0
SEQEND
  5
1ABA
  8
0
  0
LINE
  5
9C1
  8
0
 10
55.613569265801168
 20
180.29617719746011
 30
0.0
 11
46.811684287055769
 21
180.29617719746011
 31
0.0
  0
POLYLINE
  5
9C2
  8
0
 66
     1
 10
0.0
 20
0.0
 30
0.0
  0
VERTEX
  5
1ABB
  8
0
 10
56.712626776428472
 20
180.01091729594361
 30
0.0
  0
VERTEX
  5
1ABC
  8
0
 10
56.711823189867403
 20
180.01961893958051
 30
0.0
  0
VERTEX
  5
1ABD
  8
0
 10
56.705312261484387
 20
180.03706036797101
 30
0.0
  0
VERTEX
  5
1ABE
  8
0
 10
56.69210158499488
 20
180.05451192036489
 30
0.0
  0
VERTEX
  5
1ABF
  8
0
 10
56.682932977042967
 20
180.06322643827841
 30
0.0
  0
VERTEX
  5
1AC0
  8
0
 10
56.672033527915431
 20
180.07192559689759
 30
0.0
  0
VERTEX
  5
1AC1
  8
0
 10
56.644991185580118
 20
180.08925499113721
 30
0.0
  0
VERTEX
  5
1AC2
  8
0
 10
56.6108967682339
 20
180.1064559048593
 30
0.0
  0
VERTEX
  5
1AC3
  8
0
 10
56.569709060422248
 20
180.12348681080479
 30
0.0
  0
VERTEX
  5
1AC4
  8
0
 10
56.52142328814125
 20
180.14030818208539
 30
0.0
  0
VERTEX
  5
1AC5
  8
0
 10
56.46607285341058
 20
180.1568818464589
 30
0.0
  0
VERTEX
  5
1AC6
  8
0
 10
56.435769138224991
 20
180.16506433917209
 30
0.0
  0
VERTEX
  5
1AC7
  8
0
 10
56.403728711616971
 20
180.17317143651141
 30
0.0
  0
VERTEX
  5
1AC8
  8
0
 10
56.334497502020447
 20
180.18914288860631
 30
0.0
  0
VERTEX
  5
1AC9
  8
0
 10
56.258513944135942
 20
180.2047657929302
 30
0.0
  0
VERTEX
  5
1ACA
  8
0
 10
56.175910365287592
 20
180.2200179673234
 30
0.0
  0
VERTEX
  5
1ACB
  8
0
 10
56.086874813654248
 20
180.23487330145699
 30
0.0
  0
VERTEX
  5
1ACC
  8
0
 10
55.991637897338109
 20
180.2493060814455
 30
0.0
  0
VERTEX
  5
1ACD
  8
0
 10
55.941775432451593
 20
180.25635656584041
 30
0.0
  0
VERTEX
  5
1ACE
  8
0
 10
55.89046446180955
 20
180.26329278218751
 30
0.0
  0
VERTEX
  5
1ACF
  8
0
 10
55.783650482396517
 20
180.2768124426521
 30
0.0
  0
VERTEX
  5
1AD0
  8
0
 10
55.671519159230598
 20
180.28984695664789
 30
0.0
  0
VERTEX
  5
1AD1
  8
0
 10
55.613569265801168
 20
180.29617719746011
 30
0.0
  0
SEQEND
  5
1AD2
  8
0
  0
POLYLINE
  5
9C3
  8
0
 66
     1
 10
0.0
 20
0.0
 30
0.0
  0
VERTEX
  5
1AD3
  8
0
 10
58.261473728198709
 20
172.47155475458121
 30
0.0
  0
VERTEX
  5
1AD4
  8
0
 10
58.006744362558422
 20
174.21288517974841
 30
0.0
  0
VERTEX
  5
1AD5
  8
0
 10
57.492618324848472
 20
177.11683513376499
 30
0.0
  0
VERTEX
  5
1AD6
  8
0
 10
56.973541359988317
 20
179.2422342747619
 30
0.0
  0
VERTEX
  5
1AD7
  8
0
 10
56.712626776428472
 20
180.01091729594361
 30
0.0
  0
SEQEND
  5
1AD8
  8
0
  0
POLYLINE
  5
9C4
  8
0
 66
     1
 10
0.0
 20
0.0
 30
0.0
  0
VERTEX
  5
1AD9
  8
0
 10
58.17925916814724
 20
172.0829564036884
 30
0.0
  0
VERTEX
  5
1ADA
  8
0
 10
58.20631870891053
 20
172.1360179957961
 30
0.0
  0
VERTEX
  5
1ADB
  8
0
 10
58.245238618445512
 20
172.24122674838421
 30
0.0
  0
VERTEX
  5
1ADC
  8
0
 10
58.264346179716682
 20
172.34478967681071
 30
0.0
  0
VERTEX
  5
1ADD
  8
0
 10
58.266694181054561
 20
172.39579580976289
 30
0.0
  0
SEQEND
  5
1ADE
  8
0
  0
POLYLINE
  5
9C5
  8
0
 66
     1
 10
0.0
 20
0.0
 30
0.0
  0
VERTEX
  5
1ADF
  8
0
 10
58.266694181054561
 20
172.39579580976289
 30
0.0
  0
VERTEX
  5
1AE0
  8
0
 10
58.266550730522852
 20
172.40838003480869
 30
0.0
  0
VERTEX
  5
1AE1
  8
0
 10
58.26539737549578
 20
172.4336024123167
 30
0.0
  0
VERTEX
  5
1AE2
  8
0
 10
58.263076441153103
 20
172.45888955797881
 30
0.0
  0
VERTEX
  5
1AE3
  8
0
 10
58.261473728198709
 20
172.47155475458129
 30
0.0
  0
SEQEND
  5
1AE4
  8
0
  0
POLYLINE
  5
9C6
  8
0
 66
     1
 10
0.0
 20
0.0
 30
0.0
  0
VERTEX
  5
1AE5
  8
0
 10
61.147308292968383
 20
163.8801142987644
 30
0.0
  0
VERTEX
  5
1AE6
  8
0
 10
60.952666216693437
 20
164.06691520854201
 30
0.0
  0
VERTEX
  5
1AE7
  8
0
 10
60.580118386895677
 20
164.4388412402227
 30
0.0
  0
VERTEX
  5
1AE8
  8
0
 10
60.230121202709142
 20
164.808094450743
 30
0.0
  0
VERTEX
  5
1AE9
  8
0
 10
60.063650790957702
 20
164.99155670036251
 30
0.0
  0
VERTEX
  5
1AEA
  8
0
 10
59.902894938234347
 20
165.1741577919089
 30
0.0
  0
VERTEX
  5
1AEB
  8
0
 10
59.598585313271649
 20
165.53652802000229
 30
0.0
  0
VERTEX
  5
1AEC
  8
0
 10
59.317257350201743
 20
165.8947238017424
 30
0.0
  0
VERTEX
  5
1AED
  8
0
 10
59.058907278893606
 20
166.2482713866826
 30
0.0
  0
VERTEX
  5
1AEE
  8
0
 10
58.823456694091078
 20
166.59670987740481
 30
0.0
  0
VERTEX
  5
1AEF
  8
0
 10
58.610748609452713
 20
166.93959571463219
 30
0.0
  0
VERTEX
  5
1AF0
  8
0
 10
58.512852448684711
 20
167.10882242064031
 30
0.0
  0
VERTEX
  5
1AF1
  8
0
 10
58.420547469450781
 20
167.2765021356775
 30
0.0
  0
VERTEX
  5
1AF2
  8
0
 10
58.25253891631894
 20
167.60701843368901
 30
0.0
  0
VERTEX
  5
1AF3
  8
0
 10
58.105775978812858
 20
167.93205733234959
 30
0.0
  0
VERTEX
  5
1AF4
  8
0
 10
57.97781951317765
 20
168.25725164900601
 30
0.0
  0
VERTEX
  5
1AF5
  8
0
 10
57.86926537364134
 20
168.58275504920309
 30
0.0
  0
VERTEX
  5
1AF6
  8
0
 10
57.781001628716133
 20
168.9079504842386
 30
0.0
  0
VERTEX
  5
1AF7
  8
0
 10
57.744732252868182
 20
169.0702454547035
 30
0.0
  0
VERTEX
  5
1AF8
  8
0
 10
57.713828831270092
 20
169.2322412068936
 30
0.0
  0
VERTEX
  5
1AF9
  8
0
 10
57.66845960035301
 20
169.55505012298181
 30
0.0
  0
VERTEX
  5
1AFA
  8
0
 10
57.645517463613523
 20
169.8758209936567
 30
0.0
  0
VERTEX
  5
1AFB
  8
0
 10
57.642626776428422
 20
170.03527606362991
 30
0.0
  0
SEQEND
  5
1AFC
  8
0
  0
POLYLINE
  5
9C7
  8
0
 66
     1
 10
0.0
 20
0.0
 30
0.0
  0
VERTEX
  5
1AFD
  8
0
 10
57.642626776428422
 20
170.03527606362991
 30
0.0
  0
VERTEX
  5
1AFE
  8
0
 10
57.657224424698647
 20
170.38917157228059
 30
0.0
  0
VERTEX
  5
1AFF
  8
0
 10
57.775441673324181
 20
171.0836612920568
 30
0.0
  0
VERTEX
  5
1B00
  8
0
 10
58.014343043160743
 20
171.75625708850239
 30
0.0
  0
VERTEX
  5
1B01
  8
0
 10
58.17925916814719
 20
172.0829564036884
 30
0.0
  0
SEQEND
  5
1B02
  8
0
  0
POLYLINE
  5
9C8
  8
0
 66
     1
 10
0.0
 20
0.0
 30
0.0
  0
VERTEX
  5
1B03
  8
0
 10
59.250367775122889
 20
158.8996037561395
 30
0.0
  0
VERTEX
  5
1B04
  8
0
 10
59.411178595084181
 20
158.9762817098408
 30
0.0
  0
VERTEX
  5
1B05
  8
0
 10
59.720155342011402
 20
159.13308672298351
 30
0.0
  0
VERTEX
  5
1B06
  8
0
 10
60.011455887375611
 20
159.293833026768
 30
0.0
  0
VERTEX
  5
1B07
  8
0
 10
60.150211000616409
 20
159.37542655977481
 30
0.0
  0
VERTEX
  5
1B08
  8
0
 10
60.284250485585929
 20
159.45769185072231
 30
0.0
  0
VERTEX
  5
1B09
  8
0
 10
60.537901624944318
 20
159.6238038891845
 30
0.0
  0
VERTEX
  5
1B0A
  8
0
 10
60.771958852011842
 20
159.7912804725529
 30
0.0
  0
VERTEX
  5
1B0B
  8
0
 10
60.986143628388902
 20
159.9591936195078
 30
0.0
  0
VERTEX
  5
1B0C
  8
0
 10
61.180369049859763
 20
160.1265886878447
 30
0.0
  0
VERTEX
  5
1B0D
  8
0
 10
61.358059531368319
 20
160.29581308518451
 30
0.0
  0
VERTEX
  5
1B0E
  8
0
 10
61.441805336927793
 20
160.3822186220593
 30
0.0
  0
VERTEX
  5
1B0F
  8
0
 10
61.52191494768185
 20
160.46971121235009
 30
0.0
  0
VERTEX
  5
1B10
  8
0
 10
61.670580867277138
 20
160.6476216061493
 30
0.0
  0
VERTEX
  5
1B11
  8
0
 10
61.802883518720961
 20
160.8288649141297
 30
0.0
  0
VERTEX
  5
1B12
  8
0
 10
61.91783616946352
 20
161.01275925329099
 30
0.0
  0
VERTEX
  5
1B13
  8
0
 10
62.014630037018492
 20
161.1986170378828
 30
0.0
  0
VERTEX
  5
1B14
  8
0
 10
62.092628531843701
 20
161.38573753919439
 30
0.0
  0
VERTEX
  5
1B15
  8
0
 10
62.124429365541019
 20
161.4795514976978
 30
0.0
  0
VERTEX
  5
1B16
  8
0
 10
62.151373885666281
 20
161.57341836570691
 30
0.0
  0
VERTEX
  5
1B17
  8
0
 10
62.190594659859102
 20
161.7610007103261
 30
0.0
  0
VERTEX
  5
1B18
  8
0
 10
62.21018464927797
 20
161.9478595596986
 30
0.0
  0
VERTEX
  5
1B19
  8
0
 10
62.212626776428472
 20
162.04080418299461
 30
0.0
  0
SEQEND
  5
1B1A
  8
0
  0
POLYLINE
  5
9C9
  8
0
 66
     1
 10
0.0
 20
0.0
 30
0.0
  0
VERTEX
  5
1B1B
  8
0
 10
62.212626776428472
 20
162.04080418299461
 30
0.0
  0
VERTEX
  5
1B1C
  8
0
 10
62.211757521446742
 20
162.0961377454752
 30
0.0
  0
VERTEX
  5
1B1D
  8
0
 10
62.204826619955817
 20
162.20626547729779
 30
0.0
  0
VERTEX
  5
1B1E
  8
0
 10
62.191036229424299
 20
162.3155563288544
 30
0.0
  0
VERTEX
  5
1B1F
  8
0
 10
62.181598095594453
 20
162.3698446173444
 30
0.0
  0
VERTEX
  5
1B20
  8
0
 10
62.17048322068716
 20
162.4238722167168
 30
0.0
  0
VERTEX
  5
1B21
  8
0
 10
62.143287703755497
 20
162.5310781791986
 30
0.0
  0
VERTEX
  5
1B22
  8
0
 10
62.109593798514709
 20
162.63704000940459
 30
0.0
  0
VERTEX
  5
1B23
  8
0
 10
62.069570338238563
 20
162.7416244242099
 30
0.0
  0
VERTEX
  5
1B24
  8
0
 10
62.02341116022918
 20
162.84470010331651
 30
0.0
  0
VERTEX
  5
1B25
  8
0
 10
61.971335073754148
 20
162.94613868386901
 30
0.0
  0
VERTEX
  5
1B26
  8
0
 10
61.943153315322292
 20
162.99620499293229
 30
0.0
  0
VERTEX
  5
1B27
  8
0
 10
61.913585504676043
 20
163.04581571470689
 30
0.0
  0
VERTEX
  5
1B28
  8
0
 10
61.849924013839853
 20
163.14435592384069
 30
0.0
  0
VERTEX
  5
1B29
  8
0
 10
61.779371505659803
 20
163.24313971468891
 30
0.0
  0
VERTEX
  5
1B2A
  8
0
 10
61.701793722419573
 20
163.34203171179641
 30
0.0
  0
VERTEX
  5
1B2B
  8
0
 10
61.617111888119211
 20
163.4408528718734
 30
0.0
  0
VERTEX
  5
1B2C
  8
0
 10
61.525273570178967
 20
163.5394283062839
 30
0.0
  0
VERTEX
  5
1B2D
  8
0
 10
61.476661339972409
 20
163.5885706161755
 30
0.0
  0
VERTEX
  5
1B2E
  8
0
 10
61.426251800494271
 20
163.63758832133601
 30
0.0
  0
VERTEX
  5
1B2F
  8
0
 10
61.32004376962179
 20
163.73516944864991
 30
0.0
  0
VERTEX
  5
1B30
  8
0
 10
61.206669432953348
 20
163.83201515469469
 30
0.0
  0
VERTEX
  5
1B31
  8
0
 10
61.147308292968383
 20
163.8801142987644
 30
0.0
  0
SEQEND
  5
1B32
  8
0
  0
LINE
  5
9CB
  8
0
 10
46.212626776428451
 20
86.918374137927174
 30
0.0
 11
56.212626776428458
 21
86.918374137927174
 31
0.0
  0
LINE
  5
9CC
  8
0
 10
47.132626776428467
 20
85.998374137927186
 30
0.0
 11
55.292626776428463
 21
85.998374137927186
 31
0.0
  0
POLYLINE
  5
9CD
  8
0
 66
     1
 10
0.0
 20
0.0
 30
0.0
  0
VERTEX
  5
1B33
  8
0
 10
56.681370660865142
 20
161.03797097206879
 30
0.0
  0
VERTEX
  5
1B34
  8
0
 10
56.655270640732958
 20
161.01446137384201
 30
0.0
  0
VERTEX
  5
1B35
  8
0
 10
56.601272651666861
 20
160.9677260430106
 30
0.0
  0
VERTEX
  5
1B36
  8
0
 10
56.544907184537351
 20
160.92139806529229
 30
0.0
  0
VERTEX
  5
1B37
  8
0
 10
56.515848739092959
 20
160.8983976156982
 30
0.0
  0
VERTEX
  5
1B38
  8
0
 10
56.486213420014927
 20
160.8755119059764
 30
0.0
  0
VERTEX
  5
1B39
  8
0
 10
56.42523438834214
 20
160.8301016907412
 30
0.0
  0
VERTEX
  5
1B3A
  8
0
 10
56.362016854489127
 20
160.78520105153879
 30
0.0
  0
VERTEX
  5
1B3B
  8
0
 10
56.296611171097851
 20
160.74084297548799
 30
0.0
  0
VERTEX
  5
1B3C
  8
0
 10
56.229071097805331
 20
160.69705965658119
 30
0.0
  0
VERTEX
  5
1B3D
  8
0
 10
56.159453584847
 20
160.6538823498978
 30
0.0
  0
VERTEX
  5
1B3E
  8
0
 10
56.123884288532182
 20
160.6325303624246
 30
0.0
  0
VERTEX
  5
1B3F
  8
0
 10
56.087818110837048
 20
160.61134099122941
 30
0.0
  0
VERTEX
  5
1B40
  8
0
 10
56.014227313842611
 20
160.5694646214416
 30
0.0
  0
VERTEX
  5
1B41
  8
0
 10
55.938748227164268
 20
160.52828202534511
 30
0.0
  0
VERTEX
  5
1B42
  8
0
 10
55.861452016855829
 20
160.4878214358601
 30
0.0
  0
VERTEX
  5
1B43
  8
0
 10
55.782413851841071
 20
160.44811035085991
 30
0.0
  0
VERTEX
  5
1B44
  8
0
 10
55.701712738150903
 20
160.4091753563344
 30
0.0
  0
VERTEX
  5
1B45
  8
0
 10
55.660764265013427
 20
160.39000690968629
 30
0.0
  0
VERTEX
  5
1B46
  8
0
 10
55.61943131607638
 20
160.37104195587671
 30
0.0
  0
VERTEX
  5
1B47
  8
0
 10
55.535655618517247
 20
160.33373440651201
 30
0.0
  0
VERTEX
  5
1B48
  8
0
 10
55.450474788271151
 20
160.29727556091899
 30
0.0
  0
VERTEX
  5
1B49
  8
0
 10
55.407386076460931
 20
160.27937112213289
 30
0.0
  0
VERTEX
  5
1B4A
  8
0
 10
55.36392848640422
 20
160.2616656307512
 30
0.0
  0
VERTEX
  5
1B4B
  8
0
 10
55.275190065769053
 20
160.2265694925143
 30
0.0
  0
VERTEX
  5
1B4C
  8
0
 10
55.183976555807803
 20
160.19190753262441
 30
0.0
  0
VERTEX
  5
1B4D
  8
0
 10
55.137455894197018
 20
160.1747566333834
 30
0.0
  0
VERTEX
  5
1B4E
  8
0
 10
55.090334231017302
 20
160.1577348372125
 30
0.0
  0
VERTEX
  5
1B4F
  8
0
 10
54.994314597804546
 20
160.12410516398211
 30
0.0
  0
VERTEX
  5
1B50
  8
0
 10
54.895973984756772
 20
160.09107073608001
 30
0.0
  0
VERTEX
  5
1B51
  8
0
 10
54.795373077207699
 20
160.0586820499804
 30
0.0
  0
VERTEX
  5
1B52
  8
0
 10
54.692576391196319
 20
160.0269876977919
 30
0.0
  0
VERTEX
  5
1B53
  8
0
 10
54.587651682116899
 20
159.99603420497741
 30
0.0
  0
VERTEX
  5
1B54
  8
0
 10
54.534413217074928
 20
159.9808492188082
 30
0.0
  0
VERTEX
  5
1B55
  8
0
 10
54.480669286115919
 20
159.96586588572131
 30
0.0
  0
VERTEX
  5
1B56
  8
0
 10
54.371701950918357
 20
159.93652486526611
 30
0.0
  0
VERTEX
  5
1B57
  8
0
 10
54.26082662614202
 20
159.9080515925873
 30
0.0
  0
VERTEX
  5
1B58
  8
0
 10
54.148125124596604
 20
159.88048494088119
 30
0.0
  0
VERTEX
  5
1B59
  8
0
 10
54.033683666155248
 20
159.85386200193361
 30
0.0
  0
VERTEX
  5
1B5A
  8
0
 10
53.917592345454963
 20
159.8282178924818
 30
0.0
  0
VERTEX
  5
1B5B
  8
0
 10
53.858957059246613
 20
159.81577328999441
 30
0.0
  0
VERTEX
  5
1B5C
  8
0
 10
53.799944552407688
 20
159.80358558236841
 30
0.0
  0
VERTEX
  5
1B5D
  8
0
 10
53.68083634245
 20
159.7799957453955
 30
0.0
  0
VERTEX
  5
1B5E
  8
0
 10
53.560365753653301
 20
159.7574766341836
 30
0.0
  0
VERTEX
  5
1B5F
  8
0
 10
53.438628285976151
 20
159.73605333556819
 30
0.0
  0
VERTEX
  5
1B60
  8
0
 10
53.315687819156281
 20
159.71574337890431
 30
0.0
  0
VERTEX
  5
1B61
  8
0
 10
53.19163830450087
 20
159.69656771934291
 30
0.0
  0
VERTEX
  5
1B62
  8
0
 10
53.129230970045299
 20
159.68741174656239
 30
0.0
  0
VERTEX
  5
1B63
  8
0
 10
53.066586816621282
 20
159.67854686512769
 30
0.0
  0
VERTEX
  5
1B64
  8
0
 10
52.94064394752489
 20
159.6616990485644
 30
0.0
  0
VERTEX
  5
1B65
  8
0
 10
52.813923142571852
 20
159.6460400557558
 30
0.0
  0
VERTEX
  5
1B66
  8
0
 10
52.686540000234821
 20
159.63158308702239
 30
0.0
  0
VERTEX
  5
1B67
  8
0
 10
52.55861153462844
 20
159.61833864888479
 30
0.0
  0
VERTEX
  5
1B68
  8
0
 10
52.430255399663189
 20
159.60631447868209
 30
0.0
  0
VERTEX
  5
1B69
  8
0
 10
52.365953698132472
 20
159.6007616438541
 30
0.0
  0
VERTEX
  5
1B6A
  8
0
 10
52.301589080057383
 20
159.59551550361451
 30
0.0
  0
VERTEX
  5
1B6B
  8
0
 10
52.172729965141961
 20
159.5859438989898
 30
0.0
  0
VERTEX
  5
1B6C
  8
0
 10
52.043797999749813
 20
159.57759928752591
 30
0.0
  0
VERTEX
  5
1B6D
  8
0
 10
51.914916306738618
 20
159.57047867760741
 30
0.0
  0
VERTEX
  5
1B6E
  8
0
 10
51.786210418491649
 20
159.5645763045319
 30
0.0
  0
VERTEX
  5
1B6F
  8
0
 10
51.657807467402051
 20
159.55988350926941
 30
0.0
  0
VERTEX
  5
1B70
  8
0
 10
51.593759558096679
 20
159.55798718509629
 30
0.0
  0
VERTEX
  5
1B71
  8
0
 10
51.529835365961759
 20
159.55638865700629
 30
0.0
  0
VERTEX
  5
1B72
  8
0
 10
51.402421976777113
 20
159.55407709521839
 30
0.0
  0
VERTEX
  5
1B73
  8
0
 10
51.275694271809009
 20
159.55293115115961
 30
0.0
  0
VERTEX
  5
1B74
  8
0
 10
51.212626776432302
 20
159.55278894548999
 30
0.0
  0
VERTEX
  5
1B75
  8
0
 10
51.149559281055623
 20
159.55293115115961
 30
0.0
  0
VERTEX
  5
1B76
  8
0
 10
51.022831576087569
 20
159.55407709521819
 30
0.0
  0
VERTEX
  5
1B77
  8
0
 10
50.895418186902923
 20
159.5563886570061
 30
0.0
  0
VERTEX
  5
1B78
  8
0
 10
50.831493994768017
 20
159.5579871850961
 30
0.0
  0
VERTEX
  5
1B79
  8
0
 10
50.767446085462687
 20
159.55988350926921
 30
0.0
  0
VERTEX
  5
1B7A
  8
0
 10
50.639043134373111
 20
159.5645763045315
 30
0.0
  0
VERTEX
  5
1B7B
  8
0
 10
50.510337246126149
 20
159.57047867760701
 30
0.0
  0
VERTEX
  5
1B7C
  8
0
 10
50.381455553114982
 20
159.5775992875254
 30
0.0
  0
VERTEX
  5
1B7D
  8
0
 10
50.25252358772282
 20
159.58594389898931
 30
0.0
  0
VERTEX
  5
1B7E
  8
0
 10
50.123664472807391
 20
159.59551550361391
 30
0.0
  0
VERTEX
  5
1B7F
  8
0
 10
50.059299854732288
 20
159.60076164385339
 30
0.0
  0
VERTEX
  5
1B80
  8
0
 10
49.99499815320155
 20
159.60631447868141
 30
0.0
  0
VERTEX
  5
1B81
  8
0
 10
49.866642018236291
 20
159.61833864888411
 30
0.0
  0
VERTEX
  5
1B82
  8
0
 10
49.738713552629861
 20
159.63158308702151
 30
0.0
  0
VERTEX
  5
1B83
  8
0
 10
49.611330410292808
 20
159.6460400557549
 30
0.0
  0
VERTEX
  5
1B84
  8
0
 10
49.484609605339742
 20
159.66169904856341
 30
0.0
  0
VERTEX
  5
1B85
  8
0
 10
49.358666736243293
 20
159.67854686512661
 30
0.0
  0
VERTEX
  5
1B86
  8
0
 10
49.296022582819241
 20
159.68741174656131
 30
0.0
  0
VERTEX
  5
1B87
  8
0
 10
49.233615248363648
 20
159.6965677193418
 30
0.0
  0
VERTEX
  5
1B88
  8
0
 10
49.10956573370818
 20
159.71574337890311
 30
0.0
  0
VERTEX
  5
1B89
  8
0
 10
48.986625266888232
 20
159.73605333556691
 30
0.0
  0
VERTEX
  5
1B8A
  8
0
 10
48.864887799210997
 20
159.7574766341823
 30
0.0
  0
VERTEX
  5
1B8B
  8
0
 10
48.744417210414227
 20
159.7799957453941
 30
0.0
  0
VERTEX
  5
1B8C
  8
0
 10
48.625309000456447
 20
159.80358558236691
 30
0.0
  0
VERTEX
  5
1B8D
  8
0
 10
48.566296493617457
 20
159.81577328999279
 30
0.0
  0
VERTEX
  5
1B8E
  8
0
 10
48.507661207409079
 20
159.8282178924803
 30
0.0
  0
VERTEX
  5
1B8F
  8
0
 10
48.39156988670868
 20
159.8538620019319
 30
0.0
  0
VERTEX
  5
1B90
  8
0
 10
48.277128428267233
 20
159.8804849408796
 30
0.0
  0
VERTEX
  5
1B91
  8
0
 10
48.164426926721717
 20
159.90805159258559
 30
0.0
  0
VERTEX
  5
1B92
  8
0
 10
48.053551601945259
 20
159.93652486526429
 30
0.0
  0
VERTEX
  5
1B93
  8
0
 10
47.944584266747583
 20
159.96586588571941
 30
0.0
  0
VERTEX
  5
1B94
  8
0
 10
47.890840335788518
 20
159.98084921880641
 30
0.0
  0
VERTEX
  5
1B95
  8
0
 10
47.837601870746482
 20
159.99603420497559
 30
0.0
  0
VERTEX
  5
1B96
  8
0
 10
47.732677161666928
 20
160.02698769778999
 30
0.0
  0
VERTEX
  5
1B97
  8
0
 10
47.629880475655398
 20
160.05868204997859
 30
0.0
  0
VERTEX
  5
1B98
  8
0
 10
47.529279568106219
 20
160.091070736078
 30
0.0
  0
VERTEX
  5
1B99
  8
0
 10
47.430938955058281
 20
160.12410516398009
 30
0.0
  0
VERTEX
  5
1B9A
  8
0
 10
47.334919321845412
 20
160.15773483721051
 30
0.0
  0
VERTEX
  5
1B9B
  8
0
 10
47.28779765866561
 20
160.17475663338129
 30
0.0
  0
VERTEX
  5
1B9C
  8
0
 10
47.24127699705474
 20
160.19190753262231
 30
0.0
  0
VERTEX
  5
1B9D
  8
0
 10
47.150063487093341
 20
160.2265694925122
 30
0.0
  0
VERTEX
  5
1B9E
  8
0
 10
47.061325066458032
 20
160.26166563074901
 30
0.0
  0
VERTEX
  5
1B9F
  8
0
 10
47.01786747640125
 20
160.27937112213061
 30
0.0
  0
VERTEX
  5
1BA0
  8
0
 10
46.974778764591001
 20
160.2972755609168
 30
0.0
  0
VERTEX
  5
1BA1
  8
0
 10
46.889597934344813
 20
160.33373440650971
 30
0.0
  0
VERTEX
  5
1BA2
  8
0
 10
46.805822236785602
 20
160.3710419558744
 30
0.0
  0
VERTEX
  5
1BA3
  8
0
 10
46.764489287848491
 20
160.3900069096839
 30
0.0
  0
VERTEX
  5
1BA4
  8
0
 10
46.723540814710972
 20
160.4091753563321
 30
0.0
  0
VERTEX
  5
1BA5
  8
0
 10
46.642839701020719
 20
160.44811035085741
 30
0.0
  0
VERTEX
  5
1BA6
  8
0
 10
46.56380153600584
 20
160.4878214358576
 30
0.0
  0
VERTEX
  5
1BA7
  8
0
 10
46.486505325697301
 20
160.52828202534261
 30
0.0
  0
VERTEX
  5
1BA8
  8
0
 10
46.411026239018852
 20
160.5694646214391
 30
0.0
  0
VERTEX
  5
1BA9
  8
0
 10
46.337435442024301
 20
160.6113409912268
 30
0.0
  0
VERTEX
  5
1BAA
  8
0
 10
46.301369264329111
 20
160.6325303624221
 30
0.0
  0
VERTEX
  5
1BAB
  8
0
 10
46.265799968014242
 20
160.65388234989521
 30
0.0
  0
VERTEX
  5
1BAC
  8
0
 10
46.19618245505562
 20
160.6970596565786
 30
0.0
  0
VERTEX
  5
1BAD
  8
0
 10
46.12864238176256
 20
160.74084297548561
 30
0.0
  0
VERTEX
  5
1BAE
  8
0
 10
46.063236698370602
 20
160.78520105153689
 30
0.0
  0
VERTEX
  5
1BAF
  8
0
 10
46.000019164516843
 20
160.83010169073981
 30
0.0
  0
VERTEX
  5
1BB0
  8
0
 10
45.939040132843331
 20
160.8755119059754
 30
0.0
  0
VERTEX
  5
1BB1
  8
0
 10
45.909404813764972
 20
160.89839761569741
 30
0.0
  0
VERTEX
  5
1BB2
  8
0
 10
45.880346368320311
 20
160.9213980652917
 30
0.0
  0
VERTEX
  5
1BB3
  8
0
 10
45.823980901190339
 20
160.9677260430102
 30
0.0
  0
VERTEX
  5
1BB4
  8
0
 10
45.769982912123993
 20
161.01446137384201
 30
0.0
  0
VERTEX
  5
1BB5
  8
0
 10
45.743882891991767
 20
161.03797097206879
 30
0.0
  0
SEQEND
  5
1BB6
  8
0
  0
LINE
  5
9CF
  8
0
 10
43.212626776428444
 20
125.9983741379272
 30
0.0
 11
59.212626776428472
 21
125.9983741379272
 31
0.0
  0
LINE
  5
9D0
  8
3
 10
47.132626776428467
 20
85.998374137927186
 30
0.0
 11
47.132626776428467
 21
125.9983741379272
 31
0.0
  0
LINE
  5
9D1
  8
0
 10
46.212626776428451
 20
125.9983741379272
 30
0.0
 11
47.132626776428467
 21
125.9983741379272
 31
0.0
  0
LINE
  5
9D2
  8
3
 10
55.292626776428463
 20
85.998374137927186
 30
0.0
 11
55.292626776428463
 21
125.9983741379272
 31
0.0
  0
LINE
  5
9D3
  8
0
 10
56.212626776428458
 20
125.9983741379272
 30
0.0
 11
55.292626776428463
 21
125.9983741379272
 31
0.0
  0
LINE
  5
9E2
  8
1
 10
141.50861859123469
 20
211.68787377807519
 30
0.0
 11
141.50861859123469
 21
239.67995739169751
 31
0.0
  0
LINE
  5
9E3
  8
1
 10
127.9986185912347
 20
225.68391558488639
 30
0.0
 11
224.5086482783293
 21
225.68391558488639
 31
0.0
  0
LINE
  5
9E4
  8
1
 10
141.49861859123459
 20
211.6880542622321
 30
0.0
 11
141.49861859123459
 21
239.67977690754049
 31
0.0
  0
LINE
  5
9E5
  8
0
 10
130.9986185912347
 20
222.4373943698009
 30
0.0
 11
130.9986185912347
 21
228.9304367999718
 31
0.0
  0
POLYLINE
  5
9E6
  8
0
 66
     1
 10
0.0
 20
0.0
 30
0.0
  0
VERTEX
  5
1BB7
  8
0
 10
219.3073615647375
 20
221.28297309551371
 30
0.0
  0
VERTEX
  5
1BB8
  8
0
 10
219.3495337589226
 20
221.31490129762281
 30
0.0
  0
VERTEX
  5
1BB9
  8
0
 10
219.4327755339844
 20
221.37983040549929
 30
0.0
  0
VERTEX
  5
1BBA
  8
0
 10
219.51425546608621
 20
221.44593138226341
 30
0.0
  0
VERTEX
  5
1BBB
  8
0
 10
219.55422846980881
 20
221.47931684196709
 30
0.0
  0
VERTEX
  5
1BBC
  8
0
 10
219.59363574972701
 20
221.51286631961551
 30
0.0
  0
VERTEX
  5
1BBD
  8
0
 10
219.67059824127719
 20
221.58027024900821
 30
0.0
  0
VERTEX
  5
1BBE
  8
0
 10
219.74484889898221
 20
221.6477561371602
 30
0.0
  0
VERTEX
  5
1BBF
  8
0
 10
219.81624492683969
 20
221.7150389568709
 30
0.0
  0
VERTEX
  5
1BC0
  8
0
 10
219.88587567663521
 20
221.7830339545736
 30
0.0
  0
VERTEX
  5
1BC1
  8
0
 10
219.954054625574
 20
221.8520055521563
 30
0.0
  0
VERTEX
  5
1BC2
  8
0
 10
219.98760045122259
 20
221.88685048696041
 30
0.0
  0
VERTEX
  5
1BC3
  8
0
 10
220.02078424471671
 20
221.9219311658569
 30
0.0
  0
VERTEX
  5
1BC4
  8
0
 10
220.08606677899181
 20
221.99278889020951
 30
0.0
  0
VERTEX
  5
1BC5
  8
0
 10
220.1499039168888
 20
222.0645570987009
 30
0.0
  0
VERTEX
  5
1BC6
  8
0
 10
220.21229658559221
 20
222.13721411454031
 30
0.0
  0
VERTEX
  5
1BC7
  8
0
 10
220.27324484930969
 20
222.21073795065311
 30
0.0
  0
VERTEX
  5
1BC8
  8
0
 10
220.3327478901243
 20
222.285106115898
 30
0.0
  0
VERTEX
  5
1BC9
  8
0
 10
220.36195696510339
 20
222.32259962196309
 30
0.0
  0
VERTEX
  5
1BCA
  8
0
 10
220.39080405270491
 20
222.36029548305771
 30
0.0
  0
VERTEX
  5
1BCB
  8
0
 10
220.4474109364246
 20
222.43628221329351
 30
0.0
  0
VERTEX
  5
1BCC
  8
0
 10
220.5025655207094
 20
222.51304173134611
 30
0.0
  0
VERTEX
  5
1BCD
  8
0
 10
220.5295971229242
 20
222.55170340880329
 30
0.0
  0
VERTEX
  5
1BCE
  8
0
 10
220.55626432180361
 20
222.59054876065761
 30
0.0
  0
VERTEX
  5
1BCF
  8
0
 10
220.60850392921481
 20
222.66877796324539
 30
0.0
  0
VERTEX
  5
1BD0
  8
0
 10
220.65928126778971
 20
222.74770430691291
 30
0.0
  0
VERTEX
  5
1BD1
  8
0
 10
220.68412061988829
 20
222.78742101730009
 30
0.0
  0
VERTEX
  5
1BD2
  8
0
 10
220.70859324877731
 20
222.82730251720329
 30
0.0
  0
VERTEX
  5
1BD3
  8
0
 10
220.7564368443247
 20
222.90754712309581
 30
0.0
  0
VERTEX
  5
1BD4
  8
0
 10
220.80280919066999
 20
222.98841257129379
 30
0.0
  0
VERTEX
  5
1BD5
  8
0
 10
220.84770768389501
 20
223.06987336003689
 30
0.0
  0
VERTEX
  5
1BD6
  8
0
 10
220.8911300655617
 20
223.1519041901519
 30
0.0
  0
VERTEX
  5
1BD7
  8
0
 10
220.93307449608659
 20
223.23448013132369
 30
0.0
  0
VERTEX
  5
1BD8
  8
0
 10
220.9534920342528
 20
223.27596487265529
 30
0.0
  0
VERTEX
  5
1BD9
  8
0
 10
220.97353961410789
 20
223.31757680173791
 30
0.0
  0
VERTEX
  5
1BDA
  8
0
 10
221.01252458038741
 20
223.40117055932561
 30
0.0
  0
VERTEX
  5
1BDB
  8
0
 10
221.05002910497799
 20
223.48523870277771
 30
0.0
  0
VERTEX
  5
1BDC
  8
0
 10
221.08605185864991
 20
223.56975584282671
 30
0.0
  0
VERTEX
  5
1BDD
  8
0
 10
221.1205831578074
 20
223.654674773621
 30
0.0
  0
VERTEX
  5
1BDE
  8
0
 10
221.1536263382134
 20
223.7399774985447
 30
0.0
  0
VERTEX
  5
1BDF
  8
0
 10
221.16959179494671
 20
223.7827697223691
 30
0.0
  0
VERTEX
  5
1BE0
  8
0
 10
221.1851875037481
 20
223.82565449074499
 30
0.0
  0
VERTEX
  5
1BE1
  8
0
 10
221.21527265329399
 20
223.9116984768429
 30
0.0
  0
VERTEX
  5
1BE2
  8
0
 10
221.24388761934421
 20
223.99810474042081
 30
0.0
  0
VERTEX
  5
1BE3
  8
0
 10
221.2710379609525
 20
224.08487137748671
 30
0.0
  0
VERTEX
  5
1BE4
  8
0
 10
221.29672883242881
 20
224.17199955647121
 30
0.0
  0
VERTEX
  5
1BE5
  8
0
 10
221.32096499491649
 20
224.2594944086575
 30
0.0
  0
VERTEX
  5
1BE6
  8
0
 10
221.3325389218918
 20
224.30338224127729
 30
0.0
  0
VERTEX
  5
1BE7
  8
0
 10
221.3437507210042
 20
224.3473658634386
 30
0.0
  0
VERTEX
  5
1BE8
  8
0
 10
221.3650894990989
 20
224.4356289939127
 30
0.0
  0
VERTEX
  5
1BE9
  8
0
 10
221.38498363517769
 20
224.52430404895381
 30
0.0
  0
VERTEX
  5
1BEA
  8
0
 10
221.40343365148959
 20
224.61341548416351
 30
0.0
  0
VERTEX
  5
1BEB
  8
0
 10
221.42043714166709
 20
224.7029874645861
 30
0.0
  0
VERTEX
  5
1BEC
  8
0
 10
221.43599028453431
 20
224.79305279928471
 30
0.0
  0
VERTEX
  5
1BED
  8
0
 10
221.4432212916839
 20
224.83828357965581
 30
0.0
  0
VERTEX
  5
1BEE
  8
0
 10
221.4500873637316
 20
224.8836546287348
 30
0.0
  0
VERTEX
  5
1BEF
  8
0
 10
221.4627197506889
 20
224.97484538917919
 30
0.0
  0
VERTEX
  5
1BF0
  8
0
 10
221.4738749178768
 20
225.06668525178611
 30
0.0
  0
VERTEX
  5
1BF1
  8
0
 10
221.48353549190099
 20
225.15923956027811
 30
0.0
  0
VERTEX
  5
1BF2
  8
0
 10
221.49167848093299
 20
225.25257552648549
 30
0.0
  0
VERTEX
  5
1BF3
  8
0
 10
221.4982747978049
 20
225.34675874650779
 30
0.0
  0
VERTEX
  5
1BF4
  8
0
 10
221.50098216180641
 20
225.3941874215044
 30
0.0
  0
VERTEX
  5
1BF5
  8
0
 10
221.50328914248411
 20
225.44185044234709
 30
0.0
  0
VERTEX
  5
1BF6
  8
0
 10
221.50668019287869
 20
225.5379065970528
 30
0.0
  0
VERTEX
  5
1BF7
  8
0
 10
221.5084008891063
 20
225.63498015785751
 30
0.0
  0
VERTEX
  5
1BF8
  8
0
 10
221.50861859123469
 20
225.68391558488639
 30
0.0
  0
VERTEX
  5
1BF9
  8
0
 10
221.5084008891063
 20
225.73285101191519
 30
0.0
  0
VERTEX
  5
1BFA
  8
0
 10
221.50668019287869
 20
225.8299245727199
 30
0.0
  0
VERTEX
  5
1BFB
  8
0
 10
221.50328914248411
 20
225.9259807274257
 30
0.0
  0
VERTEX
  5
1BFC
  8
0
 10
221.50098216180641
 20
225.9736437482683
 30
0.0
  0
VERTEX
  5
1BFD
  8
0
 10
221.4982747978049
 20
226.021072423265
 30
0.0
  0
VERTEX
  5
1BFE
  8
0
 10
221.49167848093299
 20
226.11525564328721
 30
0.0
  0
VERTEX
  5
1BFF
  8
0
 10
221.48353549190099
 20
226.20859160949459
 30
0.0
  0
VERTEX
  5
1C00
  8
0
 10
221.4738749178768
 20
226.30114591798659
 30
0.0
  0
VERTEX
  5
1C01
  8
0
 10
221.4627197506889
 20
226.39298578059351
 30
0.0
  0
VERTEX
  5
1C02
  8
0
 10
221.4500873637316
 20
226.48417654103801
 30
0.0
  0
VERTEX
  5
1C03
  8
0
 10
221.4432212916839
 20
226.52954759011701
 30
0.0
  0
VERTEX
  5
1C04
  8
0
 10
221.43599028453431
 20
226.5747783704881
 30
0.0
  0
VERTEX
  5
1C05
  8
0
 10
221.42043714166709
 20
226.6648437051866
 30
0.0
  0
VERTEX
  5
1C06
  8
0
 10
221.40343365148959
 20
226.75441568560919
 30
0.0
  0
VERTEX
  5
1C07
  8
0
 10
221.38498363517769
 20
226.84352712081881
 30
0.0
  0
VERTEX
  5
1C08
  8
0
 10
221.3650894990989
 20
226.93220217586
 30
0.0
  0
VERTEX
  5
1C09
  8
0
 10
221.34375072100411
 20
227.0204653063341
 30
0.0
  0
VERTEX
  5
1C0A
  8
0
 10
221.3325389218918
 20
227.06444892849549
 30
0.0
  0
VERTEX
  5
1C0B
  8
0
 10
221.32096499491649
 20
227.10833676111531
 30
0.0
  0
VERTEX
  5
1C0C
  8
0
 10
221.2967288324287
 20
227.19583161330149
 30
0.0
  0
VERTEX
  5
1C0D
  8
0
 10
221.2710379609525
 20
227.28295979228611
 30
0.0
  0
VERTEX
  5
1C0E
  8
0
 10
221.24388761934421
 20
227.36972642935191
 30
0.0
  0
VERTEX
  5
1C0F
  8
0
 10
221.21527265329399
 20
227.45613269292991
 30
0.0
  0
VERTEX
  5
1C10
  8
0
 10
221.1851875037481
 20
227.54217667902779
 30
0.0
  0
VERTEX
  5
1C11
  8
0
 10
221.16959179494671
 20
227.58506144740369
 30
0.0
  0
VERTEX
  5
1C12
  8
0
 10
221.1536263382134
 20
227.627853671228
 30
0.0
  0
VERTEX
  5
1C13
  8
0
 10
221.1205831578074
 20
227.7131563961517
 30
0.0
  0
VERTEX
  5
1C14
  8
0
 10
221.08605185864991
 20
227.79807532694599
 30
0.0
  0
VERTEX
  5
1C15
  8
0
 10
221.05002910497799
 20
227.88259246699479
 30
0.0
  0
VERTEX
  5
1C16
  8
0
 10
221.01252458038741
 20
227.96666061044709
 30
0.0
  0
VERTEX
  5
1C17
  8
0
 10
220.97353961410789
 20
228.05025436803481
 30
0.0
  0
VERTEX
  5
1C18
  8
0
 10
220.9534920342528
 20
228.09186629711749
 30
0.0
  0
VERTEX
  5
1C19
  8
0
 10
220.93307449608659
 20
228.13335103844901
 30
0.0
  0
VERTEX
  5
1C1A
  8
0
 10
220.8911300655617
 20
228.2159269796208
 30
0.0
  0
VERTEX
  5
1C1B
  8
0
 10
220.84770768389501
 20
228.29795780973581
 30
0.0
  0
VERTEX
  5
1C1C
  8
0
 10
220.80280919066999
 20
228.37941859847891
 30
0.0
  0
VERTEX
  5
1C1D
  8
0
 10
220.7564368443247
 20
228.460284046677
 30
0.0
  0
VERTEX
  5
1C1E
  8
0
 10
220.70859324877731
 20
228.54052865256941
 30
0.0
  0
VERTEX
  5
1C1F
  8
0
 10
220.68412061988829
 20
228.58041015247261
 30
0.0
  0
VERTEX
  5
1C20
  8
0
 10
220.65928126778971
 20
228.62012686285979
 30
0.0
  0
VERTEX
  5
1C21
  8
0
 10
220.60850392921481
 20
228.69905320652731
 30
0.0
  0
VERTEX
  5
1C22
  8
0
 10
220.55626432180361
 20
228.77728240911509
 30
0.0
  0
VERTEX
  5
1C23
  8
0
 10
220.5295971229242
 20
228.81612776096941
 30
0.0
  0
VERTEX
  5
1C24
  8
0
 10
220.5025655207094
 20
228.85478943842671
 30
0.0
  0
VERTEX
  5
1C25
  8
0
 10
220.4474109364246
 20
228.93154895647919
 30
0.0
  0
VERTEX
  5
1C26
  8
0
 10
220.39080405270491
 20
229.0075356867149
 30
0.0
  0
VERTEX
  5
1C27
  8
0
 10
220.36195696510339
 20
229.04523154780961
 30
0.0
  0
VERTEX
  5
1C28
  8
0
 10
220.3327478901243
 20
229.0827250538747
 30
0.0
  0
VERTEX
  5
1C29
  8
0
 10
220.27324484930969
 20
229.1570932191195
 30
0.0
  0
VERTEX
  5
1C2A
  8
0
 10
220.21229658559221
 20
229.23061705523239
 30
0.0
  0
VERTEX
  5
1C2B
  8
0
 10
220.1499039168888
 20
229.3032740710718
 30
0.0
  0
VERTEX
  5
1C2C
  8
0
 10
220.08606677899181
 20
229.3750422795633
 30
0.0
  0
VERTEX
  5
1C2D
  8
0
 10
220.02078424471671
 20
229.4459000039156
 30
0.0
  0
VERTEX
  5
1C2E
  8
0
 10
219.98760045122259
 20
229.48098068281229
 30
0.0
  0
VERTEX
  5
1C2F
  8
0
 10
219.954054625574
 20
229.5158256176164
 30
0.0
  0
VERTEX
  5
1C30
  8
0
 10
219.88587567663521
 20
229.5847972151991
 30
0.0
  0
VERTEX
  5
1C31
  8
0
 10
219.81624492683969
 20
229.65279221290189
 30
0.0
  0
VERTEX
  5
1C32
  8
0
 10
219.74484889898221
 20
229.7200750326125
 30
0.0
  0
VERTEX
  5
1C33
  8
0
 10
219.67059824127719
 20
229.78756092076449
 30
0.0
  0
VERTEX
  5
1C34
  8
0
 10
219.59363574972701
 20
229.8549648501571
 30
0.0
  0
VERTEX
  5
1C35
  8
0
 10
219.55422846980881
 20
229.88851432780561
 30
0.0
  0
VERTEX
  5
1C36
  8
0
 10
219.51425546608621
 20
229.9218997875092
 30
0.0
  0
VERTEX
  5
1C37
  8
0
 10
219.43277553398431
 20
229.98800076427341
 30
0.0
  0
VERTEX
  5
1C38
  8
0
 10
219.3495337589226
 20
230.05292987215
 30
0.0
  0
VERTEX
  5
1C39
  8
0
 10
219.3073615647375
 20
230.0848580742591
 30
0.0
  0
SEQEND
  5
1C3A
  8
0
  0
POLYLINE
  5
9E7
  8
0
 66
     1
 10
0.0
 20
0.0
 30
0.0
  0
VERTEX
  5
1C3B
  8
0
 10
130.9986185912347
 20
222.4373943698009
 30
0.0
  0
VERTEX
  5
1C3C
  8
0
 10
130.9987404682054
 20
222.4369998423592
 30
0.0
  0
VERTEX
  5
1C3D
  8
0
 10
130.9996907053748
 20
222.4339256326254
 30
0.0
  0
VERTEX
  5
1C3E
  8
0
 10
131.0015314296661
 20
222.42797956291039
 30
0.0
  0
VERTEX
  5
1C3F
  8
0
 10
131.00276803580169
 20
222.4239916429961
 30
0.0
  0
VERTEX
  5
1C40
  8
0
 10
131.00420689232931
 20
222.41935820908481
 30
0.0
  0
VERTEX
  5
1C41
  8
0
 10
131.0076680827728
 20
222.40824184978479
 30
0.0
  0
VERTEX
  5
1C42
  8
0
 10
131.0118722759602
 20
222.39479460918929
 30
0.0
  0
VERTEX
  5
1C43
  8
0
 10
131.01678235282321
 20
222.37916561758851
 30
0.0
  0
VERTEX
  5
1C44
  8
0
 10
131.0223659881193
 20
222.36149081618871
 30
0.0
  0
VERTEX
  5
1C45
  8
0
 10
131.02859480534681
 20
222.34189502133131
 30
0.0
  0
VERTEX
  5
1C46
  8
0
 10
131.0319432121222
 20
222.33141308664759
 30
0.0
  0
VERTEX
  5
1C47
  8
0
 10
131.03544383611501
 20
222.3204931391144
 30
0.0
  0
VERTEX
  5
1C48
  8
0
 10
131.0428917948276
 20
222.2973889538134
 30
0.0
  0
VERTEX
  5
1C49
  8
0
 10
131.0509209460522
 20
222.27267534679919
 30
0.0
  0
VERTEX
  5
1C4A
  8
0
 10
131.05951670167821
 20
222.2464354465192
 30
0.0
  0
VERTEX
  5
1C4B
  8
0
 10
131.0686671960303
 20
222.21874389133791
 30
0.0
  0
VERTEX
  5
1C4C
  8
0
 10
131.0783628641062
 20
222.18966810270891
 30
0.0
  0
VERTEX
  5
1C4D
  8
0
 10
131.0834126801789
 20
222.17463051352399
 30
0.0
  0
VERTEX
  5
1C4E
  8
0
 10
131.08859604610561
 20
222.1592694808073
 30
0.0
  0
VERTEX
  5
1C4F
  8
0
 10
131.0993606301206
 20
222.1276044765913
 30
0.0
  0
VERTEX
  5
1C50
  8
0
 10
131.1106466619033
 20
222.09474022600011
 30
0.0
  0
VERTEX
  5
1C51
  8
0
 10
131.116481848875
 20
222.07787982132319
 30
0.0
  0
VERTEX
  5
1C52
  8
0
 10
131.12244426159711
 20
222.0607425563966
 30
0.0
  0
VERTEX
  5
1C53
  8
0
 10
131.13474853357931
 20
222.02566189946751
 30
0.0
  0
VERTEX
  5
1C54
  8
0
 10
131.14755565311069
 20
221.9895448952785
 30
0.0
  0
VERTEX
  5
1C55
  8
0
 10
131.1541468370728
 20
221.9711114300371
 30
0.0
  0
VERTEX
  5
1C56
  8
0
 10
131.1608626999971
 20
221.95243491156671
 30
0.0
  0
VERTEX
  5
1C57
  8
0
 10
131.17466750667941
 20
221.91437251151279
 30
0.0
  0
VERTEX
  5
1C58
  8
0
 10
131.18896852218529
 20
221.8753958655771
 30
0.0
  0
VERTEX
  5
1C59
  8
0
 10
131.2037646925244
 20
221.83554110645591
 30
0.0
  0
VERTEX
  5
1C5A
  8
0
 10
131.21905536806821
 20
221.7948426006831
 30
0.0
  0
VERTEX
  5
1C5B
  8
0
 10
131.234840345229
 20
221.75333286067089
 30
0.0
  0
VERTEX
  5
1C5C
  8
0
 10
131.24291826644401
 20
221.7322834105068
 30
0.0
  0
VERTEX
  5
1C5D
  8
0
 10
131.2511199001122
 20
221.71104249332919
 30
0.0
  0
VERTEX
  5
1C5E
  8
0
 10
131.26789471741381
 20
221.66800042889079
 30
0.0
  0
VERTEX
  5
1C5F
  8
0
 10
131.28516582542579
 20
221.62423412628951
 30
0.0
  0
VERTEX
  5
1C60
  8
0
 10
131.34954388088531
 20
221.46571679517311
 30
0.0
  0
VERTEX
  5
1C61
  8
0
 10
131.47364168681759
 20
221.17844795901041
 30
0.0
  0
VERTEX
  5
1C62
  8
0
 10
131.61416533380839
 20
220.87769100247189
 30
0.0
  0
VERTEX
  5
1C63
  8
0
 10
131.77007982324679
 20
220.56914651244551
 30
0.0
  0
VERTEX
  5
1C64
  8
0
 10
131.85337785249129
 20
220.41359052120109
 30
0.0
  0
VERTEX
  5
1C65
  8
0
 10
131.93995024312321
 20
220.25799759399769
 30
0.0
  0
VERTEX
  5
1C66
  8
0
 10
132.12186915593711
 20
219.94902804990019
 30
0.0
  0
VERTEX
  5
1C67
  8
0
 10
132.31486718784731
 20
219.64446733751211
 30
0.0
  0
VERTEX
  5
1C68
  8
0
 10
132.52530344245039
 20
219.33568363121441
 30
0.0
  0
VERTEX
  5
1C69
  8
0
 10
132.75418000881311
 20
219.0235998936742
 30
0.0
  0
VERTEX
  5
1C6A
  8
0
 10
133.0011753117094
 20
218.7108668366229
 30
0.0
  0
VERTEX
  5
1C6B
  8
0
 10
133.13131477566091
 20
218.55504605447891
 30
0.0
  0
VERTEX
  5
1C6C
  8
0
 10
133.26577459785051
 20
218.39999336531741
 30
0.0
  0
VERTEX
  5
1C6D
  8
0
 10
133.54724595180099
 20
218.09335923531111
 30
0.0
  0
VERTEX
  5
1C6E
  8
0
 10
133.84463552692921
 20
217.79320182819501
 30
0.0
  0
VERTEX
  5
1C6F
  8
0
 10
133.9989768129669
 20
217.6461745861919
 30
0.0
  0
SEQEND
  5
1C70
  8
0
  0
POLYLINE
  5
9E8
  8
0
 66
     1
 10
0.0
 20
0.0
 30
0.0
  0
VERTEX
  5
1C71
  8
0
 10
133.9989768129669
 20
233.72165658358091
 30
0.0
  0
VERTEX
  5
1C72
  8
0
 10
133.84463552692921
 20
233.57462934157769
 30
0.0
  0
VERTEX
  5
1C73
  8
0
 10
133.54724595180099
 20
233.2744719344617
 30
0.0
  0
VERTEX
  5
1C74
  8
0
 10
133.26577459785051
 20
232.96783780445531
 30
0.0
  0
VERTEX
  5
1C75
  8
0
 10
133.13131477566091
 20
232.81278511529391
 30
0.0
  0
VERTEX
  5
1C76
  8
0
 10
133.0011753117094
 20
232.65696433314989
 30
0.0
  0
VERTEX
  5
1C77
  8
0
 10
132.75418000881311
 20
232.34423127609861
 30
0.0
  0
VERTEX
  5
1C78
  8
0
 10
132.52530344245039
 20
232.03214753855841
 30
0.0
  0
VERTEX
  5
1C79
  8
0
 10
132.31486718784731
 20
231.72336383226059
 30
0.0
  0
VERTEX
  5
1C7A
  8
0
 10
132.12186915593711
 20
231.41880311987251
 30
0.0
  0
VERTEX
  5
1C7B
  8
0
 10
131.93995024312321
 20
231.10983357577501
 30
0.0
  0
VERTEX
  5
1C7C
  8
0
 10
131.85337785249129
 20
230.9542406485717
 30
0.0
  0
VERTEX
  5
1C7D
  8
0
 10
131.77007982324679
 20
230.79868465732719
 30
0.0
  0
VERTEX
  5
1C7E
  8
0
 10
131.61416533380839
 20
230.49014016730089
 30
0.0
  0
VERTEX
  5
1C7F
  8
0
 10
131.47364168681759
 20
230.18938321076229
 30
0.0
  0
VERTEX
  5
1C80
  8
0
 10
131.34954388088531
 20
229.90211437459959
 30
0.0
  0
VERTEX
  5
1C81
  8
0
 10
131.28516582542579
 20
229.74359704348319
 30
0.0
  0
VERTEX
  5
1C82
  8
0
 10
131.26789471741381
 20
229.69983074088191
 30
0.0
  0
VERTEX
  5
1C83
  8
0
 10
131.2511199001122
 20
229.6567886764436
 30
0.0
  0
VERTEX
  5
1C84
  8
0
 10
131.24291826644401
 20
229.6355477592659
 30
0.0
  0
VERTEX
  5
1C85
  8
0
 10
131.234840345229
 20
229.61449830910189
 30
0.0
  0
VERTEX
  5
1C86
  8
0
 10
131.21905536806821
 20
229.5729885690896
 30
0.0
  0
VERTEX
  5
1C87
  8
0
 10
131.2037646925244
 20
229.53229006331691
 30
0.0
  0
VERTEX
  5
1C88
  8
0
 10
131.18896852218529
 20
229.49243530419571
 30
0.0
  0
VERTEX
  5
1C89
  8
0
 10
131.17466750667941
 20
229.4534586582599
 30
0.0
  0
VERTEX
  5
1C8A
  8
0
 10
131.1608626999971
 20
229.41539625820599
 30
0.0
  0
VERTEX
  5
1C8B
  8
0
 10
131.1541468370728
 20
229.3967197397356
 30
0.0
  0
VERTEX
  5
1C8C
  8
0
 10
131.14755565311069
 20
229.3782862744942
 30
0.0
  0
VERTEX
  5
1C8D
  8
0
 10
131.13474853357931
 20
229.34216927030519
 30
0.0
  0
VERTEX
  5
1C8E
  8
0
 10
131.12244426159711
 20
229.30708861337621
 30
0.0
  0
VERTEX
  5
1C8F
  8
0
 10
131.116481848875
 20
229.28995134844959
 30
0.0
  0
VERTEX
  5
1C90
  8
0
 10
131.1106466619033
 20
229.27309094377259
 30
0.0
  0
VERTEX
  5
1C91
  8
0
 10
131.0993606301206
 20
229.2402266931814
 30
0.0
  0
VERTEX
  5
1C92
  8
0
 10
131.08859604610561
 20
229.20856168896549
 30
0.0
  0
VERTEX
  5
1C93
  8
0
 10
131.0834126801789
 20
229.19320065624879
 30
0.0
  0
VERTEX
  5
1C94
  8
0
 10
131.0783628641062
 20
229.17816306706371
 30
0.0
  0
VERTEX
  5
1C95
  8
0
 10
131.0686671960303
 20
229.14908727843479
 30
0.0
  0
VERTEX
  5
1C96
  8
0
 10
131.05951670167821
 20
229.1213957232535
 30
0.0
  0
VERTEX
  5
1C97
  8
0
 10
131.0509209460522
 20
229.09515582297351
 30
0.0
  0
VERTEX
  5
1C98
  8
0
 10
131.0428917948276
 20
229.07044221595939
 30
0.0
  0
VERTEX
  5
1C99
  8
0
 10
131.03544383611501
 20
229.0473380306583
 30
0.0
  0
VERTEX
  5
1C9A
  8
0
 10
131.0319432121222
 20
229.0364180831252
 30
0.0
  0
VERTEX
  5
1C9B
  8
0
 10
131.02859480534681
 20
229.02593614844139
 30
0.0
  0
VERTEX
  5
1C9C
  8
0
 10
131.0223659881193
 20
229.00634035358411
 30
0.0
  0
VERTEX
  5
1C9D
  8
0
 10
131.01678235282321
 20
228.9886655521843
 30
0.0
  0
VERTEX
  5
1C9E
  8
0
 10
131.0118722759602
 20
228.97303656058341
 30
0.0
  0
VERTEX
  5
1C9F
  8
0
 10
131.0076680827728
 20
228.959589319988
 30
0.0
  0
VERTEX
  5
1CA0
  8
0
 10
131.00420689232931
 20
228.94847296068789
 30
0.0
  0
VERTEX
  5
1CA1
  8
0
 10
131.00276803580169
 20
228.9438395267766
 30
0.0
  0
VERTEX
  5
1CA2
  8
0
 10
131.0015314296661
 20
228.93985160686211
 30
0.0
  0
VERTEX
  5
1CA3
  8
0
 10
130.9996907053748
 20
228.93390553714741
 30
0.0
  0
VERTEX
  5
1CA4
  8
0
 10
130.9987404682054
 20
228.93083132741361
 30
0.0
  0
VERTEX
  5
1CA5
  8
0
 10
130.9986185912347
 20
228.9304367999718
 30
0.0
  0
SEQEND
  5
1CA6
  8
0
  0
POLYLINE
  5
9EB
  8
0
 66
     1
 10
0.0
 20
0.0
 30
0.0
  0
VERTEX
  5
1CA7
  8
0
 10
146.23112885219979
 20
235.6185971014263
 30
0.0
  0
VERTEX
  5
1CA8
  8
0
 10
145.890853093099
 20
235.77331699283269
 30
0.0
  0
VERTEX
  5
1CA9
  8
0
 10
145.20480829314121
 20
236.0443297507158
 30
0.0
  0
VERTEX
  5
1CAA
  8
0
 10
144.51833311324521
 20
236.26416220280601
 30
0.0
  0
VERTEX
  5
1CAB
  8
0
 10
144.1776269713009
 20
236.35520389825959
 30
0.0
  0
VERTEX
  5
1CAC
  8
0
 10
143.83667757995079
 20
236.4347360812512
 30
0.0
  0
VERTEX
  5
1CAD
  8
0
 10
143.13584598005539
 20
236.56289214635899
 30
0.0
  0
VERTEX
  5
1CAE
  8
0
 10
142.4148354002798
 20
236.64652344501729
 30
0.0
  0
VERTEX
  5
1CAF
  8
0
 10
141.68054836068711
 20
236.6825718734689
 30
0.0
  0
VERTEX
  5
1CB0
  8
0
 10
140.93991343841529
 20
236.6692045865083
 30
0.0
  0
VERTEX
  5
1CB1
  8
0
 10
140.199883580848
 20
236.60578413713461
 30
0.0
  0
VERTEX
  5
1CB2
  8
0
 10
139.83209561851521
 20
236.55540447656739
 30
0.0
  0
VERTEX
  5
1CB3
  8
0
 10
139.466871141187
 20
236.4927669276621
 30
0.0
  0
VERTEX
  5
1CB4
  8
0
 10
138.7474610487418
 20
236.33173268631771
 30
0.0
  0
VERTEX
  5
1CB5
  8
0
 10
138.0481546167963
 20
236.1254283623345
 30
0.0
  0
VERTEX
  5
1CB6
  8
0
 10
137.37512595906131
 20
235.87774894921839
 30
0.0
  0
VERTEX
  5
1CB7
  8
0
 10
136.73338172145051
 20
235.59336122212841
 30
0.0
  0
VERTEX
  5
1CB8
  8
0
 10
136.10223855477889
 20
235.2636366090818
 30
0.0
  0
VERTEX
  5
1CB9
  8
0
 10
135.7885650705029
 20
235.07971186407229
 30
0.0
  0
VERTEX
  5
1CBA
  8
0
 10
135.47762994443411
 20
234.8832185988197
 30
0.0
  0
VERTEX
  5
1CBB
  8
0
 10
134.8680991728356
 20
234.453379756309
 30
0.0
  0
VERTEX
  5
1CBC
  8
0
 10
134.28145921948661
 20
233.9765730247758
 30
0.0
  0
VERTEX
  5
1CBD
  8
0
 10
133.99897681296679
 20
233.7216565835808
 30
0.0
  0
SEQEND
  5
1CBE
  8
0
  0
POLYLINE
  5
9EC
  8
0
 66
     1
 10
0.0
 20
0.0
 30
0.0
  0
VERTEX
  5
1CBF
  8
0
 10
171.6880471973432
 20
232.65054797660511
 30
0.0
  0
VERTEX
  5
1CC0
  8
0
 10
170.94605129825339
 20
232.54571890350351
 30
0.0
  0
VERTEX
  5
1CC1
  8
0
 10
169.45981015149229
 20
232.3703084377232
 30
0.0
  0
VERTEX
  5
1CC2
  8
0
 10
167.97356018925319
 20
232.2406087052141
 30
0.0
  0
VERTEX
  5
1CC3
  8
0
 10
167.2316230364265
 20
232.1928498451654
 30
0.0
  0
VERTEX
  5
1CC4
  8
0
 10
166.49111109957209
 20
232.15641641958661
 30
0.0
  0
VERTEX
  5
1CC5
  8
0
 10
165.01626272504379
 20
232.11719695586439
 30
0.0
  0
VERTEX
  5
1CC6
  8
0
 10
163.5528089035468
 20
232.12208810817251
 30
0.0
  0
VERTEX
  5
1CC7
  8
0
 10
162.10447178789181
 20
232.16990498456559
 30
0.0
  0
VERTEX
  5
1CC8
  8
0
 10
160.6749722276553
 20
232.2591446925347
 30
0.0
  0
VERTEX
  5
1CC9
  8
0
 10
159.268008596839
 20
232.38798722621641
 30
0.0
  0
VERTEX
  5
1CCA
  8
0
 10
158.57411952414529
 20
232.46660529282249
 30
0.0
  0
VERTEX
  5
1CCB
  8
0
 10
157.88722964171981
 20
232.55430014196301
 30
0.0
  0
VERTEX
  5
1CCC
  8
0
 10
156.53109774442461
 20
232.75648206184141
 30
0.0
  0
VERTEX
  5
1CCD
  8
0
 10
155.1679785438676
 20
232.99898303996619
 30
0.0
  0
VERTEX
  5
1CCE
  8
0
 10
153.7950025738393
 20
233.28364888675611
 30
0.0
  0
VERTEX
  5
1CCF
  8
0
 10
152.4159357018878
 20
233.6111368583833
 30
0.0
  0
VERTEX
  5
1CD0
  8
0
 10
151.03446078596869
 20
233.98182511267231
 30
0.0
  0
VERTEX
  5
1CD1
  8
0
 10
150.34394888152721
 20
234.18341173493749
 30
0.0
  0
VERTEX
  5
1CD2
  8
0
 10
149.65416939407439
 20
234.3958178773477
 30
0.0
  0
VERTEX
  5
1CD3
  8
0
 10
148.27851559516381
 20
234.8529646768597
 30
0.0
  0
VERTEX
  5
1CD4
  8
0
 10
146.9108942464951
 20
235.35284031611491
 30
0.0
  0
VERTEX
  5
1CD5
  8
0
 10
146.23112885219979
 20
235.61859710142639
 30
0.0
  0
SEQEND
  5
1CD6
  8
0
  0
POLYLINE
  5
9ED
  8
0
 66
     1
 10
0.0
 20
0.0
 30
0.0
  0
VERTEX
  5
1CD7
  8
0
 10
173.15655115243629
 20
232.73276253665659
 30
0.0
  0
VERTEX
  5
1CD8
  8
0
 10
172.9139018208931
 20
232.73784892486771
 30
0.0
  0
VERTEX
  5
1CD9
  8
0
 10
172.4282991879551
 20
232.7259129954094
 30
0.0
  0
VERTEX
  5
1CDA
  8
0
 10
171.9357527161425
 20
232.68352790072109
 30
0.0
  0
VERTEX
  5
1CDB
  8
0
 10
171.6880471973432
 20
232.65054797660511
 30
0.0
  0
SEQEND
  5
1CDC
  8
0
  0
LINE
  5
9EE
  8
0
 10
216.00861859123469
 20
231.18391558488639
 30
0.0
 11
173.15655115243629
 21
232.73276253665659
 31
0.0
  0
POLYLINE
  5
9EF
  8
0
 66
     1
 10
0.0
 20
0.0
 30
0.0
  0
VERTEX
  5
1CDD
  8
0
 10
219.3073615647375
 20
230.0848580742591
 30
0.0
  0
VERTEX
  5
1CDE
  8
0
 10
219.22860734117671
 20
230.14280249197961
 30
0.0
  0
VERTEX
  5
1CDF
  8
0
 10
219.06735444072169
 20
230.25492586742371
 30
0.0
  0
VERTEX
  5
1CE0
  8
0
 10
218.90136877704191
 20
230.36173520117259
 30
0.0
  0
VERTEX
  5
1CE1
  8
0
 10
218.81670263994511
 20
230.41304488903731
 30
0.0
  0
VERTEX
  5
1CE2
  8
0
 10
218.73097864508901
 20
230.4629066643067
 30
0.0
  0
VERTEX
  5
1CE3
  8
0
 10
218.5565393921986
 20
230.55814368705961
 30
0.0
  0
VERTEX
  5
1CE4
  8
0
 10
218.37842825614661
 20
230.64718085606521
 30
0.0
  0
VERTEX
  5
1CE5
  8
0
 10
218.19703840647651
 20
230.72978703709919
 30
0.0
  0
VERTEX
  5
1CE6
  8
0
 10
218.01275717847051
 20
230.80577350200511
 30
0.0
  0
VERTEX
  5
1CE7
  8
0
 10
217.82591420355661
 20
230.87500763352469
 30
0.0
  0
VERTEX
  5
1CE8
  8
0
 10
217.73166008131389
 20
230.90704951227761
 30
0.0
  0
VERTEX
  5
1CE9
  8
0
 10
217.63692389504129
 20
230.93735463350919
 30
0.0
  0
VERTEX
  5
1CEA
  8
0
 10
217.44623012321321
 20
230.9927076398761
 30
0.0
  0
VERTEX
  5
1CEB
  8
0
 10
217.25428888219261
 20
231.04099552886939
 30
0.0
  0
VERTEX
  5
1CEC
  8
0
 10
217.06156187209109
 20
231.08218479337339
 30
0.0
  0
VERTEX
  5
1CED
  8
0
 10
216.8685109992692
 20
231.1162801756152
 30
0.0
  0
VERTEX
  5
1CEE
  8
0
 10
216.6756053452167
 20
231.14332294008639
 30
0.0
  0
VERTEX
  5
1CEF
  8
0
 10
216.57935761069589
 20
231.1542224292657
 30
0.0
  0
VERTEX
  5
1CF0
  8
0
 10
216.48332829512961
 20
231.16339098833771
 30
0.0
  0
VERTEX
  5
1CF1
  8
0
 10
216.29217200060609
 20
231.17660140004401
 30
0.0
  0
VERTEX
  5
1CF2
  8
0
 10
216.1026305368774
 20
231.18311204928699
 30
0.0
  0
VERTEX
  5
1CF3
  8
0
 10
216.00861859123469
 20
231.18391558488639
 30
0.0
  0
SEQEND
  5
1CF4
  8
0
  0
POLYLINE
  5
9F1
  8
0
 66
     1
 10
0.0
 20
0.0
 30
0.0
  0
VERTEX
  5
1CF5
  8
0
 10
216.00861859123469
 20
220.18391558488639
 30
0.0
  0
VERTEX
  5
1CF6
  8
0
 10
216.1026335178168
 20
220.1847191714474
 30
0.0
  0
VERTEX
  5
1CF7
  8
0
 10
216.29217839490181
 20
220.19123009983039
 30
0.0
  0
VERTEX
  5
1CF8
  8
0
 10
216.48333516171229
 20
220.2044407763199
 30
0.0
  0
VERTEX
  5
1CF9
  8
0
 10
216.57936378089349
 20
220.2136093842719
 30
0.0
  0
VERTEX
  5
1CFA
  8
0
 10
216.6756102866992
 20
220.2245088333994
 30
0.0
  0
VERTEX
  5
1CFB
  8
0
 10
216.86851214638111
 20
220.2515511757347
 30
0.0
  0
VERTEX
  5
1CFC
  8
0
 10
217.061557856137
 20
220.28564559308089
 30
0.0
  0
VERTEX
  5
1CFD
  8
0
 10
217.2542788187927
 20
220.32683330089259
 30
0.0
  0
VERTEX
  5
1CFE
  8
0
 10
217.44621366538669
 20
220.37511907317361
 30
0.0
  0
VERTEX
  5
1CFF
  8
0
 10
217.6369012191102
 20
220.43046950790421
 30
0.0
  0
VERTEX
  5
1D00
  8
0
 10
217.7316345135078
 20
220.4607732230898
 30
0.0
  0
VERTEX
  5
1D01
  8
0
 10
217.8258859624496
 20
220.49281364969781
 30
0.0
  0
VERTEX
  5
1D02
  8
0
 10
218.0127244443083
 20
220.56204485929439
 30
0.0
  0
VERTEX
  5
1D03
  8
0
 10
218.19700217067529
 20
220.6380284171789
 30
0.0
  0
VERTEX
  5
1D04
  8
0
 10
218.37838989171109
 20
220.72063199602721
 30
0.0
  0
VERTEX
  5
1D05
  8
0
 10
218.5565012556446
 20
220.80966754766061
 30
0.0
  0
VERTEX
  5
1D06
  8
0
 10
218.73094346277779
 20
220.90490446397669
 30
0.0
  0
VERTEX
  5
1D07
  8
0
 10
218.8166700489603
 20
220.95476692886331
 30
0.0
  0
VERTEX
  5
1D08
  8
0
 10
218.9013395575964
 20
221.0060778995053
 30
0.0
  0
VERTEX
  5
1D09
  8
0
 10
219.06733438049631
 20
221.1128918789183
 30
0.0
  0
VERTEX
  5
1D0A
  8
0
 10
219.2285997586624
 20
221.2250232020842
 30
0.0
  0
VERTEX
  5
1D0B
  8
0
 10
219.3073615647375
 20
221.28297309551371
 30
0.0
  0
SEQEND
  5
1D0C
  8
0
  0
LINE
  5
9F2
  8
0
 10
173.15655115243629
 20
218.63506863311611
 30
0.0
 11
216.00861859123469
 21
220.18391558488639
 31
0.0
  0
POLYLINE
  5
9F3
  8
0
 66
     1
 10
0.0
 20
0.0
 30
0.0
  0
VERTEX
  5
1D0D
  8
0
 10
171.6880471973432
 20
218.71728319316759
 30
0.0
  0
VERTEX
  5
1D0E
  8
0
 10
171.9357527161425
 20
218.6843032690517
 30
0.0
  0
VERTEX
  5
1D0F
  8
0
 10
172.4282991879551
 20
218.64191817436341
 30
0.0
  0
VERTEX
  5
1D10
  8
0
 10
172.9139018208931
 20
218.62998224490499
 30
0.0
  0
VERTEX
  5
1D11
  8
0
 10
173.15655115243629
 20
218.63506863311611
 30
0.0
  0
SEQEND
  5
1D12
  8
0
  0
POLYLINE
  5
9F4
  8
0
 66
     1
 10
0.0
 20
0.0
 30
0.0
  0
VERTEX
  5
1D13
  8
0
 10
146.23112885219979
 20
215.7492340683464
 30
0.0
  0
VERTEX
  5
1D14
  8
0
 10
146.9108942464857
 20
216.0149908536543
 30
0.0
  0
VERTEX
  5
1D15
  8
0
 10
148.27851559515489
 20
216.5148664929099
 30
0.0
  0
VERTEX
  5
1D16
  8
0
 10
149.65416939406589
 20
216.97201329242239
 30
0.0
  0
VERTEX
  5
1D17
  8
0
 10
150.343948881519
 20
217.18441943483279
 30
0.0
  0
VERTEX
  5
1D18
  8
0
 10
151.03446078596079
 20
217.38600605709831
 30
0.0
  0
VERTEX
  5
1D19
  8
0
 10
152.4159357018805
 20
217.75669431138769
 30
0.0
  0
VERTEX
  5
1D1A
  8
0
 10
153.79500257383239
 20
218.0841822830152
 30
0.0
  0
VERTEX
  5
1D1B
  8
0
 10
155.16797854386141
 20
218.3688481298054
 30
0.0
  0
VERTEX
  5
1D1C
  8
0
 10
156.53109774441899
 20
218.61134910793041
 30
0.0
  0
VERTEX
  5
1D1D
  8
0
 10
157.8872296417147
 20
218.81353102780901
 30
0.0
  0
VERTEX
  5
1D1E
  8
0
 10
158.5741195241404
 20
218.90122587694981
 30
0.0
  0
VERTEX
  5
1D1F
  8
0
 10
159.26800859683439
 20
218.97984394355581
 30
0.0
  0
VERTEX
  5
1D20
  8
0
 10
160.6749722276511
 20
219.1086864772378
 30
0.0
  0
VERTEX
  5
1D21
  8
0
 10
162.1044717878882
 20
219.197926185207
 30
0.0
  0
VERTEX
  5
1D22
  8
0
 10
163.55280890354379
 20
219.24574306160031
 30
0.0
  0
VERTEX
  5
1D23
  8
0
 10
165.01626272504109
 20
219.2506342139084
 30
0.0
  0
VERTEX
  5
1D24
  8
0
 10
166.49111109957011
 20
219.21141475018621
 30
0.0
  0
VERTEX
  5
1D25
  8
0
 10
167.23162303642479
 20
219.1749813246075
 30
0.0
  0
VERTEX
  5
1D26
  8
0
 10
167.97356018925171
 20
219.1272224645588
 30
0.0
  0
VERTEX
  5
1D27
  8
0
 10
169.45981015149141
 20
218.99752273204959
 30
0.0
  0
VERTEX
  5
1D28
  8
0
 10
170.94605129825311
 20
218.8221122662693
 30
0.0
  0
VERTEX
  5
1D29
  8
0
 10
171.6880471973432
 20
218.71728319316759
 30
0.0
  0
SEQEND
  5
1D2A
  8
0
  0
POLYLINE
  5
9F5
  8
0
 66
     1
 10
0.0
 20
0.0
 30
0.0
  0
VERTEX
  5
1D2B
  8
0
 10
133.99897681296679
 20
217.6461745861919
 30
0.0
  0
VERTEX
  5
1D2C
  8
0
 10
134.28145921948661
 20
217.3912581449969
 30
0.0
  0
VERTEX
  5
1D2D
  8
0
 10
134.8680991728356
 20
216.91445141346381
 30
0.0
  0
VERTEX
  5
1D2E
  8
0
 10
135.47762994443411
 20
216.48461257095309
 30
0.0
  0
VERTEX
  5
1D2F
  8
0
 10
135.7885650705029
 20
216.28811930570049
 30
0.0
  0
VERTEX
  5
1D30
  8
0
 10
136.10223855477889
 20
216.1041945606909
 30
0.0
  0
VERTEX
  5
1D31
  8
0
 10
136.73338172145051
 20
215.77446994764441
 30
0.0
  0
VERTEX
  5
1D32
  8
0
 10
137.37512595906131
 20
215.4900822205544
 30
0.0
  0
VERTEX
  5
1D33
  8
0
 10
138.0481546167963
 20
215.2424028074382
 30
0.0
  0
VERTEX
  5
1D34
  8
0
 10
138.7474610487418
 20
215.03609848345491
 30
0.0
  0
VERTEX
  5
1D35
  8
0
 10
139.46687114118711
 20
214.87506424211071
 30
0.0
  0
VERTEX
  5
1D36
  8
0
 10
139.83209561851521
 20
214.81242669320531
 30
0.0
  0
VERTEX
  5
1D37
  8
0
 10
140.199883580848
 20
214.76204703263821
 30
0.0
  0
VERTEX
  5
1D38
  8
0
 10
140.93991343841529
 20
214.6986265832644
 30
0.0
  0
VERTEX
  5
1D39
  8
0
 10
141.68054836068711
 20
214.68525929630391
 30
0.0
  0
VERTEX
  5
1D3A
  8
0
 10
142.4148354002798
 20
214.72130772475549
 30
0.0
  0
VERTEX
  5
1D3B
  8
0
 10
143.13584598005539
 20
214.80493902341371
 30
0.0
  0
VERTEX
  5
1D3C
  8
0
 10
143.83667757995079
 20
214.9330950885215
 30
0.0
  0
VERTEX
  5
1D3D
  8
0
 10
144.1776269713009
 20
215.0126272715132
 30
0.0
  0
VERTEX
  5
1D3E
  8
0
 10
144.51833311324521
 20
215.10366896696681
 30
0.0
  0
VERTEX
  5
1D3F
  8
0
 10
145.20480829314121
 20
215.3235014190569
 30
0.0
  0
VERTEX
  5
1D40
  8
0
 10
145.890853093099
 20
215.59451417694001
 30
0.0
  0
VERTEX
  5
1D41
  8
0
 10
146.23112885219979
 20
215.7492340683464
 30
0.0
  0
SEQEND
  5
1D42
  8
0
  0
CIRCLE
  5
9F7
  8
0
 10
141.50861859123469
 20
225.68391558488639
 30
0.0
 40
6.0
  0
CIRCLE
  5
A04
  8
3
 10
141.49861859123459
 20
21.713075697056201
 30
0.0
 40
4.0900000000000034
  0
LINE
  5
A12
  8
0
 10
151.99861859123459
 20
136.24833638507661
 30
0.0
 11
151.7486563440853
 21
135.99837413792719
 31
0.0
  0
TEXT
  5
143C
  8
0
 62
     3
 10
0.0
 20
0.0
 30
0.0
 40
10.0
  1
FKRP10X40-SUS
  7
STANDARD1
  0
ENDSEC
  0
EOF
