  0
SECTION
  2
HEADER
  9
$ACADVER
  1
AC1009
  9
$INSBASE
 10
0.0
 20
0.0
 30
0.0
  9
$EXTMIN
 10
0.0
 20
-2.960436562073669
 30
0.0
  9
$EXTMAX
 10
331.79342635290112
 20
257.13319489944911
 30
0.0
  9
$LIMMIN
 10
0.0
 20
0.0
  9
$LIMMAX
 10
187.5
 20
135.0
  9
$ORTHOMODE
 70
     1
  9
$REGENMODE
 70
     1
  9
$FILLMODE
 70
     1
  9
$QTEXTMODE
 70
     0
  9
$MIRRTEXT
 70
     0
  9
$DRAGMODE
 70
     2
  9
$LTSCALE
 40
10.0
  9
$OSMODE
 70
    55
  9
$ATTMODE
 70
     1
  9
$TEXTSIZE
 40
4.0
  9
$TRACEWID
 40
0.05
  9
$TEXTSTYLE
  7
STANDARD
  9
$CLAYER
  8
0
  9
$CELTYPE
  6
BYLAYER
  9
$CECOLOR
 62
   256
  9
$DIMSCALE
 40
0.5
  9
$DIMASZ
 40
3.0
  9
$DIMEXO
 40
2.0
  9
$DIMDLI
 40
0.38
  9
$DIMRND
 40
0.0
  9
$DIMDLE
 40
0.0
  9
$DIMEXE
 40
2.0
  9
$DIMTP
 40
0.0
  9
$DIMTM
 40
0.0
  9
$DIMTXT
 40
3.0
  9
$DIMCEN
 40
0.0
  9
$DIMTSZ
 40
0.0
  9
$DIMTOL
 70
     0
  9
$DIMLIM
 70
     0
  9
$DIMTIH
 70
     0
  9
$DIMTOH
 70
     0
  9
$DIMSE1
 70
     0
  9
$DIMSE2
 70
     0
  9
$DIMTAD
 70
     1
  9
$DIMZIN
 70
     0
  9
$DIMBLK
  1

  9
$DIMASO
 70
     0
  9
$DIMSHO
 70
     0
  9
$DIMPOST
  1

  9
$DIMAPOST
  1

  9
$DIMALT
 70
     0
  9
$DIMALTD
 70
     2
  9
$DIMALTF
 40
25.399999999999999
  9
$DIMLFAC
 40
1.0
  9
$DIMTOFL
 70
     0
  9
$DIMTVP
 40
1.6000000000000001
  9
$DIMTIX
 70
     1
  9
$DIMSOXD
 70
     0
  9
$DIMSAH
 70
     0
  9
$DIMBLK1
  1

  9
$DIMBLK2
  1

  9
$DIMSTYLE
  2
STANDARD
  9
$DIMCLRD
 70
     0
  9
$DIMCLRE
 70
     0
  9
$DIMCLRT
 70
     0
  9
$DIMTFAC
 40
1.0
  9
$DIMGAP
 40
0.09
  9
$LUNITS
 70
     2
  9
$LUPREC
 70
     4
  9
$SKETCHINC
 40
0.1
  9
$FILLETRAD
 40
1.25
  9
$AUNITS
 70
     0
  9
$AUPREC
 70
     0
  9
$MENU
  1
E:\r13\win\SUPPORT\ACAD
  9
$ELEVATION
 40
0.0
  9
$PELEVATION
 40
0.0
  9
$THICKNESS
 40
0.0
  9
$LIMCHECK
 70
     0
  9
$BLIPMODE
 70
     0
  9
$CHAMFERA
 40
1.0
  9
$CHAMFERB
 40
1.0
  9
$SKPOLY
 70
     0
  9
$TDCREATE
 40
2449840.6143865739
  9
$TDUPDATE
 40
2456598.6622062498
  9
$TDINDWG
 40
0.2520555903
  9
$TDUSRTIMER
 40
0.2520555903
  9
$USRTIMER
 70
     1
  9
$ANGBASE
 50
0.0
  9
$ANGDIR
 70
     0
  9
$PDMODE
 70
     0
  9
$PDSIZE
 40
0.0
  9
$PLINEWID
 40
0.0
  9
$COORDS
 70
     1
  9
$SPLFRAME
 70
     0
  9
$SPLINETYPE
 70
     6
  9
$SPLINESEGS
 70
     8
  9
$ATTDIA
 70
     0
  9
$ATTREQ
 70
     1
  9
$HANDLING
 70
     1
  9
$HANDSEED
  5
196A
  9
$SURFTAB1
 70
     6
  9
$SURFTAB2
 70
     6
  9
$SURFTYPE
 70
     6
  9
$SURFU
 70
     6
  9
$SURFV
 70
     6
  9
$UCSNAME
  2

  9
$UCSORG
 10
0.0
 20
0.0
 30
0.0
  9
$UCSXDIR
 10
1.0
 20
0.0
 30
0.0
  9
$UCSYDIR
 10
0.0
 20
1.0
 30
0.0
  9
$PUCSNAME
  2

  9
$PUCSORG
 10
0.0
 20
0.0
 30
0.0
  9
$PUCSXDIR
 10
1.0
 20
0.0
 30
0.0
  9
$PUCSYDIR
 10
0.0
 20
1.0
 30
0.0
  9
$USERI1
 70
     0
  9
$USERI2
 70
     1
  9
$USERI3
 70
     1
  9
$USERI4
 70
     0
  9
$USERI5
 70
     0
  9
$USERR1
 40
0.0
  9
$USERR2
 40
0.0
  9
$USERR3
 40
0.0
  9
$USERR4
 40
0.0
  9
$USERR5
 40
0.0
  9
$WORLDVIEW
 70
     1
  9
$SHADEDGE
 70
     3
  9
$SHADEDIF
 70
    70
  9
$TILEMODE
 70
     1
  9
$MAXACTVP
 70
    16
  9
$PLIMCHECK
 70
     0
  9
$PEXTMIN
 10
1.0000000000000000E+020
 20
1.0000000000000000E+020
 30
1.0000000000000000E+020
  9
$PEXTMAX
 10
-1.0000000000000000E+020
 20
-1.0000000000000000E+020
 30
-1.0000000000000000E+020
  9
$PLIMMIN
 10
0.0
 20
0.0
  9
$PLIMMAX
 10
12.0
 20
9.0
  9
$UNITMODE
 70
     0
  9
$VISRETAIN
 70
     0
  9
$PLINEGEN
 70
     0
  9
$PSLTSCALE
 70
     0
  0
ENDSEC
  0
SECTION
  2
TABLES
  0
TABLE
  2
VPORT
 70
     1
  0
VPORT
  2
*ACTIVE
 70
     0
 10
0.0
 20
0.0
 11
1.0
 21
1.0
 12
165.89671394896729
 22
166.53842394722511
 13
0.0
 23
0.0
 14
5.0
 24
5.0
 15
5.0
 25
5.0
 16
0.0
 26
0.0
 36
1.0
 17
0.0
 27
0.0
 37
0.0
 40
342.00687153229978
 41
1.7807262569832401
 42
50.0
 43
0.0
 44
0.0
 50
0.0
 51
0.0
 71
     0
 72
   100
 73
     1
 74
     0
 75
     0
 76
     0
 77
     0
 78
     0
  0
ENDTAB
  0
TABLE
  2
LTYPE
 70
     3
  0
LTYPE
  2
CONTINUOUS
 70
     0
  3
Solid Line
 72
    65
 73
     0
 40
0.0
  0
LTYPE
  2
CENTER
 70
     0
  3
____ _ ____ _ ____ _ ____ _ ____ _ ____ _ ____
 72
    65
 73
     4
 40
2.0
 49
1.25
 49
-0.25
 49
0.25
 49
-0.25
  0
LTYPE
  2
PHANTOM2
 70
     0
  3
___ _ _ ___ _ _ ___ _ _ ___ _ _
 72
    65
 73
     6
 40
1.25
 49
0.625
 49
-0.125
 49
0.125
 49
-0.125
 49
0.125
 49
-0.125
  0
ENDTAB
  0
TABLE
  2
LAYER
 70
     3
  0
LAYER
  2
0
 70
     0
 62
     7
  6
CONTINUOUS
  0
LAYER
  2
1
 70
     0
 62
     1
  6
CENTER
  0
LAYER
  2
3
 70
     0
 62
     3
  6
CONTINUOUS
  0
ENDTAB
  0
TABLE
  2
STYLE
 70
     2
  0
STYLE
  2
STANDARD
 70
     0
 40
0.0
 41
1.0
 50
0.0
 71
     0
 42
4.0
  3
TXT
  4
BIGFONT
  0
STYLE
  2
STANDARD1
 70
     0
 40
0.0
 41
1.0
 50
0.0
 71
     0
 42
3.0
  3
txt
  4

  0
ENDTAB
  0
TABLE
  2
VIEW
 70
     1
  0
VIEW
  2
ALL
 70
     0
 40
179.66152299999999
 10
141.903918
 20
89.830760999999995
 41
0.0
 11
0.0
 21
0.0
 31
1.0
 12
0.0
 22
0.0
 32
0.0
 42
0.0
 43
0.0
 44
0.0
 50
0.0
 71
     0
  0
ENDTAB
  0
TABLE
  2
UCS
 70
     0
  0
ENDTAB
  0
TABLE
  2
APPID
 70
     4
  0
APPID
  2
ACAD
 70
     0
  0
APPID
  2
DCO15
 70
     0
  0
APPID
  2
ACAD_MLEADERVER
 70
     0
  0
APPID
  2
ACAD_NAV_VCDISPLAY
 70
     0
  0
ENDTAB
  0
TABLE
  2
DIMSTYLE
 70
     1
  0
DIMSTYLE
  2
STANDARD
 70
     0
  3

  4

  5

  6

  7

 40
1.0
 41
0.18
 42
0.0625
 43
0.38
 44
0.18
 45
0.0
 46
0.0
 47
0.0
 48
0.0
140
0.18
141
0.09
142
0.0
143
25.399999999999999
144
1.0
145
0.0
146
1.0
147
0.09
 71
     0
 72
     0
 73
     1
 74
     1
 75
     0
 76
     0
 77
     0
 78
     0
170
     0
171
     2
172
     0
173
     0
174
     0
175
     0
176
     0
177
     0
178
     0
  0
ENDTAB
  0
ENDSEC
  0
SECTION
  2
BLOCKS
  0
BLOCK
  8
0
  2
$MODEL_SPACE
 70
     0
 10
0.0
 20
0.0
 30
0.0
  3
$MODEL_SPACE
  1

  0
ENDBLK
  5
1BD
  8
0
  0
BLOCK
 67
     1
  8
0
  2
$PAPER_SPACE
 70
     0
 10
0.0
 20
0.0
 30
0.0
  3
$PAPER_SPACE
  1

  0
ENDBLK
  5
1BB
 67
     1
  8
0
  0
BLOCK
  8
0
  2
*X0
 70
     1
 10
0.0
 20
0.0
 30
0.0
  3
*X0
  1

  0
LINE
  5
1577
  8
0
 62
     0
 10
164.67495916220119
 20
177.63319489944911
 30
0.0
 11
166.0780191877021
 21
179.03625492494999
 31
0.0
  0
LINE
  5
1578
  8
0
 62
     0
 10
162.0233087327517
 20
177.63319489944911
 30
0.0
 11
166.0780191877021
 21
181.68790535439959
 31
0.0
  0
LINE
  5
1579
  8
0
 62
     0
 10
159.3716583033021
 20
177.63319489944911
 30
0.0
 11
165.3716583033021
 21
183.63319489944911
 31
0.0
  0
LINE
  5
157A
  8
0
 62
     0
 10
156.72000787385261
 20
177.63319489944911
 30
0.0
 11
162.72000787385261
 21
183.63319489944911
 31
0.0
  0
LINE
  5
157B
  8
0
 62
     0
 10
159.72801918770219
 20
183.29285664274829
 30
0.0
 11
160.06835744440301
 21
183.63319489944911
 31
0.0
  0
LINE
  5
157C
  8
0
 62
     0
 10
154.06835744440301
 20
177.63319489944911
 30
0.0
 11
159.56835744440309
 21
183.13319489944911
 31
0.0
  0
LINE
  5
157D
  8
0
 62
     0
 10
151.87801918770211
 20
178.09450707219781
 30
0.0
 11
157.4167070149534
 21
183.63319489944899
 31
0.0
  0
LINE
  5
157E
  8
0
 62
     0
 10
151.87801918770211
 20
180.7461575016473
 30
0.0
 11
154.7650565855038
 21
183.63319489944899
 31
0.0
  0
LINE
  5
157F
  8
0
 62
     0
 10
151.87801918770211
 20
183.39780793109691
 30
0.0
 11
152.11340615605431
 21
183.63319489944899
 31
0.0
  0
ENDBLK
  5
1581
  8
0
  0
BLOCK
  8
0
  2
*X1
 70
     1
 10
0.0
 20
0.0
 30
0.0
  3
*X1
  1

  0
LINE
  5
1583
  8
0
 62
     0
 10
166.07801918770221
 20
183.39780793109691
 30
0.0
 11
165.84263221935009
 21
183.63319489944899
 31
0.0
  0
LINE
  5
1584
  8
0
 62
     0
 10
166.07801918770221
 20
180.7461575016473
 30
0.0
 11
163.1909817899006
 21
183.63319489944899
 31
0.0
  0
LINE
  5
1585
  8
0
 62
     0
 10
166.07801918770221
 20
178.09450707219781
 30
0.0
 11
160.539331360451
 21
183.63319489944899
 31
0.0
  0
LINE
  5
1586
  8
0
 62
     0
 10
158.22801918770219
 20
183.29285664274829
 30
0.0
 11
157.8876809310014
 21
183.63319489944911
 31
0.0
  0
LINE
  5
1587
  8
0
 62
     0
 10
163.8876809310014
 20
177.63319489944911
 30
0.0
 11
158.38768093100131
 21
183.13319489944911
 31
0.0
  0
LINE
  5
1588
  8
0
 62
     0
 10
161.2360305015518
 20
177.63319489944911
 30
0.0
 11
155.2360305015518
 21
183.63319489944911
 31
0.0
  0
LINE
  5
1589
  8
0
 62
     0
 10
158.58438007210231
 20
177.63319489944911
 30
0.0
 11
152.58438007210231
 21
183.63319489944911
 31
0.0
  0
LINE
  5
158A
  8
0
 62
     0
 10
155.9327296426527
 20
177.63319489944911
 30
0.0
 11
151.87801918770231
 21
181.68790535439959
 31
0.0
  0
LINE
  5
158B
  8
0
 62
     0
 10
153.28107921320321
 20
177.63319489944911
 30
0.0
 11
151.87801918770231
 21
179.0362549249501
 31
0.0
  0
ENDBLK
  5
158D
  8
0
  0
BLOCK
  8
0
  2
*X2
 70
     1
 10
0.0
 20
0.0
 30
0.0
  3
*X2
  1

  0
LINE
  5
158F
  8
0
 62
     0
 10
79.515082685757562
 20
178.0945070721977
 30
0.0
 11
79.742513677589272
 21
178.32193806402941
 31
0.0
  0
LINE
  5
1590
  8
0
 62
     0
 10
76.863432256308016
 20
178.0945070721977
 30
0.0
 11
79.742513677589272
 21
180.97358849347901
 31
0.0
  0
LINE
  5
1591
  8
0
 62
     0
 10
74.21178182685847
 20
178.0945070721977
 30
0.0
 11
79.742513677589301
 21
183.62523892292859
 31
0.0
  0
LINE
  5
1592
  8
0
 62
     0
 10
71.560131397408924
 20
178.0945070721977
 30
0.0
 11
77.098819224660275
 21
183.63319489944911
 31
0.0
  0
LINE
  5
1593
  8
0
 62
     0
 10
68.908480967959335
 20
178.0945070721977
 30
0.0
 11
74.447168795210729
 21
183.63319489944911
 31
0.0
  0
LINE
  5
1594
  8
0
 62
     0
 10
66.256830538509831
 20
178.0945070721977
 30
0.0
 11
71.795518365761126
 21
183.63319489944899
 31
0.0
  0
LINE
  5
1595
  8
0
 62
     0
 10
65.542513677589284
 20
180.03184064072681
 30
0.0
 11
69.143867936311565
 21
183.63319489944899
 31
0.0
  0
LINE
  5
1596
  8
0
 62
     0
 10
65.542513677589284
 20
182.6834910701763
 30
0.0
 11
66.492217506861962
 21
183.63319489944899
 31
0.0
  0
ENDBLK
  5
1598
  8
0
  0
BLOCK
  8
0
  2
*X3
 70
     1
 10
0.0
 20
0.0
 30
0.0
  3
*X3
  1

  0
LINE
  5
159A
  8
0
 62
     0
 10
79.742513677589216
 20
182.6834910701763
 30
0.0
 11
78.792809848316494
 21
183.63319489944899
 31
0.0
  0
LINE
  5
159B
  8
0
 62
     0
 10
79.742513677589187
 20
180.03184064072681
 30
0.0
 11
76.141159418866934
 21
183.63319489944899
 31
0.0
  0
LINE
  5
159C
  8
0
 62
     0
 10
79.028196816668654
 20
178.0945070721977
 30
0.0
 11
73.489508989417345
 21
183.63319489944911
 31
0.0
  0
LINE
  5
159D
  8
0
 62
     0
 10
76.376546387219122
 20
178.0945070721977
 30
0.0
 11
70.837858559967742
 21
183.63319489944911
 31
0.0
  0
LINE
  5
159E
  8
0
 62
     0
 10
73.724895957769576
 20
178.0945070721977
 30
0.0
 11
68.186208130518196
 21
183.63319489944911
 31
0.0
  0
LINE
  5
159F
  8
0
 62
     0
 10
71.073245528320001
 20
178.0945070721977
 30
0.0
 11
65.542513677589227
 21
183.6252389229285
 31
0.0
  0
LINE
  5
15A0
  8
0
 62
     0
 10
68.421595098870455
 20
178.0945070721977
 30
0.0
 11
65.542513677589227
 21
180.97358849347901
 31
0.0
  0
LINE
  5
15A1
  8
0
 62
     0
 10
65.769944669420909
 20
178.0945070721977
 30
0.0
 11
65.542513677589227
 21
178.32193806402941
 31
0.0
  0
ENDBLK
  5
15A3
  8
0
  0
ENDSEC
  0
SECTION
  2
ENTITIES
  0
LINE
  5
11FE
  8
0
 10
145.4780191877021
 20
163.05690148527779
 30
0.0
 11
145.4780191877021
 21
141.63319489944911
 31
0.0
  0
LINE
  5
11FF
  8
0
 10
172.4780191877021
 20
141.63319489944911
 30
0.0
 11
172.4780191877021
 21
158.63319489944911
 31
0.0
  0
LINE
  5
1200
  8
0
 10
240.19297305698441
 20
180.60319489944911
 30
0.0
 11
231.33098127830371
 21
180.60319489944911
 31
0.0
  0
LINE
  5
1201
  8
0
 10
246.94396954489281
 20
182.04504836781771
 30
0.0
 11
244.95502553607949
 21
181.3791709896567
 31
0.0
  0
LINE
  5
1202
  8
0
 10
172.4780191877021
 20
141.63319489944911
 30
0.0
 11
145.4780191877021
 21
141.63319489944911
 31
0.0
  0
LINE
  5
1203
  8
1
 10
158.9780191877021
 20
189.63319489944911
 30
0.0
 11
158.9780191877021
 21
101.63319489944909
 31
0.0
  0
LINE
  5
1205
  8
0
 10
168.48801918770209
 20
131.63319489944911
 30
0.0
 11
168.48801918770209
 21
141.63319489944911
 31
0.0
  0
LINE
  5
1206
  8
0
 10
149.48801918770209
 20
141.63319489944911
 30
0.0
 11
149.48801918770209
 21
131.63319489944911
 31
0.0
  0
LINE
  5
1208
  8
0
 10
149.48801918770209
 20
131.63319489944911
 30
0.0
 11
168.48801918770209
 21
131.63319489944911
 31
0.0
  0
LINE
  5
1216
  8
0
 10
249.85559726191511
 20
194.63319489944911
 30
0.0
 11
249.9780191877021
 21
194.63319489944911
 31
0.0
  0
LINE
  5
1217
  8
0
 10
253.97801918770219
 20
190.63319489944911
 30
0.0
 11
253.97801918770219
 21
189.47818907839681
 31
0.0
  0
ARC
  5
1218
  8
0
 10
151.4780191877021
 20
163.05690148527779
 30
0.0
 40
6.0
 50
114.1848432038958
 51
180.0
  0
ARC
  5
1219
  8
0
 10
276.02126538065431
 20
-114.2605697056331
 30
0.0
 40
310.0
 50
94.841832834640755
 51
114.18484320389619
  0
ARC
  5
121A
  8
0
 10
249.97801918770219
 20
190.63319489944911
 30
0.0
 40
4.0
 50
0.0
 51
90.0
  0
ARC
  5
121B
  8
0
 10
305.70452874533828
 20
-98.951376312788852
 30
0.0
 40
290.0
 50
105.9892849829359
 51
117.3485107169774
  0
ARC
  5
121C
  8
0
 10
231.33098127830371
 20
160.60319489944911
 30
0.0
 40
20.0
 50
90.0
 51
105.9892849829359
  0
ARC
  5
121D
  8
0
 10
240.19297305698441
 20
195.60319489944911
 30
0.0
 40
15.0
 50
270.0
 51
288.50999999999942
  0
ARC
  5
121E
  8
0
 10
244.368650743286
 20
191.7077463901141
 30
0.0
 40
10.0
 50
284.92366289757967
 51
337.4991251017791
  0
ARC
  5
121F
  8
0
 10
248.98801918770209
 20
189.7942586909812
 30
0.0
 40
5.0
 50
337.4991251017791
 51
356.37569250600421
  0
LINE
  5
1220
  8
0
 10
145.4680191877022
 20
235.82538333484939
 30
0.0
 11
145.4680191877022
 21
240.9410064640488
 31
0.0
  0
LINE
  5
122D
  8
1
 10
158.9780191877021
 20
257.13319489944911
 30
0.0
 11
158.9780191877021
 21
219.63319489944911
 31
0.0
  0
LINE
  5
122E
  8
1
 10
258.97801918770222
 20
238.38319489944911
 30
0.0
 11
140.2280191877021
 21
238.38319489944911
 31
0.0
  0
ARC
  5
122F
  8
0
 10
247.47801918770219
 20
238.38319489944911
 30
0.0
 40
6.5
 50
270.0
 51
90.0
  0
ARC
  5
1230
  8
0
 10
158.9780191877021
 20
238.38319489944911
 30
0.0
 40
13.75
 50
190.72076149353649
 51
312.917560328555
  0
CIRCLE
  5
1231
  8
0
 10
158.9780191877021
 20
238.38319489944911
 30
0.0
 40
7.0999999999999996
  0
CIRCLE
  5
1232
  8
0
 10
160.25186923110221
 20
238.382987010232
 30
0.0
 40
8.8183418569113723
  0
ARC
  5
1233
  8
0
 10
188.1970851994902
 20
305.07201513262203
 30
0.0
 40
60.0
 50
250.67449694773779
 51
281.65751361817053
  0
LINE
  5
1234
  8
0
 10
247.47801918770219
 20
244.88319489944911
 30
0.0
 11
202.70431229921479
 21
246.5093224136414
 31
0.0
  0
ARC
  5
1235
  8
0
 10
202.34136354855909
 20
236.51591117400969
 30
0.0
 40
10.0
 50
87.919999999999831
 51
101.6575136181721
  0
ARC
  5
1236
  8
0
 10
188.1970851994902
 20
171.69437466627619
 30
0.0
 40
60.0
 50
78.34248638182946
 51
109.32550305226221
  0
LINE
  5
1237
  8
0
 10
247.47801918770219
 20
231.88319489944911
 30
0.0
 11
202.70431229921479
 21
230.25706738525679
 31
0.0
  0
ARC
  5
1238
  8
0
 10
202.34136354855909
 20
240.2504786248885
 30
0.0
 40
10.0
 50
258.34248638182788
 51
272.0800000000001
  0
ARC
  5
1239
  8
0
 10
158.9780191877021
 20
238.38319489944911
 30
0.0
 40
13.75
 50
47.08243967144503
 51
169.27923850646351
  0
LINE
  5
123A
  8
1
 10
258.97801918770222
 20
52.883194899449173
 30
0.0
 11
140.2280191877021
 21
52.883194899449101
 31
0.0
  0
ARC
  5
123B
  8
0
 10
188.1970851994902
 20
-13.80562533372375
 30
0.0
 40
60.0
 50
78.34248638182946
 51
109.32550305226221
  0
ARC
  5
123C
  8
0
 10
188.1970851994902
 20
119.572015132622
 30
0.0
 40
60.0
 50
250.67449694773779
 51
281.65751361817053
  0
LINE
  5
123D
  8
1
 10
158.9780191877021
 20
71.633194899449165
 30
0.0
 11
158.9780191877021
 21
34.133194899449173
 31
0.0
  0
ARC
  5
123E
  8
0
 10
158.9780191877021
 20
52.883194899449173
 30
0.0
 40
13.75
 50
190.72076149353649
 51
312.917560328555
  0
ARC
  5
123F
  8
0
 10
158.9780191877021
 20
52.883194899449173
 30
0.0
 40
13.75
 50
47.08243967144503
 51
169.27923850646351
  0
LINE
  5
1240
  8
0
 10
145.4680191877022
 20
50.325383334849448
 30
0.0
 11
145.4680191877022
 21
55.441006464048883
 31
0.0
  0
LINE
  5
1241
  8
0
 10
247.47801918770219
 20
46.383194899449158
 30
0.0
 11
202.70431229921479
 21
44.757067385256839
 31
0.0
  0
LINE
  5
1242
  8
0
 10
247.47801918770219
 20
59.383194899449109
 30
0.0
 11
202.70431229921479
 21
61.009322413641428
 31
0.0
  0
ARC
  5
1243
  8
0
 10
202.34136354855909
 20
54.750478624888558
 30
0.0
 40
10.0
 50
258.34248638182788
 51
272.0800000000001
  0
ARC
  5
1244
  8
0
 10
202.34136354855909
 20
51.015911174009709
 30
0.0
 40
10.0
 50
87.919999999999831
 51
101.6575136181721
  0
ARC
  5
1245
  8
0
 10
247.47801918770219
 20
52.883194899449101
 30
0.0
 40
6.5
 50
270.0
 51
90.0
  0
CIRCLE
  5
1246
  8
0
 10
158.9780191877021
 20
52.883194899449173
 30
0.0
 40
13.5
  0
CIRCLE
  5
1247
  8
0
 10
158.9780191877021
 20
52.883194899449173
 30
0.0
 40
9.5
  0
LINE
  5
124A
  8
0
 10
79.742513677589301
 20
171.1437233494502
 30
0.0
 11
79.742513677589287
 21
183.63319489944911
 31
0.0
  0
LINE
  5
124B
  8
0
 10
65.542513677589312
 20
183.63319489944899
 30
0.0
 11
65.542513677589312
 21
171.1437233494502
 31
0.0
  0
LINE
  5
124C
  8
0
 10
82.142513677589307
 20
131.63319489944911
 30
0.0
 11
82.142513677589307
 21
141.63319489944911
 31
0.0
  0
LINE
  5
124D
  8
0
 10
63.142513677589307
 20
141.63319489944911
 30
0.0
 11
63.142513677589307
 21
131.63319489944911
 31
0.0
  0
LINE
  5
124F
  8
0
 10
63.142513677589307
 20
131.63319489944911
 30
0.0
 11
82.142513677589307
 21
131.63319489944911
 31
0.0
  0
LINE
  5
1250
  8
0
 10
78.736773970138785
 20
194.63319489944911
 30
0.0
 11
66.548253385039814
 21
194.63319489944911
 31
0.0
  0
LINE
  5
1252
  8
0
 10
86.142513677589307
 20
141.63319489944911
 30
0.0
 11
59.142513677589307
 21
141.63319489944911
 31
0.0
  0
LINE
  5
1253
  8
1
 10
72.642513677589307
 20
199.63319489944911
 30
0.0
 11
72.642513677589307
 21
101.63319489944909
 31
0.0
  0
LINE
  5
1254
  8
0
 10
74.13237021215761
 20
169.80093277155919
 30
0.0
 11
71.152657143020974
 21
169.80093277155919
 31
0.0
  0
POLYLINE
  5
1255
  8
0
 10
74.132370212157625
 20
169.80093277155925
 30
0.0
 66
     1
 70
     8
  0
VERTEX
  8
0
  5
15DC
 10
74.1324
 20
169.801
 30
0.000000
  70
    32
  0
VERTEX
  8
0
  5
15DD
 10
74.2694
 20
169.810
 30
0.000000
  70
    32
  0
VERTEX
  8
0
  5
15DE
 10
74.4060
 20
169.821
 30
0.000000
  70
    32
  0
VERTEX
  8
0
  5
15DF
 10
74.5422
 20
169.832
 30
0.000000
  70
    32
  0
VERTEX
  8
0
  5
15E0
 10
74.6779
 20
169.844
 30
0.000000
  70
    32
  0
VERTEX
  8
0
  5
15E1
 10
74.8131
 20
169.857
 30
0.000000
  70
    32
  0
VERTEX
  8
0
  5
15E2
 10
74.9477
 20
169.871
 30
0.000000
  70
    32
  0
VERTEX
  8
0
  5
15E3
 10
75.0818
 20
169.885
 30
0.000000
  70
    32
  0
VERTEX
  8
0
  5
15E4
 10
75.2152
 20
169.900
 30
0.000000
  70
    32
  0
VERTEX
  8
0
  5
15E5
 10
75.3480
 20
169.916
 30
0.000000
  70
    32
  0
VERTEX
  8
0
  5
15E6
 10
75.4802
 20
169.933
 30
0.000000
  70
    32
  0
VERTEX
  8
0
  5
15E7
 10
75.6116
 20
169.951
 30
0.000000
  70
    32
  0
VERTEX
  8
0
  5
15E8
 10
75.7422
 20
169.970
 30
0.000000
  70
    32
  0
VERTEX
  8
0
  5
15E9
 10
75.8721
 20
169.989
 30
0.000000
  70
    32
  0
VERTEX
  8
0
  5
15EA
 10
76.0012
 20
170.009
 30
0.000000
  70
    32
  0
VERTEX
  8
0
  5
15EB
 10
76.1294
 20
170.030
 30
0.000000
  70
    32
  0
VERTEX
  8
0
  5
15EC
 10
76.2568
 20
170.052
 30
0.000000
  70
    32
  0
VERTEX
  8
0
  5
15ED
 10
76.3832
 20
170.074
 30
0.000000
  70
    32
  0
VERTEX
  8
0
  5
15EE
 10
76.5087
 20
170.097
 30
0.000000
  70
    32
  0
VERTEX
  8
0
  5
15EF
 10
76.6333
 20
170.121
 30
0.000000
  70
    32
  0
VERTEX
  8
0
  5
15F0
 10
76.7568
 20
170.146
 30
0.000000
  70
    32
  0
VERTEX
  8
0
  5
15F1
 10
76.8793
 20
170.172
 30
0.000000
  70
    32
  0
VERTEX
  8
0
  5
15F2
 10
77.0007
 20
170.198
 30
0.000000
  70
    32
  0
VERTEX
  8
0
  5
15F3
 10
77.1210
 20
170.225
 30
0.000000
  70
    32
  0
VERTEX
  8
0
  5
15F4
 10
77.2402
 20
170.253
 30
0.000000
  70
    32
  0
VERTEX
  8
0
  5
15F5
 10
77.3583
 20
170.281
 30
0.000000
  70
    32
  0
VERTEX
  8
0
  5
15F6
 10
77.4752
 20
170.310
 30
0.000000
  70
    32
  0
VERTEX
  8
0
  5
15F7
 10
77.5908
 20
170.340
 30
0.000000
  70
    32
  0
VERTEX
  8
0
  5
15F8
 10
77.7052
 20
170.371
 30
0.000000
  70
    32
  0
VERTEX
  8
0
  5
15F9
 10
77.8183
 20
170.402
 30
0.000000
  70
    32
  0
VERTEX
  8
0
  5
15FA
 10
77.9302
 20
170.434
 30
0.000000
  70
    32
  0
VERTEX
  8
0
  5
15FB
 10
78.0407
 20
170.466
 30
0.000000
  70
    32
  0
VERTEX
  8
0
  5
15FC
 10
78.1498
 20
170.500
 30
0.000000
  70
    32
  0
VERTEX
  8
0
  5
15FD
 10
78.2576
 20
170.534
 30
0.000000
  70
    32
  0
VERTEX
  8
0
  5
15FE
 10
78.3639
 20
170.568
 30
0.000000
  70
    32
  0
VERTEX
  8
0
  5
15FF
 10
78.4688
 20
170.604
 30
0.000000
  70
    32
  0
VERTEX
  8
0
  5
1600
 10
78.5723
 20
170.639
 30
0.000000
  70
    32
  0
VERTEX
  8
0
  5
1601
 10
78.6742
 20
170.676
 30
0.000000
  70
    32
  0
VERTEX
  8
0
  5
1602
 10
78.7747
 20
170.713
 30
0.000000
  70
    32
  0
VERTEX
  8
0
  5
1603
 10
78.8736
 20
170.751
 30
0.000000
  70
    32
  0
VERTEX
  8
0
  5
1604
 10
78.9709
 20
170.789
 30
0.000000
  70
    32
  0
VERTEX
  8
0
  5
1605
 10
79.0667
 20
170.828
 30
0.000000
  70
    32
  0
VERTEX
  8
0
  5
1606
 10
79.1608
 20
170.868
 30
0.000000
  70
    32
  0
VERTEX
  8
0
  5
1607
 10
79.2533
 20
170.908
 30
0.000000
  70
    32
  0
VERTEX
  8
0
  5
1608
 10
79.3441
 20
170.948
 30
0.000000
  70
    32
  0
VERTEX
  8
0
  5
1609
 10
79.4332
 20
170.990
 30
0.000000
  70
    32
  0
VERTEX
  8
0
  5
160A
 10
79.5207
 20
171.031
 30
0.000000
  70
    32
  0
VERTEX
  8
0
  5
160B
 10
79.6064
 20
171.074
 30
0.000000
  70
    32
  0
VERTEX
  8
0
  5
160C
 10
79.6903
 20
171.116
 30
0.000000
  70
    32
  0
VERTEX
  8
0
  5
160D
 10
79.7725
 20
171.160
 30
0.000000
  70
    32
  0
VERTEX
  8
0
  5
160E
 10
79.8529
 20
171.203
 30
0.000000
  70
    32
  0
VERTEX
  8
0
  5
160F
 10
79.9315
 20
171.248
 30
0.000000
  70
    32
  0
VERTEX
  8
0
  5
1610
 10
80.0082
 20
171.293
 30
0.000000
  70
    32
  0
VERTEX
  8
0
  5
1611
 10
80.0831
 20
171.338
 30
0.000000
  70
    32
  0
VERTEX
  8
0
  5
1612
 10
80.1561
 20
171.383
 30
0.000000
  70
    32
  0
VERTEX
  8
0
  5
1613
 10
80.2273
 20
171.429
 30
0.000000
  70
    32
  0
VERTEX
  8
0
  5
1614
 10
80.2965
 20
171.476
 30
0.000000
  70
    32
  0
VERTEX
  8
0
  5
1615
 10
80.3638
 20
171.523
 30
0.000000
  70
    32
  0
VERTEX
  8
0
  5
1616
 10
80.4291
 20
171.570
 30
0.000000
  70
    32
  0
VERTEX
  8
0
  5
1617
 10
80.4925
 20
171.618
 30
0.000000
  70
    32
  0
VERTEX
  8
0
  5
1618
 10
80.5540
 20
171.666
 30
0.000000
  70
    32
  0
VERTEX
  8
0
  5
1619
 10
80.6134
 20
171.715
 30
0.000000
  70
    32
  0
VERTEX
  8
0
  5
161A
 10
80.6708
 20
171.764
 30
0.000000
  70
    32
  0
VERTEX
  8
0
  5
161B
 10
80.7263
 20
171.813
 30
0.000000
  70
    32
  0
VERTEX
  8
0
  5
161C
 10
80.7796
 20
171.862
 30
0.000000
  70
    32
  0
VERTEX
  8
0
  5
161D
 10
80.8310
 20
171.912
 30
0.000000
  70
    32
  0
VERTEX
  8
0
  5
161E
 10
80.8803
 20
171.962
 30
0.000000
  70
    32
  0
VERTEX
  8
0
  5
161F
 10
80.9275
 20
172.013
 30
0.000000
  70
    32
  0
VERTEX
  8
0
  5
1620
 10
80.9726
 20
172.063
 30
0.000000
  70
    32
  0
VERTEX
  8
0
  5
1621
 10
81.0156
 20
172.114
 30
0.000000
  70
    32
  0
VERTEX
  8
0
  5
1622
 10
81.0566
 20
172.166
 30
0.000000
  70
    32
  0
VERTEX
  8
0
  5
1623
 10
81.0954
 20
172.217
 30
0.000000
  70
    32
  0
VERTEX
  8
0
  5
1624
 10
81.1321
 20
172.269
 30
0.000000
  70
    32
  0
VERTEX
  8
0
  5
1625
 10
81.1666
 20
172.321
 30
0.000000
  70
    32
  0
VERTEX
  8
0
  5
1626
 10
81.1990
 20
172.373
 30
0.000000
  70
    32
  0
VERTEX
  8
0
  5
1627
 10
81.2293
 20
172.425
 30
0.000000
  70
    32
  0
VERTEX
  8
0
  5
1628
 10
81.2574
 20
172.478
 30
0.000000
  70
    32
  0
VERTEX
  8
0
  5
1629
 10
81.2833
 20
172.531
 30
0.000000
  70
    32
  0
VERTEX
  8
0
  5
162A
 10
81.3071
 20
172.583
 30
0.000000
  70
    32
  0
VERTEX
  8
0
  5
162B
 10
81.3287
 20
172.636
 30
0.000000
  70
    32
  0
VERTEX
  8
0
  5
162C
 10
81.3481
 20
172.690
 30
0.000000
  70
    32
  0
VERTEX
  8
0
  5
162D
 10
81.3653
 20
172.743
 30
0.000000
  70
    32
  0
VERTEX
  8
0
  5
162E
 10
81.3803
 20
172.796
 30
0.000000
  70
    32
  0
VERTEX
  8
0
  5
162F
 10
81.3931
 20
172.850
 30
0.000000
  70
    32
  0
VERTEX
  8
0
  5
1630
 10
81.4038
 20
172.903
 30
0.000000
  70
    32
  0
VERTEX
  8
0
  5
1631
 10
81.4122
 20
172.957
 30
0.000000
  70
    32
  0
VERTEX
  8
0
  5
1632
 10
81.4184
 20
173.010
 30
0.000000
  70
    32
  0
VERTEX
  8
0
  5
1633
 10
81.4224
 20
173.064
 30
0.000000
  70
    32
  0
VERTEX
  8
0
  5
1634
 10
81.4242
 20
173.117
 30
0.000000
  70
    32
  0
VERTEX
  8
0
  5
1635
 10
81.4238
 20
173.171
 30
0.000000
  70
    32
  0
VERTEX
  8
0
  5
1636
 10
81.4212
 20
173.225
 30
0.000000
  70
    32
  0
VERTEX
  8
0
  5
1637
 10
81.4164
 20
173.278
 30
0.000000
  70
    32
  0
VERTEX
  8
0
  5
1638
 10
81.4093
 20
173.332
 30
0.000000
  70
    32
  0
VERTEX
  8
0
  5
1639
 10
81.4001
 20
173.385
 30
0.000000
  70
    32
  0
VERTEX
  8
0
  5
163A
 10
81.3887
 20
173.439
 30
0.000000
  70
    32
  0
VERTEX
  8
0
  5
163B
 10
81.3750
 20
173.492
 30
0.000000
  70
    32
  0
VERTEX
  8
0
  5
163C
 10
81.3592
 20
173.545
 30
0.000000
  70
    32
  0
VERTEX
  8
0
  5
163D
 10
81.3412
 20
173.599
 30
0.000000
  70
    32
  0
VERTEX
  8
0
  5
163E
 10
81.3210
 20
173.652
 30
0.000000
  70
    32
  0
VERTEX
  8
0
  5
163F
 10
81.2986
 20
173.705
 30
0.000000
  70
    32
  0
VERTEX
  8
0
  5
1640
 10
81.2741
 20
173.757
 30
0.000000
  70
    32
  0
VERTEX
  8
0
  5
1641
 10
81.2473
 20
173.810
 30
0.000000
  70
    32
  0
VERTEX
  8
0
  5
1642
 10
81.2184
 20
173.862
 30
0.000000
  70
    32
  0
VERTEX
  8
0
  5
1643
 10
81.1874
 20
173.915
 30
0.000000
  70
    32
  0
VERTEX
  8
0
  5
1644
 10
81.1542
 20
173.967
 30
0.000000
  70
    32
  0
VERTEX
  8
0
  5
1645
 10
81.1188
 20
174.019
 30
0.000000
  70
    32
  0
VERTEX
  8
0
  5
1646
 10
81.0814
 20
174.070
 30
0.000000
  70
    32
  0
VERTEX
  8
0
  5
1647
 10
81.0418
 20
174.122
 30
0.000000
  70
    32
  0
VERTEX
  8
0
  5
1648
 10
81.0001
 20
174.173
 30
0.000000
  70
    32
  0
VERTEX
  8
0
  5
1649
 10
80.9563
 20
174.224
 30
0.000000
  70
    32
  0
VERTEX
  8
0
  5
164A
 10
80.9104
 20
174.274
 30
0.000000
  70
    32
  0
VERTEX
  8
0
  5
164B
 10
80.8624
 20
174.325
 30
0.000000
  70
    32
  0
VERTEX
  8
0
  5
164C
 10
80.8124
 20
174.375
 30
0.000000
  70
    32
  0
VERTEX
  8
0
  5
164D
 10
80.7603
 20
174.425
 30
0.000000
  70
    32
  0
VERTEX
  8
0
  5
164E
 10
80.7061
 20
174.474
 30
0.000000
  70
    32
  0
VERTEX
  8
0
  5
164F
 10
80.6500
 20
174.523
 30
0.000000
  70
    32
  0
VERTEX
  8
0
  5
1650
 10
80.5918
 20
174.572
 30
0.000000
  70
    32
  0
VERTEX
  8
0
  5
1651
 10
80.5316
 20
174.620
 30
0.000000
  70
    32
  0
VERTEX
  8
0
  5
1652
 10
80.4695
 20
174.668
 30
0.000000
  70
    32
  0
VERTEX
  8
0
  5
1653
 10
80.4054
 20
174.716
 30
0.000000
  70
    32
  0
VERTEX
  8
0
  5
1654
 10
80.3393
 20
174.763
 30
0.000000
  70
    32
  0
VERTEX
  8
0
  5
1655
 10
80.2713
 20
174.810
 30
0.000000
  70
    32
  0
VERTEX
  8
0
  5
1656
 10
80.2013
 20
174.856
 30
0.000000
  70
    32
  0
VERTEX
  8
0
  5
1657
 10
80.1295
 20
174.902
 30
0.000000
  70
    32
  0
VERTEX
  8
0
  5
1658
 10
80.0558
 20
174.948
 30
0.000000
  70
    32
  0
VERTEX
  8
0
  5
1659
 10
79.9802
 20
174.993
 30
0.000000
  70
    32
  0
VERTEX
  8
0
  5
165A
 10
79.9028
 20
175.037
 30
0.000000
  70
    32
  0
VERTEX
  8
0
  5
165B
 10
79.8236
 20
175.081
 30
0.000000
  70
    32
  0
VERTEX
  8
0
  5
165C
 10
79.7425
 20
175.125
 30
0.000000
  70
    32
  0
SEQEND
  8
0
  5
165D
  0
POLYLINE
  5
1256
  8
0
 10
86.392513677589307
 20
173.13429333970171
 30
0.0
 66
     1
 70
     8
  0
VERTEX
  8
0
  5
165E
 10
86.3925
 20
173.134
 30
0.000000
  70
    32
  0
VERTEX
  8
0
  5
165F
 10
86.3923
 20
173.160
 30
0.000000
  70
    32
  0
VERTEX
  8
0
  5
1660
 10
86.3916
 20
173.185
 30
0.000000
  70
    32
  0
VERTEX
  8
0
  5
1661
 10
86.3905
 20
173.211
 30
0.000000
  70
    32
  0
VERTEX
  8
0
  5
1662
 10
86.3889
 20
173.236
 30
0.000000
  70
    32
  0
VERTEX
  8
0
  5
1663
 10
86.3869
 20
173.262
 30
0.000000
  70
    32
  0
VERTEX
  8
0
  5
1664
 10
86.3844
 20
173.287
 30
0.000000
  70
    32
  0
VERTEX
  8
0
  5
1665
 10
86.3815
 20
173.312
 30
0.000000
  70
    32
  0
VERTEX
  8
0
  5
1666
 10
86.3781
 20
173.338
 30
0.000000
  70
    32
  0
VERTEX
  8
0
  5
1667
 10
86.3743
 20
173.363
 30
0.000000
  70
    32
  0
VERTEX
  8
0
  5
1668
 10
86.3701
 20
173.389
 30
0.000000
  70
    32
  0
VERTEX
  8
0
  5
1669
 10
86.3653
 20
173.414
 30
0.000000
  70
    32
  0
VERTEX
  8
0
  5
166A
 10
86.3602
 20
173.439
 30
0.000000
  70
    32
  0
VERTEX
  8
0
  5
166B
 10
86.3546
 20
173.465
 30
0.000000
  70
    32
  0
VERTEX
  8
0
  5
166C
 10
86.3485
 20
173.490
 30
0.000000
  70
    32
  0
VERTEX
  8
0
  5
166D
 10
86.3420
 20
173.516
 30
0.000000
  70
    32
  0
VERTEX
  8
0
  5
166E
 10
86.3350
 20
173.541
 30
0.000000
  70
    32
  0
VERTEX
  8
0
  5
166F
 10
86.3276
 20
173.566
 30
0.000000
  70
    32
  0
VERTEX
  8
0
  5
1670
 10
86.3198
 20
173.592
 30
0.000000
  70
    32
  0
VERTEX
  8
0
  5
1671
 10
86.3115
 20
173.617
 30
0.000000
  70
    32
  0
VERTEX
  8
0
  5
1672
 10
86.3028
 20
173.642
 30
0.000000
  70
    32
  0
VERTEX
  8
0
  5
1673
 10
86.2936
 20
173.667
 30
0.000000
  70
    32
  0
VERTEX
  8
0
  5
1674
 10
86.2839
 20
173.693
 30
0.000000
  70
    32
  0
VERTEX
  8
0
  5
1675
 10
86.2739
 20
173.718
 30
0.000000
  70
    32
  0
VERTEX
  8
0
  5
1676
 10
86.2633
 20
173.743
 30
0.000000
  70
    32
  0
VERTEX
  8
0
  5
1677
 10
86.2524
 20
173.768
 30
0.000000
  70
    32
  0
VERTEX
  8
0
  5
1678
 10
86.2409
 20
173.794
 30
0.000000
  70
    32
  0
VERTEX
  8
0
  5
1679
 10
86.2291
 20
173.819
 30
0.000000
  70
    32
  0
VERTEX
  8
0
  5
167A
 10
86.2168
 20
173.844
 30
0.000000
  70
    32
  0
VERTEX
  8
0
  5
167B
 10
86.2040
 20
173.869
 30
0.000000
  70
    32
  0
VERTEX
  8
0
  5
167C
 10
86.1908
 20
173.894
 30
0.000000
  70
    32
  0
VERTEX
  8
0
  5
167D
 10
86.1772
 20
173.919
 30
0.000000
  70
    32
  0
VERTEX
  8
0
  5
167E
 10
86.1631
 20
173.944
 30
0.000000
  70
    32
  0
VERTEX
  8
0
  5
167F
 10
86.1486
 20
173.969
 30
0.000000
  70
    32
  0
VERTEX
  8
0
  5
1680
 10
86.1337
 20
173.994
 30
0.000000
  70
    32
  0
VERTEX
  8
0
  5
1681
 10
86.1183
 20
174.019
 30
0.000000
  70
    32
  0
VERTEX
  8
0
  5
1682
 10
86.1024
 20
174.044
 30
0.000000
  70
    32
  0
VERTEX
  8
0
  5
1683
 10
86.0861
 20
174.069
 30
0.000000
  70
    32
  0
VERTEX
  8
0
  5
1684
 10
86.0694
 20
174.094
 30
0.000000
  70
    32
  0
VERTEX
  8
0
  5
1685
 10
86.0523
 20
174.119
 30
0.000000
  70
    32
  0
VERTEX
  8
0
  5
1686
 10
86.0347
 20
174.143
 30
0.000000
  70
    32
  0
VERTEX
  8
0
  5
1687
 10
86.0166
 20
174.168
 30
0.000000
  70
    32
  0
VERTEX
  8
0
  5
1688
 10
85.9982
 20
174.193
 30
0.000000
  70
    32
  0
VERTEX
  8
0
  5
1689
 10
85.9793
 20
174.218
 30
0.000000
  70
    32
  0
VERTEX
  8
0
  5
168A
 10
85.9599
 20
174.242
 30
0.000000
  70
    32
  0
VERTEX
  8
0
  5
168B
 10
85.9401
 20
174.267
 30
0.000000
  70
    32
  0
VERTEX
  8
0
  5
168C
 10
85.9199
 20
174.292
 30
0.000000
  70
    32
  0
VERTEX
  8
0
  5
168D
 10
85.8993
 20
174.316
 30
0.000000
  70
    32
  0
VERTEX
  8
0
  5
168E
 10
85.8782
 20
174.341
 30
0.000000
  70
    32
  0
VERTEX
  8
0
  5
168F
 10
85.8567
 20
174.365
 30
0.000000
  70
    32
  0
VERTEX
  8
0
  5
1690
 10
85.8348
 20
174.390
 30
0.000000
  70
    32
  0
VERTEX
  8
0
  5
1691
 10
85.8124
 20
174.414
 30
0.000000
  70
    32
  0
VERTEX
  8
0
  5
1692
 10
85.7896
 20
174.438
 30
0.000000
  70
    32
  0
VERTEX
  8
0
  5
1693
 10
85.7663
 20
174.463
 30
0.000000
  70
    32
  0
VERTEX
  8
0
  5
1694
 10
85.7427
 20
174.487
 30
0.000000
  70
    32
  0
VERTEX
  8
0
  5
1695
 10
85.7186
 20
174.511
 30
0.000000
  70
    32
  0
VERTEX
  8
0
  5
1696
 10
85.6941
 20
174.535
 30
0.000000
  70
    32
  0
VERTEX
  8
0
  5
1697
 10
85.6691
 20
174.559
 30
0.000000
  70
    32
  0
VERTEX
  8
0
  5
1698
 10
85.6438
 20
174.584
 30
0.000000
  70
    32
  0
VERTEX
  8
0
  5
1699
 10
85.6180
 20
174.608
 30
0.000000
  70
    32
  0
VERTEX
  8
0
  5
169A
 10
85.5917
 20
174.632
 30
0.000000
  70
    32
  0
VERTEX
  8
0
  5
169B
 10
85.5651
 20
174.656
 30
0.000000
  70
    32
  0
VERTEX
  8
0
  5
169C
 10
85.5380
 20
174.679
 30
0.000000
  70
    32
  0
VERTEX
  8
0
  5
169D
 10
85.5106
 20
174.703
 30
0.000000
  70
    32
  0
VERTEX
  8
0
  5
169E
 10
85.4827
 20
174.727
 30
0.000000
  70
    32
  0
VERTEX
  8
0
  5
169F
 10
85.4543
 20
174.751
 30
0.000000
  70
    32
  0
VERTEX
  8
0
  5
16A0
 10
85.4256
 20
174.774
 30
0.000000
  70
    32
  0
VERTEX
  8
0
  5
16A1
 10
85.3964
 20
174.798
 30
0.000000
  70
    32
  0
VERTEX
  8
0
  5
16A2
 10
85.3668
 20
174.822
 30
0.000000
  70
    32
  0
VERTEX
  8
0
  5
16A3
 10
85.3368
 20
174.845
 30
0.000000
  70
    32
  0
VERTEX
  8
0
  5
16A4
 10
85.3064
 20
174.869
 30
0.000000
  70
    32
  0
VERTEX
  8
0
  5
16A5
 10
85.2756
 20
174.892
 30
0.000000
  70
    32
  0
VERTEX
  8
0
  5
16A6
 10
85.2444
 20
174.915
 30
0.000000
  70
    32
  0
VERTEX
  8
0
  5
16A7
 10
85.2127
 20
174.939
 30
0.000000
  70
    32
  0
VERTEX
  8
0
  5
16A8
 10
85.1807
 20
174.962
 30
0.000000
  70
    32
  0
VERTEX
  8
0
  5
16A9
 10
85.1482
 20
174.985
 30
0.000000
  70
    32
  0
VERTEX
  8
0
  5
16AA
 10
85.1153
 20
175.008
 30
0.000000
  70
    32
  0
VERTEX
  8
0
  5
16AB
 10
85.0821
 20
175.031
 30
0.000000
  70
    32
  0
VERTEX
  8
0
  5
16AC
 10
85.0484
 20
175.054
 30
0.000000
  70
    32
  0
VERTEX
  8
0
  5
16AD
 10
85.0143
 20
175.077
 30
0.000000
  70
    32
  0
VERTEX
  8
0
  5
16AE
 10
84.9798
 20
175.100
 30
0.000000
  70
    32
  0
VERTEX
  8
0
  5
16AF
 10
84.9449
 20
175.123
 30
0.000000
  70
    32
  0
VERTEX
  8
0
  5
16B0
 10
84.9096
 20
175.146
 30
0.000000
  70
    32
  0
VERTEX
  8
0
  5
16B1
 10
84.8739
 20
175.168
 30
0.000000
  70
    32
  0
VERTEX
  8
0
  5
16B2
 10
84.8378
 20
175.191
 30
0.000000
  70
    32
  0
VERTEX
  8
0
  5
16B3
 10
84.8012
 20
175.213
 30
0.000000
  70
    32
  0
VERTEX
  8
0
  5
16B4
 10
84.7643
 20
175.236
 30
0.000000
  70
    32
  0
VERTEX
  8
0
  5
16B5
 10
84.7271
 20
175.258
 30
0.000000
  70
    32
  0
VERTEX
  8
0
  5
16B6
 10
84.6894
 20
175.281
 30
0.000000
  70
    32
  0
VERTEX
  8
0
  5
16B7
 10
84.6513
 20
175.303
 30
0.000000
  70
    32
  0
VERTEX
  8
0
  5
16B8
 10
84.6128
 20
175.325
 30
0.000000
  70
    32
  0
VERTEX
  8
0
  5
16B9
 10
84.5739
 20
175.347
 30
0.000000
  70
    32
  0
VERTEX
  8
0
  5
16BA
 10
84.5347
 20
175.369
 30
0.000000
  70
    32
  0
VERTEX
  8
0
  5
16BB
 10
84.4950
 20
175.391
 30
0.000000
  70
    32
  0
VERTEX
  8
0
  5
16BC
 10
84.4550
 20
175.413
 30
0.000000
  70
    32
  0
VERTEX
  8
0
  5
16BD
 10
84.4146
 20
175.435
 30
0.000000
  70
    32
  0
VERTEX
  8
0
  5
16BE
 10
84.3738
 20
175.457
 30
0.000000
  70
    32
  0
VERTEX
  8
0
  5
16BF
 10
84.3326
 20
175.478
 30
0.000000
  70
    32
  0
VERTEX
  8
0
  5
16C0
 10
84.2910
 20
175.500
 30
0.000000
  70
    32
  0
VERTEX
  8
0
  5
16C1
 10
84.2491
 20
175.522
 30
0.000000
  70
    32
  0
VERTEX
  8
0
  5
16C2
 10
84.2067
 20
175.543
 30
0.000000
  70
    32
  0
VERTEX
  8
0
  5
16C3
 10
84.1640
 20
175.564
 30
0.000000
  70
    32
  0
VERTEX
  8
0
  5
16C4
 10
84.1209
 20
175.586
 30
0.000000
  70
    32
  0
VERTEX
  8
0
  5
16C5
 10
84.0775
 20
175.607
 30
0.000000
  70
    32
  0
VERTEX
  8
0
  5
16C6
 10
84.0336
 20
175.628
 30
0.000000
  70
    32
  0
VERTEX
  8
0
  5
16C7
 10
83.9894
 20
175.649
 30
0.000000
  70
    32
  0
VERTEX
  8
0
  5
16C8
 10
83.9449
 20
175.670
 30
0.000000
  70
    32
  0
VERTEX
  8
0
  5
16C9
 10
83.8999
 20
175.691
 30
0.000000
  70
    32
  0
VERTEX
  8
0
  5
16CA
 10
83.8546
 20
175.712
 30
0.000000
  70
    32
  0
VERTEX
  8
0
  5
16CB
 10
83.8089
 20
175.732
 30
0.000000
  70
    32
  0
VERTEX
  8
0
  5
16CC
 10
83.7629
 20
175.753
 30
0.000000
  70
    32
  0
VERTEX
  8
0
  5
16CD
 10
83.7165
 20
175.774
 30
0.000000
  70
    32
  0
VERTEX
  8
0
  5
16CE
 10
83.6697
 20
175.794
 30
0.000000
  70
    32
  0
VERTEX
  8
0
  5
16CF
 10
83.6226
 20
175.814
 30
0.000000
  70
    32
  0
VERTEX
  8
0
  5
16D0
 10
83.5751
 20
175.835
 30
0.000000
  70
    32
  0
VERTEX
  8
0
  5
16D1
 10
83.5272
 20
175.855
 30
0.000000
  70
    32
  0
VERTEX
  8
0
  5
16D2
 10
83.4790
 20
175.875
 30
0.000000
  70
    32
  0
VERTEX
  8
0
  5
16D3
 10
83.4305
 20
175.895
 30
0.000000
  70
    32
  0
VERTEX
  8
0
  5
16D4
 10
83.3816
 20
175.915
 30
0.000000
  70
    32
  0
VERTEX
  8
0
  5
16D5
 10
83.3323
 20
175.935
 30
0.000000
  70
    32
  0
VERTEX
  8
0
  5
16D6
 10
83.2827
 20
175.954
 30
0.000000
  70
    32
  0
VERTEX
  8
0
  5
16D7
 10
83.2328
 20
175.974
 30
0.000000
  70
    32
  0
VERTEX
  8
0
  5
16D8
 10
83.1825
 20
175.994
 30
0.000000
  70
    32
  0
VERTEX
  8
0
  5
16D9
 10
83.1318
 20
176.013
 30
0.000000
  70
    32
  0
VERTEX
  8
0
  5
16DA
 10
83.0808
 20
176.032
 30
0.000000
  70
    32
  0
VERTEX
  8
0
  5
16DB
 10
83.0295
 20
176.052
 30
0.000000
  70
    32
  0
VERTEX
  8
0
  5
16DC
 10
82.9778
 20
176.071
 30
0.000000
  70
    32
  0
VERTEX
  8
0
  5
16DD
 10
82.9258
 20
176.090
 30
0.000000
  70
    32
  0
VERTEX
  8
0
  5
16DE
 10
82.8735
 20
176.109
 30
0.000000
  70
    32
  0
SEQEND
  8
0
  5
16DF
  0
POLYLINE
  5
1257
  8
0
 10
58.892513677589307
 20
173.13429333970171
 30
0.0
 66
     1
 70
     8
  0
VERTEX
  8
0
  5
16E0
 10
58.8925
 20
173.134
 30
0.000000
  70
    32
  0
VERTEX
  8
0
  5
16E1
 10
58.8967
 20
172.973
 30
0.000000
  70
    32
  0
VERTEX
  8
0
  5
16E2
 10
58.9091
 20
172.812
 30
0.000000
  70
    32
  0
VERTEX
  8
0
  5
16E3
 10
58.9298
 20
172.650
 30
0.000000
  70
    32
  0
VERTEX
  8
0
  5
16E4
 10
58.9587
 20
172.490
 30
0.000000
  70
    32
  0
VERTEX
  8
0
  5
16E5
 10
58.9959
 20
172.329
 30
0.000000
  70
    32
  0
VERTEX
  8
0
  5
16E6
 10
59.0413
 20
172.169
 30
0.000000
  70
    32
  0
VERTEX
  8
0
  5
16E7
 10
59.0949
 20
172.010
 30
0.000000
  70
    32
  0
VERTEX
  8
0
  5
16E8
 10
59.1567
 20
171.851
 30
0.000000
  70
    32
  0
VERTEX
  8
0
  5
16E9
 10
59.2266
 20
171.693
 30
0.000000
  70
    32
  0
VERTEX
  8
0
  5
16EA
 10
59.3046
 20
171.536
 30
0.000000
  70
    32
  0
VERTEX
  8
0
  5
16EB
 10
59.3906
 20
171.380
 30
0.000000
  70
    32
  0
VERTEX
  8
0
  5
16EC
 10
59.4846
 20
171.225
 30
0.000000
  70
    32
  0
VERTEX
  8
0
  5
16ED
 10
59.5865
 20
171.071
 30
0.000000
  70
    32
  0
VERTEX
  8
0
  5
16EE
 10
59.6963
 20
170.918
 30
0.000000
  70
    32
  0
VERTEX
  8
0
  5
16EF
 10
59.8139
 20
170.767
 30
0.000000
  70
    32
  0
VERTEX
  8
0
  5
16F0
 10
59.9392
 20
170.617
 30
0.000000
  70
    32
  0
VERTEX
  8
0
  5
16F1
 10
60.0721
 20
170.469
 30
0.000000
  70
    32
  0
VERTEX
  8
0
  5
16F2
 10
60.2127
 20
170.322
 30
0.000000
  70
    32
  0
VERTEX
  8
0
  5
16F3
 10
60.3607
 20
170.177
 30
0.000000
  70
    32
  0
VERTEX
  8
0
  5
16F4
 10
60.5161
 20
170.034
 30
0.000000
  70
    32
  0
VERTEX
  8
0
  5
16F5
 10
60.6788
 20
169.892
 30
0.000000
  70
    32
  0
VERTEX
  8
0
  5
16F6
 10
60.8487
 20
169.753
 30
0.000000
  70
    32
  0
VERTEX
  8
0
  5
16F7
 10
61.0258
 20
169.615
 30
0.000000
  70
    32
  0
VERTEX
  8
0
  5
16F8
 10
61.2098
 20
169.480
 30
0.000000
  70
    32
  0
VERTEX
  8
0
  5
16F9
 10
61.4007
 20
169.347
 30
0.000000
  70
    32
  0
VERTEX
  8
0
  5
16FA
 10
61.5984
 20
169.216
 30
0.000000
  70
    32
  0
VERTEX
  8
0
  5
16FB
 10
61.8028
 20
169.088
 30
0.000000
  70
    32
  0
VERTEX
  8
0
  5
16FC
 10
62.0136
 20
168.962
 30
0.000000
  70
    32
  0
VERTEX
  8
0
  5
16FD
 10
62.2309
 20
168.838
 30
0.000000
  70
    32
  0
VERTEX
  8
0
  5
16FE
 10
62.4544
 20
168.717
 30
0.000000
  70
    32
  0
VERTEX
  8
0
  5
16FF
 10
62.6841
 20
168.599
 30
0.000000
  70
    32
  0
VERTEX
  8
0
  5
1700
 10
62.9198
 20
168.483
 30
0.000000
  70
    32
  0
VERTEX
  8
0
  5
1701
 10
63.1613
 20
168.371
 30
0.000000
  70
    32
  0
VERTEX
  8
0
  5
1702
 10
63.4086
 20
168.261
 30
0.000000
  70
    32
  0
VERTEX
  8
0
  5
1703
 10
63.6614
 20
168.154
 30
0.000000
  70
    32
  0
VERTEX
  8
0
  5
1704
 10
63.9196
 20
168.050
 30
0.000000
  70
    32
  0
VERTEX
  8
0
  5
1705
 10
64.1831
 20
167.949
 30
0.000000
  70
    32
  0
VERTEX
  8
0
  5
1706
 10
64.4516
 20
167.851
 30
0.000000
  70
    32
  0
VERTEX
  8
0
  5
1707
 10
64.7252
 20
167.757
 30
0.000000
  70
    32
  0
VERTEX
  8
0
  5
1708
 10
65.0034
 20
167.665
 30
0.000000
  70
    32
  0
VERTEX
  8
0
  5
1709
 10
65.2863
 20
167.577
 30
0.000000
  70
    32
  0
VERTEX
  8
0
  5
170A
 10
65.5736
 20
167.493
 30
0.000000
  70
    32
  0
VERTEX
  8
0
  5
170B
 10
65.8652
 20
167.411
 30
0.000000
  70
    32
  0
VERTEX
  8
0
  5
170C
 10
66.1608
 20
167.334
 30
0.000000
  70
    32
  0
VERTEX
  8
0
  5
170D
 10
66.4604
 20
167.259
 30
0.000000
  70
    32
  0
VERTEX
  8
0
  5
170E
 10
66.7636
 20
167.188
 30
0.000000
  70
    32
  0
VERTEX
  8
0
  5
170F
 10
67.0704
 20
167.121
 30
0.000000
  70
    32
  0
VERTEX
  8
0
  5
1710
 10
67.3806
 20
167.058
 30
0.000000
  70
    32
  0
VERTEX
  8
0
  5
1711
 10
67.6940
 20
166.998
 30
0.000000
  70
    32
  0
VERTEX
  8
0
  5
1712
 10
68.0103
 20
166.941
 30
0.000000
  70
    32
  0
VERTEX
  8
0
  5
1713
 10
68.3294
 20
166.889
 30
0.000000
  70
    32
  0
VERTEX
  8
0
  5
1714
 10
68.6511
 20
166.840
 30
0.000000
  70
    32
  0
VERTEX
  8
0
  5
1715
 10
68.9752
 20
166.795
 30
0.000000
  70
    32
  0
VERTEX
  8
0
  5
1716
 10
69.3015
 20
166.754
 30
0.000000
  70
    32
  0
VERTEX
  8
0
  5
1717
 10
69.6299
 20
166.717
 30
0.000000
  70
    32
  0
VERTEX
  8
0
  5
1718
 10
69.9600
 20
166.683
 30
0.000000
  70
    32
  0
VERTEX
  8
0
  5
1719
 10
70.2918
 20
166.654
 30
0.000000
  70
    32
  0
VERTEX
  8
0
  5
171A
 10
70.6250
 20
166.628
 30
0.000000
  70
    32
  0
VERTEX
  8
0
  5
171B
 10
70.9594
 20
166.606
 30
0.000000
  70
    32
  0
VERTEX
  8
0
  5
171C
 10
71.2948
 20
166.589
 30
0.000000
  70
    32
  0
VERTEX
  8
0
  5
171D
 10
71.6310
 20
166.575
 30
0.000000
  70
    32
  0
VERTEX
  8
0
  5
171E
 10
71.9678
 20
166.565
 30
0.000000
  70
    32
  0
VERTEX
  8
0
  5
171F
 10
72.3051
 20
166.559
 30
0.000000
  70
    32
  0
VERTEX
  8
0
  5
1720
 10
72.6425
 20
166.557
 30
0.000000
  70
    32
  0
VERTEX
  8
0
  5
1721
 10
72.9800
 20
166.559
 30
0.000000
  70
    32
  0
VERTEX
  8
0
  5
1722
 10
73.3172
 20
166.565
 30
0.000000
  70
    32
  0
VERTEX
  8
0
  5
1723
 10
73.6540
 20
166.575
 30
0.000000
  70
    32
  0
VERTEX
  8
0
  5
1724
 10
73.9902
 20
166.589
 30
0.000000
  70
    32
  0
VERTEX
  8
0
  5
1725
 10
74.3257
 20
166.606
 30
0.000000
  70
    32
  0
VERTEX
  8
0
  5
1726
 10
74.6601
 20
166.628
 30
0.000000
  70
    32
  0
VERTEX
  8
0
  5
1727
 10
74.9932
 20
166.654
 30
0.000000
  70
    32
  0
VERTEX
  8
0
  5
1728
 10
75.3250
 20
166.683
 30
0.000000
  70
    32
  0
VERTEX
  8
0
  5
1729
 10
75.6552
 20
166.717
 30
0.000000
  70
    32
  0
VERTEX
  8
0
  5
172A
 10
75.9835
 20
166.754
 30
0.000000
  70
    32
  0
VERTEX
  8
0
  5
172B
 10
76.3098
 20
166.795
 30
0.000000
  70
    32
  0
VERTEX
  8
0
  5
172C
 10
76.6339
 20
166.840
 30
0.000000
  70
    32
  0
VERTEX
  8
0
  5
172D
 10
76.9556
 20
166.889
 30
0.000000
  70
    32
  0
VERTEX
  8
0
  5
172E
 10
77.2747
 20
166.941
 30
0.000000
  70
    32
  0
VERTEX
  8
0
  5
172F
 10
77.5911
 20
166.998
 30
0.000000
  70
    32
  0
VERTEX
  8
0
  5
1730
 10
77.9044
 20
167.058
 30
0.000000
  70
    32
  0
VERTEX
  8
0
  5
1731
 10
78.2146
 20
167.121
 30
0.000000
  70
    32
  0
VERTEX
  8
0
  5
1732
 10
78.5214
 20
167.188
 30
0.000000
  70
    32
  0
VERTEX
  8
0
  5
1733
 10
78.8247
 20
167.259
 30
0.000000
  70
    32
  0
VERTEX
  8
0
  5
1734
 10
79.1242
 20
167.334
 30
0.000000
  70
    32
  0
VERTEX
  8
0
  5
1735
 10
79.4199
 20
167.411
 30
0.000000
  70
    32
  0
VERTEX
  8
0
  5
1736
 10
79.7114
 20
167.493
 30
0.000000
  70
    32
  0
VERTEX
  8
0
  5
1737
 10
79.9987
 20
167.577
 30
0.000000
  70
    32
  0
VERTEX
  8
0
  5
1738
 10
80.2816
 20
167.665
 30
0.000000
  70
    32
  0
VERTEX
  8
0
  5
1739
 10
80.5599
 20
167.757
 30
0.000000
  70
    32
  0
VERTEX
  8
0
  5
173A
 10
80.8334
 20
167.851
 30
0.000000
  70
    32
  0
VERTEX
  8
0
  5
173B
 10
81.1019
 20
167.949
 30
0.000000
  70
    32
  0
VERTEX
  8
0
  5
173C
 10
81.3654
 20
168.050
 30
0.000000
  70
    32
  0
VERTEX
  8
0
  5
173D
 10
81.6236
 20
168.154
 30
0.000000
  70
    32
  0
VERTEX
  8
0
  5
173E
 10
81.8764
 20
168.261
 30
0.000000
  70
    32
  0
VERTEX
  8
0
  5
173F
 10
82.1237
 20
168.371
 30
0.000000
  70
    32
  0
VERTEX
  8
0
  5
1740
 10
82.3652
 20
168.483
 30
0.000000
  70
    32
  0
VERTEX
  8
0
  5
1741
 10
82.6009
 20
168.599
 30
0.000000
  70
    32
  0
VERTEX
  8
0
  5
1742
 10
82.8306
 20
168.717
 30
0.000000
  70
    32
  0
VERTEX
  8
0
  5
1743
 10
83.0541
 20
168.838
 30
0.000000
  70
    32
  0
VERTEX
  8
0
  5
1744
 10
83.2714
 20
168.962
 30
0.000000
  70
    32
  0
VERTEX
  8
0
  5
1745
 10
83.4823
 20
169.088
 30
0.000000
  70
    32
  0
VERTEX
  8
0
  5
1746
 10
83.6866
 20
169.216
 30
0.000000
  70
    32
  0
VERTEX
  8
0
  5
1747
 10
83.8843
 20
169.347
 30
0.000000
  70
    32
  0
VERTEX
  8
0
  5
1748
 10
84.0752
 20
169.480
 30
0.000000
  70
    32
  0
VERTEX
  8
0
  5
1749
 10
84.2593
 20
169.615
 30
0.000000
  70
    32
  0
VERTEX
  8
0
  5
174A
 10
84.4363
 20
169.753
 30
0.000000
  70
    32
  0
VERTEX
  8
0
  5
174B
 10
84.6062
 20
169.892
 30
0.000000
  70
    32
  0
VERTEX
  8
0
  5
174C
 10
84.7689
 20
170.034
 30
0.000000
  70
    32
  0
VERTEX
  8
0
  5
174D
 10
84.9243
 20
170.177
 30
0.000000
  70
    32
  0
VERTEX
  8
0
  5
174E
 10
85.0724
 20
170.322
 30
0.000000
  70
    32
  0
VERTEX
  8
0
  5
174F
 10
85.2129
 20
170.469
 30
0.000000
  70
    32
  0
VERTEX
  8
0
  5
1750
 10
85.3459
 20
170.617
 30
0.000000
  70
    32
  0
VERTEX
  8
0
  5
1751
 10
85.4712
 20
170.767
 30
0.000000
  70
    32
  0
VERTEX
  8
0
  5
1752
 10
85.5887
 20
170.918
 30
0.000000
  70
    32
  0
VERTEX
  8
0
  5
1753
 10
85.6985
 20
171.071
 30
0.000000
  70
    32
  0
VERTEX
  8
0
  5
1754
 10
85.8004
 20
171.225
 30
0.000000
  70
    32
  0
VERTEX
  8
0
  5
1755
 10
85.8944
 20
171.380
 30
0.000000
  70
    32
  0
VERTEX
  8
0
  5
1756
 10
85.9804
 20
171.536
 30
0.000000
  70
    32
  0
VERTEX
  8
0
  5
1757
 10
86.0584
 20
171.693
 30
0.000000
  70
    32
  0
VERTEX
  8
0
  5
1758
 10
86.1283
 20
171.851
 30
0.000000
  70
    32
  0
VERTEX
  8
0
  5
1759
 10
86.1901
 20
172.010
 30
0.000000
  70
    32
  0
VERTEX
  8
0
  5
175A
 10
86.2437
 20
172.169
 30
0.000000
  70
    32
  0
VERTEX
  8
0
  5
175B
 10
86.2891
 20
172.329
 30
0.000000
  70
    32
  0
VERTEX
  8
0
  5
175C
 10
86.3263
 20
172.490
 30
0.000000
  70
    32
  0
VERTEX
  8
0
  5
175D
 10
86.3553
 20
172.650
 30
0.000000
  70
    32
  0
VERTEX
  8
0
  5
175E
 10
86.3760
 20
172.812
 30
0.000000
  70
    32
  0
VERTEX
  8
0
  5
175F
 10
86.3884
 20
172.973
 30
0.000000
  70
    32
  0
VERTEX
  8
0
  5
1760
 10
86.3925
 20
173.134
 30
0.000000
  70
    32
  0
SEQEND
  8
0
  5
1761
  0
LINE
  5
1258
  8
0
 10
86.392513677589307
 20
173.13429333970171
 30
0.0
 11
86.142513677589307
 21
141.63319489944911
 31
0.0
  0
LINE
  5
1259
  8
0
 10
80.737681061163727
 20
187.0522806902249
 30
0.0
 11
79.226059458276751
 21
194.2361497978153
 31
0.0
  0
ARC
  5
125A
  8
0
 10
78.736773970138785
 20
194.13319489944911
 30
0.0
 40
0.5
 50
11.882762862839719
 51
90.0
  0
ARC
  5
125B
  8
0
 10
85.323164006638137
 20
182.8877096916824
 30
0.0
 40
6.0
 50
141.32779275757619
 51
169.7383492747399
  0
ARC
  5
125C
  8
0
 10
80.248395573025789
 20
186.94932579185871
 30
0.0
 40
0.5
 50
321.32779275757628
 51
11.88276286284132
  0
LINE
  5
125D
  8
0
 10
80.748395573025789
 20
186.94932579185871
 30
0.0
 11
80.748395573025761
 21
178.6013546464815
 31
0.0
  0
ARC
  5
125E
  8
0
 10
89.317926716421454
 20
183.75529837748709
 30
0.0
 40
10.0
 50
201.4323956628549
 51
229.77460563426351
  0
LINE
  5
125F
  8
0
 10
58.892513677589307
 20
173.13429333970171
 30
0.0
 11
59.142513677589307
 21
141.63319489944911
 31
0.0
  0
LINE
  5
1260
  8
0
 10
64.547346294014886
 20
187.0522806902249
 30
0.0
 11
66.058967896901862
 21
194.2361497978153
 31
0.0
  0
ARC
  5
1261
  8
0
 10
65.036631782152824
 20
186.94932579185871
 30
0.0
 40
0.5
 50
168.1172371371587
 51
218.67220724242381
  0
ARC
  5
1262
  8
0
 10
66.548253385039814
 20
194.13319489944911
 30
0.0
 40
0.5
 50
90.0
 51
168.1172371371602
  0
POLYLINE
  5
1263
  8
0
 10
62.411552840689794
 20
176.10899387906076
 30
0.0
 66
     1
 70
     8
  0
VERTEX
  8
0
  5
1762
 10
62.4116
 20
176.109
 30
0.000000
  70
    32
  0
VERTEX
  8
0
  5
1763
 10
62.3592
 20
176.090
 30
0.000000
  70
    32
  0
VERTEX
  8
0
  5
1764
 10
62.3072
 20
176.071
 30
0.000000
  70
    32
  0
VERTEX
  8
0
  5
1765
 10
62.2555
 20
176.052
 30
0.000000
  70
    32
  0
VERTEX
  8
0
  5
1766
 10
62.2042
 20
176.032
 30
0.000000
  70
    32
  0
VERTEX
  8
0
  5
1767
 10
62.1532
 20
176.013
 30
0.000000
  70
    32
  0
VERTEX
  8
0
  5
1768
 10
62.1026
 20
175.994
 30
0.000000
  70
    32
  0
VERTEX
  8
0
  5
1769
 10
62.0523
 20
175.974
 30
0.000000
  70
    32
  0
VERTEX
  8
0
  5
176A
 10
62.0023
 20
175.954
 30
0.000000
  70
    32
  0
VERTEX
  8
0
  5
176B
 10
61.9527
 20
175.935
 30
0.000000
  70
    32
  0
VERTEX
  8
0
  5
176C
 10
61.9034
 20
175.915
 30
0.000000
  70
    32
  0
VERTEX
  8
0
  5
176D
 10
61.8545
 20
175.895
 30
0.000000
  70
    32
  0
VERTEX
  8
0
  5
176E
 10
61.8060
 20
175.875
 30
0.000000
  70
    32
  0
VERTEX
  8
0
  5
176F
 10
61.7578
 20
175.855
 30
0.000000
  70
    32
  0
VERTEX
  8
0
  5
1770
 10
61.7099
 20
175.835
 30
0.000000
  70
    32
  0
VERTEX
  8
0
  5
1771
 10
61.6625
 20
175.814
 30
0.000000
  70
    32
  0
VERTEX
  8
0
  5
1772
 10
61.6153
 20
175.794
 30
0.000000
  70
    32
  0
VERTEX
  8
0
  5
1773
 10
61.5686
 20
175.774
 30
0.000000
  70
    32
  0
VERTEX
  8
0
  5
1774
 10
61.5221
 20
175.753
 30
0.000000
  70
    32
  0
VERTEX
  8
0
  5
1775
 10
61.4761
 20
175.732
 30
0.000000
  70
    32
  0
VERTEX
  8
0
  5
1776
 10
61.4304
 20
175.712
 30
0.000000
  70
    32
  0
VERTEX
  8
0
  5
1777
 10
61.3851
 20
175.691
 30
0.000000
  70
    32
  0
VERTEX
  8
0
  5
1778
 10
61.3402
 20
175.670
 30
0.000000
  70
    32
  0
VERTEX
  8
0
  5
1779
 10
61.2956
 20
175.649
 30
0.000000
  70
    32
  0
VERTEX
  8
0
  5
177A
 10
61.2514
 20
175.628
 30
0.000000
  70
    32
  0
VERTEX
  8
0
  5
177B
 10
61.2076
 20
175.607
 30
0.000000
  70
    32
  0
VERTEX
  8
0
  5
177C
 10
61.1641
 20
175.586
 30
0.000000
  70
    32
  0
VERTEX
  8
0
  5
177D
 10
61.1210
 20
175.564
 30
0.000000
  70
    32
  0
VERTEX
  8
0
  5
177E
 10
61.0783
 20
175.543
 30
0.000000
  70
    32
  0
VERTEX
  8
0
  5
177F
 10
61.0360
 20
175.522
 30
0.000000
  70
    32
  0
VERTEX
  8
0
  5
1780
 10
60.9940
 20
175.500
 30
0.000000
  70
    32
  0
VERTEX
  8
0
  5
1781
 10
60.9525
 20
175.478
 30
0.000000
  70
    32
  0
VERTEX
  8
0
  5
1782
 10
60.9113
 20
175.457
 30
0.000000
  70
    32
  0
VERTEX
  8
0
  5
1783
 10
60.8705
 20
175.435
 30
0.000000
  70
    32
  0
VERTEX
  8
0
  5
1784
 10
60.8300
 20
175.413
 30
0.000000
  70
    32
  0
VERTEX
  8
0
  5
1785
 10
60.7900
 20
175.391
 30
0.000000
  70
    32
  0
VERTEX
  8
0
  5
1786
 10
60.7504
 20
175.369
 30
0.000000
  70
    32
  0
VERTEX
  8
0
  5
1787
 10
60.7111
 20
175.347
 30
0.000000
  70
    32
  0
VERTEX
  8
0
  5
1788
 10
60.6722
 20
175.325
 30
0.000000
  70
    32
  0
VERTEX
  8
0
  5
1789
 10
60.6338
 20
175.303
 30
0.000000
  70
    32
  0
VERTEX
  8
0
  5
178A
 10
60.5957
 20
175.281
 30
0.000000
  70
    32
  0
VERTEX
  8
0
  5
178B
 10
60.5580
 20
175.258
 30
0.000000
  70
    32
  0
VERTEX
  8
0
  5
178C
 10
60.5207
 20
175.236
 30
0.000000
  70
    32
  0
VERTEX
  8
0
  5
178D
 10
60.4838
 20
175.213
 30
0.000000
  70
    32
  0
VERTEX
  8
0
  5
178E
 10
60.4473
 20
175.191
 30
0.000000
  70
    32
  0
VERTEX
  8
0
  5
178F
 10
60.4112
 20
175.168
 30
0.000000
  70
    32
  0
VERTEX
  8
0
  5
1790
 10
60.3755
 20
175.146
 30
0.000000
  70
    32
  0
VERTEX
  8
0
  5
1791
 10
60.3402
 20
175.123
 30
0.000000
  70
    32
  0
VERTEX
  8
0
  5
1792
 10
60.3053
 20
175.100
 30
0.000000
  70
    32
  0
VERTEX
  8
0
  5
1793
 10
60.2708
 20
175.077
 30
0.000000
  70
    32
  0
VERTEX
  8
0
  5
1794
 10
60.2367
 20
175.054
 30
0.000000
  70
    32
  0
VERTEX
  8
0
  5
1795
 10
60.2030
 20
175.031
 30
0.000000
  70
    32
  0
VERTEX
  8
0
  5
1796
 10
60.1697
 20
175.008
 30
0.000000
  70
    32
  0
VERTEX
  8
0
  5
1797
 10
60.1368
 20
174.985
 30
0.000000
  70
    32
  0
VERTEX
  8
0
  5
1798
 10
60.1043
 20
174.962
 30
0.000000
  70
    32
  0
VERTEX
  8
0
  5
1799
 10
60.0723
 20
174.939
 30
0.000000
  70
    32
  0
VERTEX
  8
0
  5
179A
 10
60.0406
 20
174.915
 30
0.000000
  70
    32
  0
VERTEX
  8
0
  5
179B
 10
60.0094
 20
174.892
 30
0.000000
  70
    32
  0
VERTEX
  8
0
  5
179C
 10
59.9786
 20
174.869
 30
0.000000
  70
    32
  0
VERTEX
  8
0
  5
179D
 10
59.9482
 20
174.845
 30
0.000000
  70
    32
  0
VERTEX
  8
0
  5
179E
 10
59.9182
 20
174.822
 30
0.000000
  70
    32
  0
VERTEX
  8
0
  5
179F
 10
59.8886
 20
174.798
 30
0.000000
  70
    32
  0
VERTEX
  8
0
  5
17A0
 10
59.8594
 20
174.774
 30
0.000000
  70
    32
  0
VERTEX
  8
0
  5
17A1
 10
59.8307
 20
174.751
 30
0.000000
  70
    32
  0
VERTEX
  8
0
  5
17A2
 10
59.8024
 20
174.727
 30
0.000000
  70
    32
  0
VERTEX
  8
0
  5
17A3
 10
59.7745
 20
174.703
 30
0.000000
  70
    32
  0
VERTEX
  8
0
  5
17A4
 10
59.7470
 20
174.679
 30
0.000000
  70
    32
  0
VERTEX
  8
0
  5
17A5
 10
59.7199
 20
174.656
 30
0.000000
  70
    32
  0
VERTEX
  8
0
  5
17A6
 10
59.6933
 20
174.632
 30
0.000000
  70
    32
  0
VERTEX
  8
0
  5
17A7
 10
59.6671
 20
174.608
 30
0.000000
  70
    32
  0
VERTEX
  8
0
  5
17A8
 10
59.6413
 20
174.584
 30
0.000000
  70
    32
  0
VERTEX
  8
0
  5
17A9
 10
59.6159
 20
174.559
 30
0.000000
  70
    32
  0
VERTEX
  8
0
  5
17AA
 10
59.5910
 20
174.535
 30
0.000000
  70
    32
  0
VERTEX
  8
0
  5
17AB
 10
59.5664
 20
174.511
 30
0.000000
  70
    32
  0
VERTEX
  8
0
  5
17AC
 10
59.5423
 20
174.487
 30
0.000000
  70
    32
  0
VERTEX
  8
0
  5
17AD
 10
59.5187
 20
174.463
 30
0.000000
  70
    32
  0
VERTEX
  8
0
  5
17AE
 10
59.4955
 20
174.438
 30
0.000000
  70
    32
  0
VERTEX
  8
0
  5
17AF
 10
59.4726
 20
174.414
 30
0.000000
  70
    32
  0
VERTEX
  8
0
  5
17B0
 10
59.4503
 20
174.390
 30
0.000000
  70
    32
  0
VERTEX
  8
0
  5
17B1
 10
59.4283
 20
174.365
 30
0.000000
  70
    32
  0
VERTEX
  8
0
  5
17B2
 10
59.4068
 20
174.341
 30
0.000000
  70
    32
  0
VERTEX
  8
0
  5
17B3
 10
59.3857
 20
174.316
 30
0.000000
  70
    32
  0
VERTEX
  8
0
  5
17B4
 10
59.3651
 20
174.292
 30
0.000000
  70
    32
  0
VERTEX
  8
0
  5
17B5
 10
59.3449
 20
174.267
 30
0.000000
  70
    32
  0
VERTEX
  8
0
  5
17B6
 10
59.3251
 20
174.242
 30
0.000000
  70
    32
  0
VERTEX
  8
0
  5
17B7
 10
59.3058
 20
174.218
 30
0.000000
  70
    32
  0
VERTEX
  8
0
  5
17B8
 10
59.2869
 20
174.193
 30
0.000000
  70
    32
  0
VERTEX
  8
0
  5
17B9
 10
59.2684
 20
174.168
 30
0.000000
  70
    32
  0
VERTEX
  8
0
  5
17BA
 10
59.2504
 20
174.143
 30
0.000000
  70
    32
  0
VERTEX
  8
0
  5
17BB
 10
59.2328
 20
174.119
 30
0.000000
  70
    32
  0
VERTEX
  8
0
  5
17BC
 10
59.2156
 20
174.094
 30
0.000000
  70
    32
  0
VERTEX
  8
0
  5
17BD
 10
59.1989
 20
174.069
 30
0.000000
  70
    32
  0
VERTEX
  8
0
  5
17BE
 10
59.1826
 20
174.044
 30
0.000000
  70
    32
  0
VERTEX
  8
0
  5
17BF
 10
59.1668
 20
174.019
 30
0.000000
  70
    32
  0
VERTEX
  8
0
  5
17C0
 10
59.1514
 20
173.994
 30
0.000000
  70
    32
  0
VERTEX
  8
0
  5
17C1
 10
59.1364
 20
173.969
 30
0.000000
  70
    32
  0
VERTEX
  8
0
  5
17C2
 10
59.1219
 20
173.944
 30
0.000000
  70
    32
  0
VERTEX
  8
0
  5
17C3
 10
59.1078
 20
173.919
 30
0.000000
  70
    32
  0
VERTEX
  8
0
  5
17C4
 10
59.0942
 20
173.894
 30
0.000000
  70
    32
  0
VERTEX
  8
0
  5
17C5
 10
59.0810
 20
173.869
 30
0.000000
  70
    32
  0
VERTEX
  8
0
  5
17C6
 10
59.0682
 20
173.844
 30
0.000000
  70
    32
  0
VERTEX
  8
0
  5
17C7
 10
59.0559
 20
173.819
 30
0.000000
  70
    32
  0
VERTEX
  8
0
  5
17C8
 10
59.0441
 20
173.794
 30
0.000000
  70
    32
  0
VERTEX
  8
0
  5
17C9
 10
59.0327
 20
173.768
 30
0.000000
  70
    32
  0
VERTEX
  8
0
  5
17CA
 10
59.0217
 20
173.743
 30
0.000000
  70
    32
  0
VERTEX
  8
0
  5
17CB
 10
59.0112
 20
173.718
 30
0.000000
  70
    32
  0
VERTEX
  8
0
  5
17CC
 10
59.0011
 20
173.693
 30
0.000000
  70
    32
  0
VERTEX
  8
0
  5
17CD
 10
58.9915
 20
173.667
 30
0.000000
  70
    32
  0
VERTEX
  8
0
  5
17CE
 10
58.9823
 20
173.642
 30
0.000000
  70
    32
  0
VERTEX
  8
0
  5
17CF
 10
58.9735
 20
173.617
 30
0.000000
  70
    32
  0
VERTEX
  8
0
  5
17D0
 10
58.9652
 20
173.592
 30
0.000000
  70
    32
  0
VERTEX
  8
0
  5
17D1
 10
58.9574
 20
173.566
 30
0.000000
  70
    32
  0
VERTEX
  8
0
  5
17D2
 10
58.9500
 20
173.541
 30
0.000000
  70
    32
  0
VERTEX
  8
0
  5
17D3
 10
58.9430
 20
173.516
 30
0.000000
  70
    32
  0
VERTEX
  8
0
  5
17D4
 10
58.9365
 20
173.490
 30
0.000000
  70
    32
  0
VERTEX
  8
0
  5
17D5
 10
58.9305
 20
173.465
 30
0.000000
  70
    32
  0
VERTEX
  8
0
  5
17D6
 10
58.9248
 20
173.439
 30
0.000000
  70
    32
  0
VERTEX
  8
0
  5
17D7
 10
58.9197
 20
173.414
 30
0.000000
  70
    32
  0
VERTEX
  8
0
  5
17D8
 10
58.9150
 20
173.389
 30
0.000000
  70
    32
  0
VERTEX
  8
0
  5
17D9
 10
58.9107
 20
173.363
 30
0.000000
  70
    32
  0
VERTEX
  8
0
  5
17DA
 10
58.9069
 20
173.338
 30
0.000000
  70
    32
  0
VERTEX
  8
0
  5
17DB
 10
58.9035
 20
173.312
 30
0.000000
  70
    32
  0
VERTEX
  8
0
  5
17DC
 10
58.9006
 20
173.287
 30
0.000000
  70
    32
  0
VERTEX
  8
0
  5
17DD
 10
58.8981
 20
173.262
 30
0.000000
  70
    32
  0
VERTEX
  8
0
  5
17DE
 10
58.8961
 20
173.236
 30
0.000000
  70
    32
  0
VERTEX
  8
0
  5
17DF
 10
58.8945
 20
173.211
 30
0.000000
  70
    32
  0
VERTEX
  8
0
  5
17E0
 10
58.8934
 20
173.185
 30
0.000000
  70
    32
  0
VERTEX
  8
0
  5
17E1
 10
58.8927
 20
173.160
 30
0.000000
  70
    32
  0
VERTEX
  8
0
  5
17E2
 10
58.8925
 20
173.134
 30
0.000000
  70
    32
  0
SEQEND
  8
0
  5
17E3
  0
LINE
  5
1264
  8
0
 10
64.536631782152824
 20
186.94932579185871
 30
0.0
 11
64.536631782152824
 21
178.6013546464815
 31
0.0
  0
ARC
  5
1265
  8
0
 10
59.961863348540483
 20
182.8877096916824
 30
0.0
 40
6.0
 50
332.32813980540368
 51
338.45171701896078
  0
ARC
  5
1266
  8
0
 10
55.967100638757167
 20
183.75529837748709
 30
0.0
 40
10.0
 50
310.22539436573652
 51
338.5676043371451
  0
LINE
  5
1267
  8
0
 10
317.19333340473457
 20
190.63317364225301
 30
0.0
 11
318.89351930106773
 21
190.63317364225301
 31
0.0
  0
LINE
  5
1268
  8
0
 10
316.72657131997698
 20
189.97222456061311
 30
0.0
 11
319.36028138582532
 21
189.97222456061311
 31
0.0
  0
LINE
  5
1269
  8
0
 10
311.44239574664431
 20
181.29588288930779
 30
0.0
 11
324.64445695915799
 21
181.29588288930779
 31
0.0
  0
LINE
  5
126A
  8
0
 10
311.5563578239238
 20
182.69041685866719
 30
0.0
 11
324.5304948818785
 21
182.69041685866719
 31
0.0
  0
LINE
  5
126B
  8
0
 10
325.15531370101951
 20
180.60319489944911
 30
0.0
 11
310.93153900478279
 21
180.60319489944911
 31
0.0
  0
LINE
  5
126C
  8
0
 10
324.54342635290112
 20
194.3883802340207
 30
0.0
 11
324.54342635290112
 21
182.55321776733311
 31
0.0
  0
LINE
  5
126D
  8
0
 10
331.54342635290112
 20
141.63319489944911
 30
0.0
 11
304.54342635290112
 21
141.63319489944911
 31
0.0
  0
POLYLINE
  5
126E
  8
0
 66
     1
 10
0.0
 20
0.0
 30
0.0
  0
VERTEX
  5
1558
  8
0
 10
310.31063550902007
 20
160.91081238528301
 30
0.0
  0
VERTEX
  5
1559
  8
0
 10
310.15833597325758
 20
160.5301920475774
 30
0.0
  0
VERTEX
  5
155A
  8
0
 10
309.8276084119658
 20
159.76947565209269
 30
0.0
  0
VERTEX
  5
155B
  8
0
 10
309.46374453038248
 20
159.0110018379284
 30
0.0
  0
VERTEX
  5
155C
  8
0
 10
309.27007035661762
 20
158.63319489944911
 30
0.0
  0
SEQEND
  5
155D
  8
0
  0
POLYLINE
  5
126F
  8
0
 66
     1
 10
0.0
 20
0.0
 30
0.0
  0
VERTEX
  5
155E
  8
0
 10
310.16881687627949
 20
171.28883353749231
 30
0.0
  0
VERTEX
  5
155F
  8
0
 10
310.54477306580492
 20
170.5230732339173
 30
0.0
  0
VERTEX
  5
1560
  8
0
 10
311.09898453191403
 20
168.9063937288274
 30
0.0
  0
VERTEX
  5
1561
  8
0
 10
311.37850038455969
 20
167.1883009801636
 30
0.0
  0
VERTEX
  5
1562
  8
0
 10
311.41342635290113
 20
166.29663777799999
 30
0.0
  0
SEQEND
  5
1563
  8
0
  0
POLYLINE
  5
1270
  8
0
 66
     1
 10
0.0
 20
0.0
 30
0.0
  0
VERTEX
  5
1564
  8
0
 10
311.41342635290113
 20
166.29663777799999
 30
0.0
  0
VERTEX
  5
1565
  8
0
 10
311.38170853580539
 20
165.4271733673109
 30
0.0
  0
VERTEX
  5
1566
  8
0
 10
311.13083647903352
 20
163.6464275803695
 30
0.0
  0
VERTEX
  5
1567
  8
0
 10
310.6402751167887
 20
161.82747450807221
 30
0.0
  0
VERTEX
  5
1568
  8
0
 10
310.31063550902007
 20
160.91081238528301
 30
0.0
  0
SEQEND
  5
1569
  8
0
  0
POLYLINE
  5
1271
  8
0
 66
     1
 10
0.0
 20
0.0
 30
0.0
  0
VERTEX
  5
156A
  8
0
 10
309.92604327598082
 20
172.36669892842599
 30
0.0
  0
VERTEX
  5
156B
  8
0
 10
309.92366977572709
 20
172.34007389481519
 30
0.0
  0
VERTEX
  5
156C
  8
0
 10
309.92023368950851
 20
172.2869135928606
 30
0.0
  0
VERTEX
  5
156D
  8
0
 10
309.91852687857568
 20
172.23388821941381
 30
0.0
  0
VERTEX
  5
156E
  8
0
 10
309.9183146600688
 20
172.2074318732316
 30
0.0
  0
SEQEND
  5
156F
  8
0
  0
POLYLINE
  5
1272
  8
0
 66
     1
 10
0.0
 20
0.0
 30
0.0
  0
VERTEX
  5
1570
  8
0
 10
309.9183146600688
 20
172.2074318732316
 30
0.0
  0
VERTEX
  5
1571
  8
0
 10
309.92498785805731
 20
172.0586507843565
 30
0.0
  0
VERTEX
  5
1572
  8
0
 10
309.97957075690272
 20
171.75486348834519
 30
0.0
  0
VERTEX
  5
1573
  8
0
 10
310.09116078257949
 20
171.44508772433011
 30
0.0
  0
VERTEX
  5
1574
  8
0
 10
310.16881687627961
 20
171.28883353749231
 30
0.0
  0
SEQEND
  5
1575
  8
0
  0
LINE
  5
1273
  8
0
 10
310.84009134326669
 20
180.28365104974949
 30
0.0
 11
325.24676136253561
 21
180.28365104974949
 31
0.0
  0
LINE
  5
1274
  8
0
 10
327.54342635290112
 20
131.63319489944911
 30
0.0
 11
327.54342635290112
 21
141.63319489944911
 31
0.0
  0
LINE
  5
1275
  8
0
 10
308.54342635290112
 20
141.63319489944911
 30
0.0
 11
308.54342635290112
 21
131.63319489944911
 31
0.0
  0
LINE
  5
1276
  8
0
 10
308.54342635290112
 20
131.63319489944911
 30
0.0
 11
327.54342635290112
 21
131.63319489944911
 31
0.0
  0
LINE
  5
1277
  8
1
 10
318.04342635290112
 20
199.63319489944911
 30
0.0
 11
318.04342635290112
 21
101.63319489944909
 31
0.0
  0
LINE
  5
1278
  8
0
 10
324.13768664545057
 20
194.63319489944911
 30
0.0
 11
311.94916606035162
 21
194.63319489944911
 31
0.0
  0
ARC
  5
1279
  8
0
 10
311.94916606035162
 20
194.13319489944911
 30
0.0
 40
0.5
 50
90.0
 51
168.1172371371602
  0
ARC
  5
127A
  8
0
 10
324.13768664545057
 20
194.13319489944911
 30
0.0
 40
0.5
 50
11.882762862839719
 51
90.0
  0
LINE
  5
127B
  8
0
 10
326.13859373647563
 20
187.0522806902249
 30
0.0
 11
324.62697213358848
 21
194.2361497978153
 31
0.0
  0
LINE
  5
127C
  8
0
 10
309.94825896932667
 20
187.0522806902249
 30
0.0
 11
311.45988057221359
 21
194.2361497978153
 31
0.0
  0
LINE
  5
127D
  8
0
 10
309.9375444574647
 20
186.94932579185871
 30
0.0
 11
309.9375444574647
 21
172.48170511843369
 31
0.0
  0
ARC
  5
127E
  8
0
 10
310.43754445746458
 20
186.94932579185871
 30
0.0
 40
0.5
 50
168.1172371371587
 51
180.0
  0
ARC
  5
127F
  8
0
 10
325.6493082483376
 20
186.94932579185871
 30
0.0
 40
0.5
 50
0.0
 51
11.88276286284132
  0
LINE
  5
1280
  8
0
 10
326.1493082483376
 20
186.94932579185871
 30
0.0
 11
326.14930824833749
 21
172.45893972807261
 31
0.0
  0
LINE
  5
1281
  8
0
 10
304.29342635290112
 20
173.13429333970171
 30
0.0
 11
304.54342635290112
 21
141.63319489944911
 31
0.0
  0
LINE
  5
1282
  8
0
 10
331.79342635290112
 20
173.13429333970171
 30
0.0
 11
331.54342635290112
 21
141.63319489944911
 31
0.0
  0
POLYLINE
  5
1283
  8
0
 10
331.79342635290112
 20
173.13429333970171
 30
0.0
 66
     1
 70
     8
  0
VERTEX
  8
0
  5
17E4
 10
331.793
 20
173.134
 30
0.000000
  70
    32
  0
VERTEX
  8
0
  5
17E5
 10
331.793
 20
173.160
 30
0.000000
  70
    32
  0
VERTEX
  8
0
  5
17E6
 10
331.793
 20
173.185
 30
0.000000
  70
    32
  0
VERTEX
  8
0
  5
17E7
 10
331.791
 20
173.211
 30
0.000000
  70
    32
  0
VERTEX
  8
0
  5
17E8
 10
331.790
 20
173.236
 30
0.000000
  70
    32
  0
VERTEX
  8
0
  5
17E9
 10
331.788
 20
173.262
 30
0.000000
  70
    32
  0
VERTEX
  8
0
  5
17EA
 10
331.785
 20
173.287
 30
0.000000
  70
    32
  0
VERTEX
  8
0
  5
17EB
 10
331.782
 20
173.312
 30
0.000000
  70
    32
  0
VERTEX
  8
0
  5
17EC
 10
331.779
 20
173.338
 30
0.000000
  70
    32
  0
VERTEX
  8
0
  5
17ED
 10
331.775
 20
173.363
 30
0.000000
  70
    32
  0
VERTEX
  8
0
  5
17EE
 10
331.771
 20
173.389
 30
0.000000
  70
    32
  0
VERTEX
  8
0
  5
17EF
 10
331.766
 20
173.414
 30
0.000000
  70
    32
  0
VERTEX
  8
0
  5
17F0
 10
331.761
 20
173.439
 30
0.000000
  70
    32
  0
VERTEX
  8
0
  5
17F1
 10
331.755
 20
173.465
 30
0.000000
  70
    32
  0
VERTEX
  8
0
  5
17F2
 10
331.749
 20
173.490
 30
0.000000
  70
    32
  0
VERTEX
  8
0
  5
17F3
 10
331.743
 20
173.516
 30
0.000000
  70
    32
  0
VERTEX
  8
0
  5
17F4
 10
331.736
 20
173.541
 30
0.000000
  70
    32
  0
VERTEX
  8
0
  5
17F5
 10
331.729
 20
173.566
 30
0.000000
  70
    32
  0
VERTEX
  8
0
  5
17F6
 10
331.721
 20
173.592
 30
0.000000
  70
    32
  0
VERTEX
  8
0
  5
17F7
 10
331.712
 20
173.617
 30
0.000000
  70
    32
  0
VERTEX
  8
0
  5
17F8
 10
331.704
 20
173.642
 30
0.000000
  70
    32
  0
VERTEX
  8
0
  5
17F9
 10
331.694
 20
173.667
 30
0.000000
  70
    32
  0
VERTEX
  8
0
  5
17FA
 10
331.685
 20
173.693
 30
0.000000
  70
    32
  0
VERTEX
  8
0
  5
17FB
 10
331.675
 20
173.718
 30
0.000000
  70
    32
  0
VERTEX
  8
0
  5
17FC
 10
331.664
 20
173.743
 30
0.000000
  70
    32
  0
VERTEX
  8
0
  5
17FD
 10
331.653
 20
173.768
 30
0.000000
  70
    32
  0
VERTEX
  8
0
  5
17FE
 10
331.642
 20
173.794
 30
0.000000
  70
    32
  0
VERTEX
  8
0
  5
17FF
 10
331.630
 20
173.819
 30
0.000000
  70
    32
  0
VERTEX
  8
0
  5
1800
 10
331.618
 20
173.844
 30
0.000000
  70
    32
  0
VERTEX
  8
0
  5
1801
 10
331.605
 20
173.869
 30
0.000000
  70
    32
  0
VERTEX
  8
0
  5
1802
 10
331.592
 20
173.894
 30
0.000000
  70
    32
  0
VERTEX
  8
0
  5
1803
 10
331.578
 20
173.919
 30
0.000000
  70
    32
  0
VERTEX
  8
0
  5
1804
 10
331.564
 20
173.944
 30
0.000000
  70
    32
  0
VERTEX
  8
0
  5
1805
 10
331.550
 20
173.969
 30
0.000000
  70
    32
  0
VERTEX
  8
0
  5
1806
 10
331.535
 20
173.994
 30
0.000000
  70
    32
  0
VERTEX
  8
0
  5
1807
 10
331.519
 20
174.019
 30
0.000000
  70
    32
  0
VERTEX
  8
0
  5
1808
 10
331.503
 20
174.044
 30
0.000000
  70
    32
  0
VERTEX
  8
0
  5
1809
 10
331.487
 20
174.069
 30
0.000000
  70
    32
  0
VERTEX
  8
0
  5
180A
 10
331.470
 20
174.094
 30
0.000000
  70
    32
  0
VERTEX
  8
0
  5
180B
 10
331.453
 20
174.119
 30
0.000000
  70
    32
  0
VERTEX
  8
0
  5
180C
 10
331.436
 20
174.143
 30
0.000000
  70
    32
  0
VERTEX
  8
0
  5
180D
 10
331.418
 20
174.168
 30
0.000000
  70
    32
  0
VERTEX
  8
0
  5
180E
 10
331.399
 20
174.193
 30
0.000000
  70
    32
  0
VERTEX
  8
0
  5
180F
 10
331.380
 20
174.218
 30
0.000000
  70
    32
  0
VERTEX
  8
0
  5
1810
 10
331.361
 20
174.242
 30
0.000000
  70
    32
  0
VERTEX
  8
0
  5
1811
 10
331.341
 20
174.267
 30
0.000000
  70
    32
  0
VERTEX
  8
0
  5
1812
 10
331.321
 20
174.292
 30
0.000000
  70
    32
  0
VERTEX
  8
0
  5
1813
 10
331.300
 20
174.316
 30
0.000000
  70
    32
  0
VERTEX
  8
0
  5
1814
 10
331.279
 20
174.341
 30
0.000000
  70
    32
  0
VERTEX
  8
0
  5
1815
 10
331.258
 20
174.365
 30
0.000000
  70
    32
  0
VERTEX
  8
0
  5
1816
 10
331.236
 20
174.390
 30
0.000000
  70
    32
  0
VERTEX
  8
0
  5
1817
 10
331.213
 20
174.414
 30
0.000000
  70
    32
  0
VERTEX
  8
0
  5
1818
 10
331.190
 20
174.438
 30
0.000000
  70
    32
  0
VERTEX
  8
0
  5
1819
 10
331.167
 20
174.463
 30
0.000000
  70
    32
  0
VERTEX
  8
0
  5
181A
 10
331.144
 20
174.487
 30
0.000000
  70
    32
  0
VERTEX
  8
0
  5
181B
 10
331.120
 20
174.511
 30
0.000000
  70
    32
  0
VERTEX
  8
0
  5
181C
 10
331.095
 20
174.535
 30
0.000000
  70
    32
  0
VERTEX
  8
0
  5
181D
 10
331.070
 20
174.559
 30
0.000000
  70
    32
  0
VERTEX
  8
0
  5
181E
 10
331.045
 20
174.584
 30
0.000000
  70
    32
  0
VERTEX
  8
0
  5
181F
 10
331.019
 20
174.608
 30
0.000000
  70
    32
  0
VERTEX
  8
0
  5
1820
 10
330.993
 20
174.632
 30
0.000000
  70
    32
  0
VERTEX
  8
0
  5
1821
 10
330.966
 20
174.656
 30
0.000000
  70
    32
  0
VERTEX
  8
0
  5
1822
 10
330.939
 20
174.679
 30
0.000000
  70
    32
  0
VERTEX
  8
0
  5
1823
 10
330.911
 20
174.703
 30
0.000000
  70
    32
  0
VERTEX
  8
0
  5
1824
 10
330.884
 20
174.727
 30
0.000000
  70
    32
  0
VERTEX
  8
0
  5
1825
 10
330.855
 20
174.751
 30
0.000000
  70
    32
  0
VERTEX
  8
0
  5
1826
 10
330.826
 20
174.774
 30
0.000000
  70
    32
  0
VERTEX
  8
0
  5
1827
 10
330.797
 20
174.798
 30
0.000000
  70
    32
  0
VERTEX
  8
0
  5
1828
 10
330.768
 20
174.822
 30
0.000000
  70
    32
  0
VERTEX
  8
0
  5
1829
 10
330.738
 20
174.845
 30
0.000000
  70
    32
  0
VERTEX
  8
0
  5
182A
 10
330.707
 20
174.869
 30
0.000000
  70
    32
  0
VERTEX
  8
0
  5
182B
 10
330.677
 20
174.892
 30
0.000000
  70
    32
  0
VERTEX
  8
0
  5
182C
 10
330.645
 20
174.915
 30
0.000000
  70
    32
  0
VERTEX
  8
0
  5
182D
 10
330.614
 20
174.939
 30
0.000000
  70
    32
  0
VERTEX
  8
0
  5
182E
 10
330.582
 20
174.962
 30
0.000000
  70
    32
  0
VERTEX
  8
0
  5
182F
 10
330.549
 20
174.985
 30
0.000000
  70
    32
  0
VERTEX
  8
0
  5
1830
 10
330.516
 20
175.008
 30
0.000000
  70
    32
  0
VERTEX
  8
0
  5
1831
 10
330.483
 20
175.031
 30
0.000000
  70
    32
  0
VERTEX
  8
0
  5
1832
 10
330.449
 20
175.054
 30
0.000000
  70
    32
  0
VERTEX
  8
0
  5
1833
 10
330.415
 20
175.077
 30
0.000000
  70
    32
  0
VERTEX
  8
0
  5
1834
 10
330.381
 20
175.100
 30
0.000000
  70
    32
  0
VERTEX
  8
0
  5
1835
 10
330.346
 20
175.123
 30
0.000000
  70
    32
  0
VERTEX
  8
0
  5
1836
 10
330.310
 20
175.146
 30
0.000000
  70
    32
  0
VERTEX
  8
0
  5
1837
 10
330.275
 20
175.168
 30
0.000000
  70
    32
  0
VERTEX
  8
0
  5
1838
 10
330.239
 20
175.191
 30
0.000000
  70
    32
  0
VERTEX
  8
0
  5
1839
 10
330.202
 20
175.213
 30
0.000000
  70
    32
  0
VERTEX
  8
0
  5
183A
 10
330.165
 20
175.236
 30
0.000000
  70
    32
  0
VERTEX
  8
0
  5
183B
 10
330.128
 20
175.258
 30
0.000000
  70
    32
  0
VERTEX
  8
0
  5
183C
 10
330.090
 20
175.281
 30
0.000000
  70
    32
  0
VERTEX
  8
0
  5
183D
 10
330.052
 20
175.303
 30
0.000000
  70
    32
  0
VERTEX
  8
0
  5
183E
 10
330.014
 20
175.325
 30
0.000000
  70
    32
  0
VERTEX
  8
0
  5
183F
 10
329.975
 20
175.347
 30
0.000000
  70
    32
  0
VERTEX
  8
0
  5
1840
 10
329.936
 20
175.369
 30
0.000000
  70
    32
  0
VERTEX
  8
0
  5
1841
 10
329.896
 20
175.391
 30
0.000000
  70
    32
  0
VERTEX
  8
0
  5
1842
 10
329.856
 20
175.413
 30
0.000000
  70
    32
  0
VERTEX
  8
0
  5
1843
 10
329.815
 20
175.435
 30
0.000000
  70
    32
  0
VERTEX
  8
0
  5
1844
 10
329.775
 20
175.457
 30
0.000000
  70
    32
  0
VERTEX
  8
0
  5
1845
 10
329.733
 20
175.478
 30
0.000000
  70
    32
  0
VERTEX
  8
0
  5
1846
 10
329.692
 20
175.500
 30
0.000000
  70
    32
  0
VERTEX
  8
0
  5
1847
 10
329.650
 20
175.522
 30
0.000000
  70
    32
  0
VERTEX
  8
0
  5
1848
 10
329.608
 20
175.543
 30
0.000000
  70
    32
  0
VERTEX
  8
0
  5
1849
 10
329.565
 20
175.564
 30
0.000000
  70
    32
  0
VERTEX
  8
0
  5
184A
 10
329.522
 20
175.586
 30
0.000000
  70
    32
  0
VERTEX
  8
0
  5
184B
 10
329.478
 20
175.607
 30
0.000000
  70
    32
  0
VERTEX
  8
0
  5
184C
 10
329.435
 20
175.628
 30
0.000000
  70
    32
  0
VERTEX
  8
0
  5
184D
 10
329.390
 20
175.649
 30
0.000000
  70
    32
  0
VERTEX
  8
0
  5
184E
 10
329.346
 20
175.670
 30
0.000000
  70
    32
  0
VERTEX
  8
0
  5
184F
 10
329.301
 20
175.691
 30
0.000000
  70
    32
  0
VERTEX
  8
0
  5
1850
 10
329.256
 20
175.712
 30
0.000000
  70
    32
  0
VERTEX
  8
0
  5
1851
 10
329.210
 20
175.732
 30
0.000000
  70
    32
  0
VERTEX
  8
0
  5
1852
 10
329.164
 20
175.753
 30
0.000000
  70
    32
  0
VERTEX
  8
0
  5
1853
 10
329.117
 20
175.774
 30
0.000000
  70
    32
  0
VERTEX
  8
0
  5
1854
 10
329.071
 20
175.794
 30
0.000000
  70
    32
  0
VERTEX
  8
0
  5
1855
 10
329.023
 20
175.814
 30
0.000000
  70
    32
  0
VERTEX
  8
0
  5
1856
 10
328.976
 20
175.835
 30
0.000000
  70
    32
  0
VERTEX
  8
0
  5
1857
 10
328.928
 20
175.855
 30
0.000000
  70
    32
  0
VERTEX
  8
0
  5
1858
 10
328.880
 20
175.875
 30
0.000000
  70
    32
  0
VERTEX
  8
0
  5
1859
 10
328.831
 20
175.895
 30
0.000000
  70
    32
  0
VERTEX
  8
0
  5
185A
 10
328.782
 20
175.915
 30
0.000000
  70
    32
  0
VERTEX
  8
0
  5
185B
 10
328.733
 20
175.935
 30
0.000000
  70
    32
  0
VERTEX
  8
0
  5
185C
 10
328.684
 20
175.954
 30
0.000000
  70
    32
  0
VERTEX
  8
0
  5
185D
 10
328.634
 20
175.974
 30
0.000000
  70
    32
  0
VERTEX
  8
0
  5
185E
 10
328.583
 20
175.994
 30
0.000000
  70
    32
  0
VERTEX
  8
0
  5
185F
 10
328.533
 20
176.013
 30
0.000000
  70
    32
  0
VERTEX
  8
0
  5
1860
 10
328.482
 20
176.032
 30
0.000000
  70
    32
  0
VERTEX
  8
0
  5
1861
 10
328.430
 20
176.052
 30
0.000000
  70
    32
  0
VERTEX
  8
0
  5
1862
 10
328.379
 20
176.071
 30
0.000000
  70
    32
  0
VERTEX
  8
0
  5
1863
 10
328.327
 20
176.090
 30
0.000000
  70
    32
  0
VERTEX
  8
0
  5
1864
 10
328.274
 20
176.109
 30
0.000000
  70
    32
  0
SEQEND
  8
0
  5
1865
  0
ARC
  5
1284
  8
0
 10
334.7188393917333
 20
183.75529837748709
 30
0.0
 40
10.0
 50
211.0238190760582
 51
229.77460563426351
  0
ARC
  5
1285
  8
0
 10
301.368013314069
 20
183.75529837748709
 30
0.0
 40
10.0
 50
310.22539436573652
 51
328.97618092394111
  0
POLYLINE
  5
1286
  8
0
 10
307.81246551600162
 20
176.10899387906076
 30
0.0
 66
     1
 70
     8
  0
VERTEX
  8
0
  5
1866
 10
307.812
 20
176.109
 30
0.000000
  70
    32
  0
VERTEX
  8
0
  5
1867
 10
307.760
 20
176.090
 30
0.000000
  70
    32
  0
VERTEX
  8
0
  5
1868
 10
307.708
 20
176.071
 30
0.000000
  70
    32
  0
VERTEX
  8
0
  5
1869
 10
307.656
 20
176.052
 30
0.000000
  70
    32
  0
VERTEX
  8
0
  5
186A
 10
307.605
 20
176.032
 30
0.000000
  70
    32
  0
VERTEX
  8
0
  5
186B
 10
307.554
 20
176.013
 30
0.000000
  70
    32
  0
VERTEX
  8
0
  5
186C
 10
307.503
 20
175.994
 30
0.000000
  70
    32
  0
VERTEX
  8
0
  5
186D
 10
307.453
 20
175.974
 30
0.000000
  70
    32
  0
VERTEX
  8
0
  5
186E
 10
307.403
 20
175.954
 30
0.000000
  70
    32
  0
VERTEX
  8
0
  5
186F
 10
307.354
 20
175.935
 30
0.000000
  70
    32
  0
VERTEX
  8
0
  5
1870
 10
307.304
 20
175.915
 30
0.000000
  70
    32
  0
VERTEX
  8
0
  5
1871
 10
307.255
 20
175.895
 30
0.000000
  70
    32
  0
VERTEX
  8
0
  5
1872
 10
307.207
 20
175.875
 30
0.000000
  70
    32
  0
VERTEX
  8
0
  5
1873
 10
307.159
 20
175.855
 30
0.000000
  70
    32
  0
VERTEX
  8
0
  5
1874
 10
307.111
 20
175.835
 30
0.000000
  70
    32
  0
VERTEX
  8
0
  5
1875
 10
307.063
 20
175.814
 30
0.000000
  70
    32
  0
VERTEX
  8
0
  5
1876
 10
307.016
 20
175.794
 30
0.000000
  70
    32
  0
VERTEX
  8
0
  5
1877
 10
306.969
 20
175.774
 30
0.000000
  70
    32
  0
VERTEX
  8
0
  5
1878
 10
306.923
 20
175.753
 30
0.000000
  70
    32
  0
VERTEX
  8
0
  5
1879
 10
306.877
 20
175.732
 30
0.000000
  70
    32
  0
VERTEX
  8
0
  5
187A
 10
306.831
 20
175.712
 30
0.000000
  70
    32
  0
VERTEX
  8
0
  5
187B
 10
306.786
 20
175.691
 30
0.000000
  70
    32
  0
VERTEX
  8
0
  5
187C
 10
306.741
 20
175.670
 30
0.000000
  70
    32
  0
VERTEX
  8
0
  5
187D
 10
306.697
 20
175.649
 30
0.000000
  70
    32
  0
VERTEX
  8
0
  5
187E
 10
306.652
 20
175.628
 30
0.000000
  70
    32
  0
VERTEX
  8
0
  5
187F
 10
306.608
 20
175.607
 30
0.000000
  70
    32
  0
VERTEX
  8
0
  5
1880
 10
306.565
 20
175.586
 30
0.000000
  70
    32
  0
VERTEX
  8
0
  5
1881
 10
306.522
 20
175.564
 30
0.000000
  70
    32
  0
VERTEX
  8
0
  5
1882
 10
306.479
 20
175.543
 30
0.000000
  70
    32
  0
VERTEX
  8
0
  5
1883
 10
306.437
 20
175.522
 30
0.000000
  70
    32
  0
VERTEX
  8
0
  5
1884
 10
306.395
 20
175.500
 30
0.000000
  70
    32
  0
VERTEX
  8
0
  5
1885
 10
306.353
 20
175.478
 30
0.000000
  70
    32
  0
VERTEX
  8
0
  5
1886
 10
306.312
 20
175.457
 30
0.000000
  70
    32
  0
VERTEX
  8
0
  5
1887
 10
306.271
 20
175.435
 30
0.000000
  70
    32
  0
VERTEX
  8
0
  5
1888
 10
306.231
 20
175.413
 30
0.000000
  70
    32
  0
VERTEX
  8
0
  5
1889
 10
306.191
 20
175.391
 30
0.000000
  70
    32
  0
VERTEX
  8
0
  5
188A
 10
306.151
 20
175.369
 30
0.000000
  70
    32
  0
VERTEX
  8
0
  5
188B
 10
306.112
 20
175.347
 30
0.000000
  70
    32
  0
VERTEX
  8
0
  5
188C
 10
306.073
 20
175.325
 30
0.000000
  70
    32
  0
VERTEX
  8
0
  5
188D
 10
306.035
 20
175.303
 30
0.000000
  70
    32
  0
VERTEX
  8
0
  5
188E
 10
305.997
 20
175.281
 30
0.000000
  70
    32
  0
VERTEX
  8
0
  5
188F
 10
305.959
 20
175.258
 30
0.000000
  70
    32
  0
VERTEX
  8
0
  5
1890
 10
305.922
 20
175.236
 30
0.000000
  70
    32
  0
VERTEX
  8
0
  5
1891
 10
305.885
 20
175.213
 30
0.000000
  70
    32
  0
VERTEX
  8
0
  5
1892
 10
305.848
 20
175.191
 30
0.000000
  70
    32
  0
VERTEX
  8
0
  5
1893
 10
305.812
 20
175.168
 30
0.000000
  70
    32
  0
VERTEX
  8
0
  5
1894
 10
305.776
 20
175.146
 30
0.000000
  70
    32
  0
VERTEX
  8
0
  5
1895
 10
305.741
 20
175.123
 30
0.000000
  70
    32
  0
VERTEX
  8
0
  5
1896
 10
305.706
 20
175.100
 30
0.000000
  70
    32
  0
VERTEX
  8
0
  5
1897
 10
305.672
 20
175.077
 30
0.000000
  70
    32
  0
VERTEX
  8
0
  5
1898
 10
305.638
 20
175.054
 30
0.000000
  70
    32
  0
VERTEX
  8
0
  5
1899
 10
305.604
 20
175.031
 30
0.000000
  70
    32
  0
VERTEX
  8
0
  5
189A
 10
305.571
 20
175.008
 30
0.000000
  70
    32
  0
VERTEX
  8
0
  5
189B
 10
305.538
 20
174.985
 30
0.000000
  70
    32
  0
VERTEX
  8
0
  5
189C
 10
305.505
 20
174.962
 30
0.000000
  70
    32
  0
VERTEX
  8
0
  5
189D
 10
305.473
 20
174.939
 30
0.000000
  70
    32
  0
VERTEX
  8
0
  5
189E
 10
305.442
 20
174.915
 30
0.000000
  70
    32
  0
VERTEX
  8
0
  5
189F
 10
305.410
 20
174.892
 30
0.000000
  70
    32
  0
VERTEX
  8
0
  5
18A0
 10
305.380
 20
174.869
 30
0.000000
  70
    32
  0
VERTEX
  8
0
  5
18A1
 10
305.349
 20
174.845
 30
0.000000
  70
    32
  0
VERTEX
  8
0
  5
18A2
 10
305.319
 20
174.822
 30
0.000000
  70
    32
  0
VERTEX
  8
0
  5
18A3
 10
305.290
 20
174.798
 30
0.000000
  70
    32
  0
VERTEX
  8
0
  5
18A4
 10
305.260
 20
174.774
 30
0.000000
  70
    32
  0
VERTEX
  8
0
  5
18A5
 10
305.232
 20
174.751
 30
0.000000
  70
    32
  0
VERTEX
  8
0
  5
18A6
 10
305.203
 20
174.727
 30
0.000000
  70
    32
  0
VERTEX
  8
0
  5
18A7
 10
305.175
 20
174.703
 30
0.000000
  70
    32
  0
VERTEX
  8
0
  5
18A8
 10
305.148
 20
174.679
 30
0.000000
  70
    32
  0
VERTEX
  8
0
  5
18A9
 10
305.121
 20
174.656
 30
0.000000
  70
    32
  0
VERTEX
  8
0
  5
18AA
 10
305.094
 20
174.632
 30
0.000000
  70
    32
  0
VERTEX
  8
0
  5
18AB
 10
305.068
 20
174.608
 30
0.000000
  70
    32
  0
VERTEX
  8
0
  5
18AC
 10
305.042
 20
174.584
 30
0.000000
  70
    32
  0
VERTEX
  8
0
  5
18AD
 10
305.017
 20
174.559
 30
0.000000
  70
    32
  0
VERTEX
  8
0
  5
18AE
 10
304.992
 20
174.535
 30
0.000000
  70
    32
  0
VERTEX
  8
0
  5
18AF
 10
304.967
 20
174.511
 30
0.000000
  70
    32
  0
VERTEX
  8
0
  5
18B0
 10
304.943
 20
174.487
 30
0.000000
  70
    32
  0
VERTEX
  8
0
  5
18B1
 10
304.920
 20
174.463
 30
0.000000
  70
    32
  0
VERTEX
  8
0
  5
18B2
 10
304.896
 20
174.438
 30
0.000000
  70
    32
  0
VERTEX
  8
0
  5
18B3
 10
304.874
 20
174.414
 30
0.000000
  70
    32
  0
VERTEX
  8
0
  5
18B4
 10
304.851
 20
174.390
 30
0.000000
  70
    32
  0
VERTEX
  8
0
  5
18B5
 10
304.829
 20
174.365
 30
0.000000
  70
    32
  0
VERTEX
  8
0
  5
18B6
 10
304.808
 20
174.341
 30
0.000000
  70
    32
  0
VERTEX
  8
0
  5
18B7
 10
304.787
 20
174.316
 30
0.000000
  70
    32
  0
VERTEX
  8
0
  5
18B8
 10
304.766
 20
174.292
 30
0.000000
  70
    32
  0
VERTEX
  8
0
  5
18B9
 10
304.746
 20
174.267
 30
0.000000
  70
    32
  0
VERTEX
  8
0
  5
18BA
 10
304.726
 20
174.242
 30
0.000000
  70
    32
  0
VERTEX
  8
0
  5
18BB
 10
304.707
 20
174.218
 30
0.000000
  70
    32
  0
VERTEX
  8
0
  5
18BC
 10
304.688
 20
174.193
 30
0.000000
  70
    32
  0
VERTEX
  8
0
  5
18BD
 10
304.669
 20
174.168
 30
0.000000
  70
    32
  0
VERTEX
  8
0
  5
18BE
 10
304.651
 20
174.143
 30
0.000000
  70
    32
  0
VERTEX
  8
0
  5
18BF
 10
304.634
 20
174.119
 30
0.000000
  70
    32
  0
VERTEX
  8
0
  5
18C0
 10
304.617
 20
174.094
 30
0.000000
  70
    32
  0
VERTEX
  8
0
  5
18C1
 10
304.600
 20
174.069
 30
0.000000
  70
    32
  0
VERTEX
  8
0
  5
18C2
 10
304.584
 20
174.044
 30
0.000000
  70
    32
  0
VERTEX
  8
0
  5
18C3
 10
304.568
 20
174.019
 30
0.000000
  70
    32
  0
VERTEX
  8
0
  5
18C4
 10
304.552
 20
173.994
 30
0.000000
  70
    32
  0
VERTEX
  8
0
  5
18C5
 10
304.537
 20
173.969
 30
0.000000
  70
    32
  0
VERTEX
  8
0
  5
18C6
 10
304.523
 20
173.944
 30
0.000000
  70
    32
  0
VERTEX
  8
0
  5
18C7
 10
304.509
 20
173.919
 30
0.000000
  70
    32
  0
VERTEX
  8
0
  5
18C8
 10
304.495
 20
173.894
 30
0.000000
  70
    32
  0
VERTEX
  8
0
  5
18C9
 10
304.482
 20
173.869
 30
0.000000
  70
    32
  0
VERTEX
  8
0
  5
18CA
 10
304.469
 20
173.844
 30
0.000000
  70
    32
  0
VERTEX
  8
0
  5
18CB
 10
304.457
 20
173.819
 30
0.000000
  70
    32
  0
VERTEX
  8
0
  5
18CC
 10
304.445
 20
173.794
 30
0.000000
  70
    32
  0
VERTEX
  8
0
  5
18CD
 10
304.434
 20
173.768
 30
0.000000
  70
    32
  0
VERTEX
  8
0
  5
18CE
 10
304.423
 20
173.743
 30
0.000000
  70
    32
  0
VERTEX
  8
0
  5
18CF
 10
304.412
 20
173.718
 30
0.000000
  70
    32
  0
VERTEX
  8
0
  5
18D0
 10
304.402
 20
173.693
 30
0.000000
  70
    32
  0
VERTEX
  8
0
  5
18D1
 10
304.392
 20
173.667
 30
0.000000
  70
    32
  0
VERTEX
  8
0
  5
18D2
 10
304.383
 20
173.642
 30
0.000000
  70
    32
  0
VERTEX
  8
0
  5
18D3
 10
304.374
 20
173.617
 30
0.000000
  70
    32
  0
VERTEX
  8
0
  5
18D4
 10
304.366
 20
173.592
 30
0.000000
  70
    32
  0
VERTEX
  8
0
  5
18D5
 10
304.358
 20
173.566
 30
0.000000
  70
    32
  0
VERTEX
  8
0
  5
18D6
 10
304.351
 20
173.541
 30
0.000000
  70
    32
  0
VERTEX
  8
0
  5
18D7
 10
304.344
 20
173.516
 30
0.000000
  70
    32
  0
VERTEX
  8
0
  5
18D8
 10
304.337
 20
173.490
 30
0.000000
  70
    32
  0
VERTEX
  8
0
  5
18D9
 10
304.331
 20
173.465
 30
0.000000
  70
    32
  0
VERTEX
  8
0
  5
18DA
 10
304.326
 20
173.439
 30
0.000000
  70
    32
  0
VERTEX
  8
0
  5
18DB
 10
304.321
 20
173.414
 30
0.000000
  70
    32
  0
VERTEX
  8
0
  5
18DC
 10
304.316
 20
173.389
 30
0.000000
  70
    32
  0
VERTEX
  8
0
  5
18DD
 10
304.312
 20
173.363
 30
0.000000
  70
    32
  0
VERTEX
  8
0
  5
18DE
 10
304.308
 20
173.338
 30
0.000000
  70
    32
  0
VERTEX
  8
0
  5
18DF
 10
304.304
 20
173.312
 30
0.000000
  70
    32
  0
VERTEX
  8
0
  5
18E0
 10
304.302
 20
173.287
 30
0.000000
  70
    32
  0
VERTEX
  8
0
  5
18E1
 10
304.299
 20
173.262
 30
0.000000
  70
    32
  0
VERTEX
  8
0
  5
18E2
 10
304.297
 20
173.236
 30
0.000000
  70
    32
  0
VERTEX
  8
0
  5
18E3
 10
304.295
 20
173.211
 30
0.000000
  70
    32
  0
VERTEX
  8
0
  5
18E4
 10
304.294
 20
173.185
 30
0.000000
  70
    32
  0
VERTEX
  8
0
  5
18E5
 10
304.294
 20
173.160
 30
0.000000
  70
    32
  0
VERTEX
  8
0
  5
18E6
 10
304.293
 20
173.134
 30
0.000000
  70
    32
  0
SEQEND
  8
0
  5
18E7
  0
ARC
  5
1287
  8
0
 10
338.19659153153441
 20
165.90731150589619
 30
0.0
 40
13.5
 50
154.9957370749591
 51
212.6035820132258
  0
ARC
  5
1288
  8
0
 10
324.14930824833749
 20
172.45893972807261
 30
0.0
 40
2.0
 50
334.99573707495921
 51
0.0
  0
LINE
  5
1289
  8
0
 10
325.24676136253561
 20
180.28365104974941
 30
0.0
 11
326.14916142692141
 21
172.4831732607901
 31
0.0
  0
LINE
  5
128A
  8
0
 10
325.15531370101951
 20
180.60319489944911
 30
0.0
 11
325.24676136253561
 21
180.28365104974949
 31
0.0
  0
LINE
  5
128B
  8
0
 10
324.5304948818785
 20
182.69041685866719
 30
0.0
 11
324.70106379984122
 21
180.60319489944911
 31
0.0
  0
ARC
  5
128C
  8
0
 10
332.15362152452389
 20
176.6275338370543
 30
0.0
 40
20.0
 50
117.22668439682791
 51
131.85703956953191
  0
ARC
  5
128D
  8
0
 10
323.91840361874017
 20
192.63319489944911
 30
0.0
 40
2.0
 50
90.0
 51
117.22668439682791
  0
ARC
  5
128E
  8
0
 10
392.64226986042007
 20
242.2192356254516
 30
0.0
 40
90.0
 50
214.79142625443711
 51
219.8857855585226
  0
ARC
  5
128F
  8
0
 10
319.1417730199974
 20
191.15136936680511
 30
0.0
 40
0.5
 50
131.85703956953191
 51
214.79142625443771
  0
ARC
  5
1290
  8
0
 10
317.02276286710452
 20
179.92745468115979
 30
0.0
 40
8.0
 50
20.2044001903514
 51
34.911162194464822
  0
ARC
  5
1291
  8
0
 10
303.9332311812783
 20
176.6275338370543
 30
0.0
 40
20.0
 50
48.14296043046803
 51
62.773315603172058
  0
ARC
  5
1292
  8
0
 10
312.16844908706202
 20
192.63319489944911
 30
0.0
 40
2.0
 50
62.773315603172058
 51
90.0
  0
ARC
  5
1293
  8
0
 10
316.94507968580479
 20
191.15136936680511
 30
0.0
 40
0.5
 50
325.20857374556232
 51
48.14296043046803
  0
ARC
  5
1294
  8
0
 10
243.4445828453822
 20
242.2192356254516
 30
0.0
 40
90.0
 50
320.11421444147737
 51
325.208573745563
  0
ARC
  5
1295
  8
0
 10
319.06408983869778
 20
179.92745468115979
 30
0.0
 40
8.0
 50
145.08883780553521
 51
159.79559980964859
  0
LINE
  5
1296
  8
0
 10
311.5563578239238
 20
182.69041685866719
 30
0.0
 11
311.38578890596108
 21
180.60319489944911
 31
0.0
  0
LINE
  5
1297
  8
0
 10
310.93153900478279
 20
180.60319489944911
 30
0.0
 11
310.84009134326669
 21
180.28365104974949
 31
0.0
  0
LINE
  5
1298
  8
0
 10
310.84009134326669
 20
180.28365104974941
 30
0.0
 11
309.93769127888078
 21
172.4831732607901
 31
0.0
  0
LINE
  5
1299
  8
0
 10
311.54342635290112
 20
194.3883802340207
 30
0.0
 11
311.54342635290112
 21
182.55321776733311
 31
0.0
  0
LINE
  5
12D4
  8
0
 10
166.0780191877021
 20
183.63319489944911
 30
0.0
 11
166.0780191877021
 21
175.5884989776315
 31
0.0
  0
LINE
  5
12D6
  8
0
 10
151.87801918770211
 20
183.63319489944911
 30
0.0
 11
151.87801918770219
 21
169.7965626193203
 31
0.0
  0
LINE
  5
12D7
  8
0
 10
152.87801918770211
 20
184.63319489944911
 30
0.0
 11
158.22801918770219
 21
184.63319489944911
 31
0.0
  0
LINE
  5
12D8
  8
0
 10
152.87801918770211
 20
184.63319489944911
 30
0.0
 11
151.87801918770211
 21
183.63319489944911
 31
0.0
  0
LINE
  5
12D9
  8
0
 10
165.0780191877021
 20
184.63319489944911
 30
0.0
 11
166.0780191877021
 21
183.63319489944911
 31
0.0
  0
LINE
  5
12DA
  8
0
 10
166.0780191877021
 20
183.63319489944911
 30
0.0
 11
159.72801918770219
 21
183.63319489944911
 31
0.0
  0
LINE
  5
12DB
  8
0
 10
159.72801918770219
 20
184.63319489944911
 30
0.0
 11
159.72801918770219
 21
183.13319489944911
 31
0.0
  0
LINE
  5
12DC
  8
0
 10
158.22801918770219
 20
184.63319489944911
 30
0.0
 11
158.22801918770219
 21
183.13319489944911
 31
0.0
  0
LINE
  5
12DD
  8
0
 10
158.22801918770219
 20
183.13319489944911
 30
0.0
 11
159.72801918770219
 21
183.13319489944911
 31
0.0
  0
LINE
  5
12DE
  8
0
 10
159.72801918770219
 20
184.63319489944911
 30
0.0
 11
165.0780191877021
 21
184.63319489944911
 31
0.0
  0
LINE
  5
12DF
  8
0
 10
158.22801918770219
 20
183.63319489944911
 30
0.0
 11
151.87801918770211
 21
183.63319489944899
 31
0.0
  0
LINE
  5
12E0
  8
0
 10
151.87801918770219
 20
177.63319489944911
 30
0.0
 11
166.0780191877021
 21
177.63319489944911
 31
0.0
  0
LINE
  5
12E3
  8
0
 10
159.72801918770219
 20
231.32291870088571
 30
0.0
 11
159.72801918770219
 21
245.4434710980124
 31
0.0
  0
LINE
  5
12E4
  8
0
 10
158.2280191877021
 20
231.32291870088571
 30
0.0
 11
158.2280191877021
 21
245.4434710980124
 31
0.0
  0
ARC
  5
12E5
  8
0
 10
158.9780191877021
 20
238.38319489944911
 30
0.0
 40
6.099999999999965
 50
97.062433553756762
 51
262.9375664462433
  0
ARC
  5
12E6
  8
0
 10
158.9780191877021
 20
238.38319489944911
 30
0.0
 40
6.099999999999965
 50
277.06243355375682
 51
82.937566446243224
  0
INSERT
  5
12F4
  8
3
  6
CONTINUOUS
  2
*X0
 10
0.0
 20
0.0
 30
0.0
1001
ACAD
1000
HATCH
1002
{
1070
    19
1000
ANSI31
1040
15.0
1040
0.0
1000
R14_HATCH_DATA
1000
12F4
1011
1.0
1021
0.0
1031
3.8241941605317689E+184
1021
0.0
1031
0.0
1011
0.0
1021
0.0
1031
3.8241941605317689E+184
1021
1.0
1031
0.0
1011
0.0
1021
0.0
1031
3.8241941605317689E+184
1021
0.0
1031
1.0
1040
0.0
1010
0.0
1020
0.0
1030
1.0
1000
ANSI31
1070
     0
1070
     0
1071
        1
1071
        1
1071
        8
1070
     1
1040
151.87801918770219
1040
183.63319489944911
1040
151.87801918770219
1040
177.63319489944911
1070
     1
1040
151.87801918770219
1040
177.63319489944911
1040
166.0780191877021
1040
177.63319489944911
1070
     1
1040
166.0780191877021
1040
177.63319489944911
1040
166.0780191877021
1040
183.63319489944911
1070
     1
1040
166.0780191877021
1040
183.63319489944911
1040
159.72801918770219
1040
183.63319489944911
1070
     1
1040
159.72801918770219
1040
183.63319489944911
1040
159.72801918770219
1040
183.13319489944911
1070
     1
1040
159.7280191877023
1040
183.13319489944911
1040
158.22801918770219
1040
183.13319489944911
1070
     1
1040
158.22801918770219
1040
183.13319489944911
1040
158.22801918770219
1040
183.63319489944899
1070
     1
1040
158.22801918770219
1040
183.63319489944911
1040
151.87801918770211
1040
183.63319489944899
1071
        0
1070
     0
1070
     1
1040
0.0
1040
15.0
1070
     0
1070
     1
1040
0.7853981633974483
1040
26.429021747036629
1040
2.2641514719907709
1040
-1.325825214724776
1040
1.325825214724776
1070
     0
1071
        1
1040
26.429021747036629
1040
2.2641514719907709
1040
0.0
1002
}
  0
INSERT
  5
12F5
  8
3
  6
CONTINUOUS
  2
*X1
 10
0.0
 20
0.0
 30
0.0
1001
ACAD
1000
HATCH
1002
{
1070
    19
1000
ANSI31
1040
15.0
1040
0.0
1000
R14_HATCH_DATA
1000
12F5
1011
1.0
1021
0.0
1031
3.8241941605317689E+184
1021
0.0
1031
0.0
1011
0.0
1021
0.0
1031
3.8241941605317689E+184
1021
1.0
1031
0.0
1011
0.0
1021
0.0
1031
3.8241941605317689E+184
1021
0.0
1031
1.0
1040
0.0
1010
0.0
1020
0.0
1030
1.0
1000
ANSI31
1070
     0
1070
     0
1071
        1
1071
        1
1071
        8
1070
     1
1040
166.07801918770221
1040
183.63319489944911
1040
166.07801918770221
1040
177.63319489944911
1070
     1
1040
166.0780191877021
1040
177.63319489944911
1040
151.87801918770219
1040
177.63319489944911
1070
     1
1040
151.87801918770219
1040
177.63319489944911
1040
151.87801918770219
1040
183.63319489944911
1070
     1
1040
151.87801918770219
1040
183.63319489944911
1040
158.22801918770219
1040
183.63319489944911
1070
     1
1040
158.22801918770219
1040
183.63319489944911
1040
158.22801918770219
1040
183.13319489944911
1070
     1
1040
158.2280191877021
1040
183.13319489944911
1040
159.72801918770219
1040
183.13319489944911
1070
     1
1040
159.72801918770219
1040
183.13319489944911
1040
159.72801918770219
1040
183.63319489944899
1070
     1
1040
159.72801918770219
1040
183.63319489944911
1040
166.07801918770221
1040
183.63319489944899
1071
        0
1070
     0
1070
     1
1040
0.0
1040
15.0
1070
     0
1070
     1
1040
2.3561944901923439
1040
291.52701662836779
1040
2.2641514719907709
1040
1.325825214724776
1040
1.325825214724776
1070
     0
1071
        1
1040
291.52701662836779
1040
2.2641514719907709
1040
0.0
1002
}
  0
LINE
  5
12F6
  8
0
 10
79.74251367758923
 20
183.63319489944911
 30
0.0
 11
65.542513677589284
 21
183.63319489944899
 31
0.0
  0
LINE
  5
12FC
  8
0
 10
78.742513677589272
 20
184.63319489944911
 30
0.0
 11
79.742513677589272
 21
183.63319489944911
 31
0.0
  0
LINE
  5
12FD
  8
0
 10
66.542513677589284
 20
184.63319489944911
 30
0.0
 11
65.542513677589284
 21
183.63319489944911
 31
0.0
  0
LINE
  5
12FE
  8
0
 10
66.542513677589284
 20
184.63319489944911
 30
0.0
 11
78.742513677589258
 21
184.63319489944911
 31
0.0
  0
POLYLINE
  5
12FF
  8
0
 10
65.542513677589326
 20
175.1248633299532
 30
0.0
 66
     1
 70
     8
  0
VERTEX
  8
0
  5
18E8
 10
65.5425
 20
175.125
 30
0.000000
  70
    32
  0
VERTEX
  8
0
  5
18E9
 10
65.4615
 20
175.081
 30
0.000000
  70
    32
  0
VERTEX
  8
0
  5
18EA
 10
65.3822
 20
175.037
 30
0.000000
  70
    32
  0
VERTEX
  8
0
  5
18EB
 10
65.3048
 20
174.993
 30
0.000000
  70
    32
  0
VERTEX
  8
0
  5
18EC
 10
65.2292
 20
174.948
 30
0.000000
  70
    32
  0
VERTEX
  8
0
  5
18ED
 10
65.1555
 20
174.902
 30
0.000000
  70
    32
  0
VERTEX
  8
0
  5
18EE
 10
65.0837
 20
174.856
 30
0.000000
  70
    32
  0
VERTEX
  8
0
  5
18EF
 10
65.0138
 20
174.810
 30
0.000000
  70
    32
  0
VERTEX
  8
0
  5
18F0
 10
64.9458
 20
174.763
 30
0.000000
  70
    32
  0
VERTEX
  8
0
  5
18F1
 10
64.8797
 20
174.716
 30
0.000000
  70
    32
  0
VERTEX
  8
0
  5
18F2
 10
64.8156
 20
174.668
 30
0.000000
  70
    32
  0
VERTEX
  8
0
  5
18F3
 10
64.7534
 20
174.620
 30
0.000000
  70
    32
  0
VERTEX
  8
0
  5
18F4
 10
64.6932
 20
174.572
 30
0.000000
  70
    32
  0
VERTEX
  8
0
  5
18F5
 10
64.6351
 20
174.523
 30
0.000000
  70
    32
  0
VERTEX
  8
0
  5
18F6
 10
64.5789
 20
174.474
 30
0.000000
  70
    32
  0
VERTEX
  8
0
  5
18F7
 10
64.5248
 20
174.425
 30
0.000000
  70
    32
  0
VERTEX
  8
0
  5
18F8
 10
64.4727
 20
174.375
 30
0.000000
  70
    32
  0
VERTEX
  8
0
  5
18F9
 10
64.4226
 20
174.325
 30
0.000000
  70
    32
  0
VERTEX
  8
0
  5
18FA
 10
64.3747
 20
174.274
 30
0.000000
  70
    32
  0
VERTEX
  8
0
  5
18FB
 10
64.3288
 20
174.224
 30
0.000000
  70
    32
  0
VERTEX
  8
0
  5
18FC
 10
64.2850
 20
174.173
 30
0.000000
  70
    32
  0
VERTEX
  8
0
  5
18FD
 10
64.2433
 20
174.122
 30
0.000000
  70
    32
  0
VERTEX
  8
0
  5
18FE
 10
64.2037
 20
174.070
 30
0.000000
  70
    32
  0
VERTEX
  8
0
  5
18FF
 10
64.1662
 20
174.019
 30
0.000000
  70
    32
  0
VERTEX
  8
0
  5
1900
 10
64.1309
 20
173.967
 30
0.000000
  70
    32
  0
VERTEX
  8
0
  5
1901
 10
64.0977
 20
173.915
 30
0.000000
  70
    32
  0
VERTEX
  8
0
  5
1902
 10
64.0666
 20
173.862
 30
0.000000
  70
    32
  0
VERTEX
  8
0
  5
1903
 10
64.0377
 20
173.810
 30
0.000000
  70
    32
  0
VERTEX
  8
0
  5
1904
 10
64.0110
 20
173.757
 30
0.000000
  70
    32
  0
VERTEX
  8
0
  5
1905
 10
63.9864
 20
173.705
 30
0.000000
  70
    32
  0
VERTEX
  8
0
  5
1906
 10
63.9640
 20
173.652
 30
0.000000
  70
    32
  0
VERTEX
  8
0
  5
1907
 10
63.9438
 20
173.599
 30
0.000000
  70
    32
  0
VERTEX
  8
0
  5
1908
 10
63.9258
 20
173.545
 30
0.000000
  70
    32
  0
VERTEX
  8
0
  5
1909
 10
63.9100
 20
173.492
 30
0.000000
  70
    32
  0
VERTEX
  8
0
  5
190A
 10
63.8964
 20
173.439
 30
0.000000
  70
    32
  0
VERTEX
  8
0
  5
190B
 10
63.8849
 20
173.385
 30
0.000000
  70
    32
  0
VERTEX
  8
0
  5
190C
 10
63.8757
 20
173.332
 30
0.000000
  70
    32
  0
VERTEX
  8
0
  5
190D
 10
63.8687
 20
173.278
 30
0.000000
  70
    32
  0
VERTEX
  8
0
  5
190E
 10
63.8638
 20
173.225
 30
0.000000
  70
    32
  0
VERTEX
  8
0
  5
190F
 10
63.8612
 20
173.171
 30
0.000000
  70
    32
  0
VERTEX
  8
0
  5
1910
 10
63.8608
 20
173.117
 30
0.000000
  70
    32
  0
VERTEX
  8
0
  5
1911
 10
63.8626
 20
173.064
 30
0.000000
  70
    32
  0
VERTEX
  8
0
  5
1912
 10
63.8666
 20
173.010
 30
0.000000
  70
    32
  0
VERTEX
  8
0
  5
1913
 10
63.8729
 20
172.957
 30
0.000000
  70
    32
  0
VERTEX
  8
0
  5
1914
 10
63.8813
 20
172.903
 30
0.000000
  70
    32
  0
VERTEX
  8
0
  5
1915
 10
63.8919
 20
172.850
 30
0.000000
  70
    32
  0
VERTEX
  8
0
  5
1916
 10
63.9047
 20
172.796
 30
0.000000
  70
    32
  0
VERTEX
  8
0
  5
1917
 10
63.9197
 20
172.743
 30
0.000000
  70
    32
  0
VERTEX
  8
0
  5
1918
 10
63.9369
 20
172.690
 30
0.000000
  70
    32
  0
VERTEX
  8
0
  5
1919
 10
63.9563
 20
172.636
 30
0.000000
  70
    32
  0
VERTEX
  8
0
  5
191A
 10
63.9779
 20
172.583
 30
0.000000
  70
    32
  0
VERTEX
  8
0
  5
191B
 10
64.0017
 20
172.531
 30
0.000000
  70
    32
  0
VERTEX
  8
0
  5
191C
 10
64.0276
 20
172.478
 30
0.000000
  70
    32
  0
VERTEX
  8
0
  5
191D
 10
64.0557
 20
172.425
 30
0.000000
  70
    32
  0
VERTEX
  8
0
  5
191E
 10
64.0860
 20
172.373
 30
0.000000
  70
    32
  0
VERTEX
  8
0
  5
191F
 10
64.1184
 20
172.321
 30
0.000000
  70
    32
  0
VERTEX
  8
0
  5
1920
 10
64.1530
 20
172.269
 30
0.000000
  70
    32
  0
VERTEX
  8
0
  5
1921
 10
64.1896
 20
172.217
 30
0.000000
  70
    32
  0
VERTEX
  8
0
  5
1922
 10
64.2285
 20
172.166
 30
0.000000
  70
    32
  0
VERTEX
  8
0
  5
1923
 10
64.2694
 20
172.114
 30
0.000000
  70
    32
  0
VERTEX
  8
0
  5
1924
 10
64.3124
 20
172.063
 30
0.000000
  70
    32
  0
VERTEX
  8
0
  5
1925
 10
64.3575
 20
172.013
 30
0.000000
  70
    32
  0
VERTEX
  8
0
  5
1926
 10
64.4048
 20
171.962
 30
0.000000
  70
    32
  0
VERTEX
  8
0
  5
1927
 10
64.4540
 20
171.912
 30
0.000000
  70
    32
  0
VERTEX
  8
0
  5
1928
 10
64.5054
 20
171.862
 30
0.000000
  70
    32
  0
VERTEX
  8
0
  5
1929
 10
64.5588
 20
171.813
 30
0.000000
  70
    32
  0
VERTEX
  8
0
  5
192A
 10
64.6142
 20
171.764
 30
0.000000
  70
    32
  0
VERTEX
  8
0
  5
192B
 10
64.6716
 20
171.715
 30
0.000000
  70
    32
  0
VERTEX
  8
0
  5
192C
 10
64.7311
 20
171.666
 30
0.000000
  70
    32
  0
VERTEX
  8
0
  5
192D
 10
64.7925
 20
171.618
 30
0.000000
  70
    32
  0
VERTEX
  8
0
  5
192E
 10
64.8559
 20
171.570
 30
0.000000
  70
    32
  0
VERTEX
  8
0
  5
192F
 10
64.9212
 20
171.523
 30
0.000000
  70
    32
  0
VERTEX
  8
0
  5
1930
 10
64.9885
 20
171.476
 30
0.000000
  70
    32
  0
VERTEX
  8
0
  5
1931
 10
65.0578
 20
171.429
 30
0.000000
  70
    32
  0
VERTEX
  8
0
  5
1932
 10
65.1289
 20
171.383
 30
0.000000
  70
    32
  0
VERTEX
  8
0
  5
1933
 10
65.2019
 20
171.338
 30
0.000000
  70
    32
  0
VERTEX
  8
0
  5
1934
 10
65.2768
 20
171.293
 30
0.000000
  70
    32
  0
VERTEX
  8
0
  5
1935
 10
65.3536
 20
171.248
 30
0.000000
  70
    32
  0
VERTEX
  8
0
  5
1936
 10
65.4321
 20
171.203
 30
0.000000
  70
    32
  0
VERTEX
  8
0
  5
1937
 10
65.5125
 20
171.160
 30
0.000000
  70
    32
  0
VERTEX
  8
0
  5
1938
 10
65.5947
 20
171.116
 30
0.000000
  70
    32
  0
VERTEX
  8
0
  5
1939
 10
65.6787
 20
171.074
 30
0.000000
  70
    32
  0
VERTEX
  8
0
  5
193A
 10
65.7644
 20
171.031
 30
0.000000
  70
    32
  0
VERTEX
  8
0
  5
193B
 10
65.8518
 20
170.990
 30
0.000000
  70
    32
  0
VERTEX
  8
0
  5
193C
 10
65.9409
 20
170.948
 30
0.000000
  70
    32
  0
VERTEX
  8
0
  5
193D
 10
66.0318
 20
170.908
 30
0.000000
  70
    32
  0
VERTEX
  8
0
  5
193E
 10
66.1242
 20
170.868
 30
0.000000
  70
    32
  0
VERTEX
  8
0
  5
193F
 10
66.2184
 20
170.828
 30
0.000000
  70
    32
  0
VERTEX
  8
0
  5
1940
 10
66.3141
 20
170.789
 30
0.000000
  70
    32
  0
VERTEX
  8
0
  5
1941
 10
66.4114
 20
170.751
 30
0.000000
  70
    32
  0
VERTEX
  8
0
  5
1942
 10
66.5103
 20
170.713
 30
0.000000
  70
    32
  0
VERTEX
  8
0
  5
1943
 10
66.6108
 20
170.676
 30
0.000000
  70
    32
  0
VERTEX
  8
0
  5
1944
 10
66.7127
 20
170.639
 30
0.000000
  70
    32
  0
VERTEX
  8
0
  5
1945
 10
66.8162
 20
170.604
 30
0.000000
  70
    32
  0
VERTEX
  8
0
  5
1946
 10
66.9211
 20
170.568
 30
0.000000
  70
    32
  0
VERTEX
  8
0
  5
1947
 10
67.0274
 20
170.534
 30
0.000000
  70
    32
  0
VERTEX
  8
0
  5
1948
 10
67.1352
 20
170.500
 30
0.000000
  70
    32
  0
VERTEX
  8
0
  5
1949
 10
67.2443
 20
170.466
 30
0.000000
  70
    32
  0
VERTEX
  8
0
  5
194A
 10
67.3548
 20
170.434
 30
0.000000
  70
    32
  0
VERTEX
  8
0
  5
194B
 10
67.4667
 20
170.402
 30
0.000000
  70
    32
  0
VERTEX
  8
0
  5
194C
 10
67.5798
 20
170.371
 30
0.000000
  70
    32
  0
VERTEX
  8
0
  5
194D
 10
67.6942
 20
170.340
 30
0.000000
  70
    32
  0
VERTEX
  8
0
  5
194E
 10
67.8099
 20
170.310
 30
0.000000
  70
    32
  0
VERTEX
  8
0
  5
194F
 10
67.9267
 20
170.281
 30
0.000000
  70
    32
  0
VERTEX
  8
0
  5
1950
 10
68.0448
 20
170.253
 30
0.000000
  70
    32
  0
VERTEX
  8
0
  5
1951
 10
68.1640
 20
170.225
 30
0.000000
  70
    32
  0
VERTEX
  8
0
  5
1952
 10
68.2843
 20
170.198
 30
0.000000
  70
    32
  0
VERTEX
  8
0
  5
1953
 10
68.4057
 20
170.172
 30
0.000000
  70
    32
  0
VERTEX
  8
0
  5
1954
 10
68.5282
 20
170.146
 30
0.000000
  70
    32
  0
VERTEX
  8
0
  5
1955
 10
68.6518
 20
170.121
 30
0.000000
  70
    32
  0
VERTEX
  8
0
  5
1956
 10
68.7763
 20
170.097
 30
0.000000
  70
    32
  0
VERTEX
  8
0
  5
1957
 10
68.9018
 20
170.074
 30
0.000000
  70
    32
  0
VERTEX
  8
0
  5
1958
 10
69.0282
 20
170.052
 30
0.000000
  70
    32
  0
VERTEX
  8
0
  5
1959
 10
69.1556
 20
170.030
 30
0.000000
  70
    32
  0
VERTEX
  8
0
  5
195A
 10
69.2838
 20
170.009
 30
0.000000
  70
    32
  0
VERTEX
  8
0
  5
195B
 10
69.4129
 20
169.989
 30
0.000000
  70
    32
  0
VERTEX
  8
0
  5
195C
 10
69.5428
 20
169.970
 30
0.000000
  70
    32
  0
VERTEX
  8
0
  5
195D
 10
69.6734
 20
169.951
 30
0.000000
  70
    32
  0
VERTEX
  8
0
  5
195E
 10
69.8049
 20
169.933
 30
0.000000
  70
    32
  0
VERTEX
  8
0
  5
195F
 10
69.9370
 20
169.916
 30
0.000000
  70
    32
  0
VERTEX
  8
0
  5
1960
 10
70.0698
 20
169.900
 30
0.000000
  70
    32
  0
VERTEX
  8
0
  5
1961
 10
70.2032
 20
169.885
 30
0.000000
  70
    32
  0
VERTEX
  8
0
  5
1962
 10
70.3373
 20
169.871
 30
0.000000
  70
    32
  0
VERTEX
  8
0
  5
1963
 10
70.4719
 20
169.857
 30
0.000000
  70
    32
  0
VERTEX
  8
0
  5
1964
 10
70.6071
 20
169.844
 30
0.000000
  70
    32
  0
VERTEX
  8
0
  5
1965
 10
70.7428
 20
169.832
 30
0.000000
  70
    32
  0
VERTEX
  8
0
  5
1966
 10
70.8790
 20
169.821
 30
0.000000
  70
    32
  0
VERTEX
  8
0
  5
1967
 10
71.0156
 20
169.810
 30
0.000000
  70
    32
  0
VERTEX
  8
0
  5
1968
 10
71.1527
 20
169.801
 30
0.000000
  70
    32
  0
SEQEND
  8
0
  5
1969
  0
ARC
  5
1300
  8
0
 10
59.961863348540483
 20
182.8877096916824
 30
0.0
 40
6.0
 50
10.261650725260621
 51
38.672207242423767
  0
ARC
  5
1301
  8
0
 10
85.323164006638137
 20
182.8877096916824
 30
0.0
 40
6.0
 50
201.54828298103891
 51
207.67186019459629
  0
LINE
  5
1302
  8
0
 10
79.742513677589301
 20
178.0945070721977
 30
0.0
 11
65.542513677589284
 21
178.0945070721977
 31
0.0
  0
INSERT
  5
1313
  8
3
  6
CONTINUOUS
  2
*X2
 10
0.0
 20
0.0
 30
0.0
1001
ACAD
1000
HATCH
1002
{
1070
    19
1000
ANSI31
1040
15.0
1040
0.0
1000
R14_HATCH_DATA
1000
1313
1011
1.0
1021
0.0
1031
3.8241941605317689E+184
1021
0.0
1031
0.0
1011
0.0
1021
0.0
1031
3.8241941605317689E+184
1021
1.0
1031
0.0
1011
0.0
1021
0.0
1031
3.8241941605317689E+184
1021
0.0
1031
1.0
1040
0.0
1010
0.0
1020
0.0
1030
1.0
1000
ANSI31
1070
     0
1070
     0
1071
        1
1071
        1
1071
        4
1070
     1
1040
79.742513677589287
1040
178.0945070721977
1040
79.742513677589287
1040
183.63319489944911
1070
     1
1040
79.74251367758923
1040
183.63319489944911
1040
65.542513677589284
1040
183.63319489944899
1070
     1
1040
65.542513677589312
1040
183.63319489944899
1040
65.542513677589312
1040
178.09450707219781
1070
     1
1040
65.542513677589284
1040
178.0945070721977
1040
79.742513677589301
1040
178.0945070721977
1071
        0
1070
     0
1070
     1
1040
0.0
1040
15.0
1070
     0
1070
     1
1040
0.7853981633974483
1040
-35.327313037109718
1040
2.2641514719907709
1040
-1.325825214724776
1040
1.325825214724776
1070
     0
1071
        1
1040
-35.327313037109718
1040
2.2641514719907709
1040
0.0
1002
}
  0
INSERT
  5
1314
  8
3
  6
CONTINUOUS
  2
*X3
 10
0.0
 20
0.0
 30
0.0
1001
ACAD
1000
HATCH
1002
{
1070
    19
1000
ANSI31
1040
15.0
1040
0.0
1000
R14_HATCH_DATA
1000
1314
1011
1.0
1021
0.0
1031
3.8241941605317689E+184
1021
0.0
1031
0.0
1011
0.0
1021
0.0
1031
3.8241941605317689E+184
1021
1.0
1031
0.0
1011
0.0
1021
0.0
1031
3.8241941605317689E+184
1021
0.0
1031
1.0
1040
0.0
1010
0.0
1020
0.0
1030
1.0
1000
ANSI31
1070
     0
1070
     0
1071
        1
1071
        1
1071
        4
1070
     1
1040
65.542513677589213
1040
178.0945070721977
1040
65.542513677589213
1040
183.63319489944911
1070
     1
1040
65.54251367758927
1040
183.63319489944911
1040
79.742513677589216
1040
183.63319489944899
1070
     1
1040
79.742513677589173
1040
183.63319489944899
1040
79.742513677589173
1040
178.09450707219781
1070
     1
1040
79.742513677589187
1040
178.0945070721977
1040
65.542513677589199
1040
178.0945070721977
1071
        0
1070
     0
1070
     1
1040
0.0
1040
15.0
1070
     0
1070
     1
1040
2.3561944901923439
1040
180.6123403922881
1040
2.2641514719907709
1040
1.3258252147247751
1040
1.325825214724776
1070
     0
1071
        1
1040
180.6123403922881
1040
2.2641514719907709
1040
0.0
1002
}
  0
LINE
  5
13DB
  8
3
 10
67.589513677589196
 20
126.63319489944909
 30
0.0
 11
66.642513677589307
 21
128.27344701421691
 31
0.0
  0
LINE
  5
13DC
  8
3
 10
77.695513677589304
 20
126.63319489944909
 30
0.0
 11
78.642513677589307
 21
128.27344701421691
 31
0.0
  0
LINE
  5
13DD
  8
0
 10
66.642513677589193
 20
126.63319489944909
 30
0.0
 11
78.642513677589307
 21
126.63319489944909
 31
0.0
  0
LINE
  5
13DE
  8
0
 10
78.642513677589307
 20
108.63319489944909
 30
0.0
 11
66.642513677589307
 21
108.63319489944919
 31
0.0
  0
LINE
  5
13DF
  8
0
 10
68.642513677589307
 20
106.63319489944919
 30
0.0
 11
66.642513677589307
 21
108.63319489944919
 31
0.0
  0
LINE
  5
13E0
  8
0
 10
76.642513677589307
 20
106.63319489944909
 30
0.0
 11
78.642513677589307
 21
108.63319489944909
 31
0.0
  0
LINE
  5
13E1
  8
0
 10
78.642513677589307
 20
131.63319489944911
 30
0.0
 11
78.642513677589193
 21
108.63319489944899
 31
0.0
  0
LINE
  5
13E2
  8
3
 10
77.695513677589304
 20
126.63319489944909
 30
0.0
 11
77.695513677589304
 21
107.68619489944911
 31
0.0
  0
LINE
  5
13E3
  8
3
 10
67.589513677589196
 20
126.63319489944909
 30
0.0
 11
67.589513677589196
 21
107.68619489944921
 31
0.0
  0
LINE
  5
13E4
  8
0
 10
66.642513677589307
 20
131.63319489944911
 30
0.0
 11
66.642513677589193
 21
108.63319489944919
 31
0.0
  0
LINE
  5
13E5
  8
0
 10
76.642513677589307
 20
106.63319489944909
 30
0.0
 11
68.642513677589307
 21
106.63319489944919
 31
0.0
  0
LINE
  5
13E6
  8
3
 10
153.92501918770211
 20
126.63319489944909
 30
0.0
 11
152.97801918770219
 21
128.27344701421691
 31
0.0
  0
LINE
  5
13E7
  8
3
 10
164.03101918770221
 20
126.63319489944909
 30
0.0
 11
164.97801918770219
 21
128.27344701421691
 31
0.0
  0
LINE
  5
13E8
  8
0
 10
152.9780191877021
 20
126.63319489944909
 30
0.0
 11
164.97801918770219
 21
126.63319489944909
 31
0.0
  0
LINE
  5
13E9
  8
0
 10
164.97801918770219
 20
108.63319489944909
 30
0.0
 11
152.97801918770219
 21
108.63319489944919
 31
0.0
  0
LINE
  5
13EA
  8
0
 10
154.97801918770219
 20
106.63319489944919
 30
0.0
 11
152.97801918770219
 21
108.63319489944919
 31
0.0
  0
LINE
  5
13EB
  8
0
 10
162.97801918770219
 20
106.63319489944909
 30
0.0
 11
164.97801918770219
 21
108.63319489944909
 31
0.0
  0
LINE
  5
13EC
  8
0
 10
164.97801918770219
 20
131.63319489944911
 30
0.0
 11
164.9780191877021
 21
108.63319489944899
 31
0.0
  0
LINE
  5
13ED
  8
3
 10
164.03101918770221
 20
126.63319489944909
 30
0.0
 11
164.03101918770221
 21
107.68619489944911
 31
0.0
  0
LINE
  5
13EE
  8
3
 10
153.92501918770211
 20
126.63319489944909
 30
0.0
 11
153.92501918770211
 21
107.68619489944921
 31
0.0
  0
LINE
  5
13EF
  8
0
 10
152.97801918770219
 20
131.63319489944911
 30
0.0
 11
152.9780191877021
 21
108.63319489944919
 31
0.0
  0
LINE
  5
13F0
  8
0
 10
162.97801918770219
 20
106.63319489944909
 30
0.0
 11
154.97801918770219
 21
106.63319489944919
 31
0.0
  0
LINE
  5
13F1
  8
0
 10
322.04342635290118
 20
106.63319489944909
 30
0.0
 11
314.04342635290118
 21
106.63319489944919
 31
0.0
  0
LINE
  5
13F2
  8
3
 10
312.99042635290112
 20
126.63319489944909
 30
0.0
 11
312.99042635290112
 21
107.68619489944921
 31
0.0
  0
LINE
  5
13F3
  8
3
 10
323.09642635290118
 20
126.63319489944909
 30
0.0
 11
323.09642635290118
 21
107.68619489944911
 31
0.0
  0
LINE
  5
13F4
  8
0
 10
322.04342635290118
 20
106.63319489944909
 30
0.0
 11
324.04342635290118
 21
108.63319489944909
 31
0.0
  0
LINE
  5
13F5
  8
0
 10
314.04342635290118
 20
106.63319489944919
 30
0.0
 11
312.04342635290118
 21
108.63319489944919
 31
0.0
  0
LINE
  5
13F6
  8
0
 10
324.04342635290118
 20
108.63319489944909
 30
0.0
 11
312.04342635290118
 21
108.63319489944919
 31
0.0
  0
LINE
  5
13F7
  8
0
 10
312.04342635290101
 20
126.63319489944909
 30
0.0
 11
324.04342635290118
 21
126.63319489944909
 31
0.0
  0
LINE
  5
13F8
  8
3
 10
323.09642635290118
 20
126.63319489944909
 30
0.0
 11
324.04342635290118
 21
128.27344701421691
 31
0.0
  0
LINE
  5
13F9
  8
3
 10
312.99042635290112
 20
126.63319489944909
 30
0.0
 11
312.04342635290118
 21
128.27344701421691
 31
0.0
  0
LINE
  5
13FA
  8
0
 10
312.04342635290118
 20
131.63319489944911
 30
0.0
 11
312.04342635290101
 21
108.63319489944919
 31
0.0
  0
LINE
  5
13FB
  8
0
 10
324.04342635290118
 20
131.63319489944911
 30
0.0
 11
324.04342635290112
 21
108.63319489944899
 31
0.0
  0
CIRCLE
  5
140B
  8
3
 10
158.9780191877021
 20
52.883194899449173
 30
0.0
 40
5.0530000000000541
  0
CIRCLE
  5
140C
  8
0
 10
158.9780191877021
 20
52.883194899449173
 30
0.0
 40
6.0
  0
TEXT
  5
14FF
  8
0
 62
     3
 10
0.0
 20
0.0
 30
0.0
 40
10.0
  1
FKRT12X25-BR
  7
STANDARD1
  0
ENDSEC
  0
EOF
