  0
SECTION
  2
HEADER
  9
$ACADVER
  1
AC1009
  9
$INSBASE
 10
0.0
 20
0.0
 30
0.0
  9
$EXTMIN
 10
0.0
 20
-2.960436562073669
 30
0.0
  9
$EXTMAX
 10
329.41898361738691
 20
229.16712962683019
 30
0.0
  9
$LIMMIN
 10
0.0
 20
0.0
  9
$LIMMAX
 10
375.0
 20
270.0
  9
$ORTHOMODE
 70
     1
  9
$REGENMODE
 70
     1
  9
$FILLMODE
 70
     1
  9
$QTEXTMODE
 70
     0
  9
$MIRRTEXT
 70
     0
  9
$DRAGMODE
 70
     2
  9
$LTSCALE
 40
10.0
  9
$OSMODE
 70
    55
  9
$ATTMODE
 70
     1
  9
$TEXTSIZE
 40
3.0000000000000502
  9
$TRACEWID
 40
0.05
  9
$TEXTSTYLE
  7
07500
  9
$CLAYER
  8
0
  9
$CELTYPE
  6
BYLAYER
  9
$CECOLOR
 62
   256
  9
$DIMSCALE
 40
1.0
  9
$DIMASZ
 40
3.0
  9
$DIMEXO
 40
2.0
  9
$DIMDLI
 40
0.38
  9
$DIMRND
 40
0.0
  9
$DIMDLE
 40
0.0
  9
$DIMEXE
 40
2.0
  9
$DIMTP
 40
0.0
  9
$DIMTM
 40
0.0
  9
$DIMTXT
 40
3.2000000000000002
  9
$DIMCEN
 40
0.0
  9
$DIMTSZ
 40
0.0
  9
$DIMTOL
 70
     0
  9
$DIMLIM
 70
     0
  9
$DIMTIH
 70
     0
  9
$DIMTOH
 70
     0
  9
$DIMSE1
 70
     0
  9
$DIMSE2
 70
     0
  9
$DIMTAD
 70
     1
  9
$DIMZIN
 70
     0
  9
$DIMBLK
  1

  9
$DIMASO
 70
     0
  9
$DIMSHO
 70
     0
  9
$DIMPOST
  1

  9
$DIMAPOST
  1

  9
$DIMALT
 70
     0
  9
$DIMALTD
 70
     2
  9
$DIMALTF
 40
25.399999999999999
  9
$DIMLFAC
 40
1.0
  9
$DIMTOFL
 70
     1
  9
$DIMTVP
 40
1.6000000000000001
  9
$DIMTIX
 70
     1
  9
$DIMSOXD
 70
     0
  9
$DIMSAH
 70
     0
  9
$DIMBLK1
  1

  9
$DIMBLK2
  1

  9
$DIMSTYLE
  2
STANDARD
  9
$DIMCLRD
 70
     0
  9
$DIMCLRE
 70
     0
  9
$DIMCLRT
 70
     0
  9
$DIMTFAC
 40
1.0
  9
$DIMGAP
 40
0.09
  9
$LUNITS
 70
     2
  9
$LUPREC
 70
     4
  9
$SKETCHINC
 40
0.1
  9
$FILLETRAD
 40
0.0
  9
$AUNITS
 70
     0
  9
$AUPREC
 70
     4
  9
$MENU
  1
E:\r13\win\SUPPORT\ACAD
  9
$ELEVATION
 40
0.0
  9
$PELEVATION
 40
0.0
  9
$THICKNESS
 40
0.0
  9
$LIMCHECK
 70
     0
  9
$BLIPMODE
 70
     0
  9
$CHAMFERA
 40
0.0
  9
$CHAMFERB
 40
0.0
  9
$SKPOLY
 70
     0
  9
$TDCREATE
 40
2449840.6298263888
  9
$TDUPDATE
 40
2456598.665938681
  9
$TDINDWG
 40
0.0000913079
  9
$TDUSRTIMER
 40
0.0000913079
  9
$USRTIMER
 70
     1
  9
$ANGBASE
 50
0.0
  9
$ANGDIR
 70
     0
  9
$PDMODE
 70
     0
  9
$PDSIZE
 40
0.0
  9
$PLINEWID
 40
0.0
  9
$COORDS
 70
     1
  9
$SPLFRAME
 70
     0
  9
$SPLINETYPE
 70
     6
  9
$SPLINESEGS
 70
     8
  9
$ATTDIA
 70
     0
  9
$ATTREQ
 70
     1
  9
$HANDLING
 70
     1
  9
$HANDSEED
  5
207
  9
$SURFTAB1
 70
     6
  9
$SURFTAB2
 70
     6
  9
$SURFTYPE
 70
     6
  9
$SURFU
 70
     6
  9
$SURFV
 70
     6
  9
$UCSNAME
  2

  9
$UCSORG
 10
0.0
 20
0.0
 30
0.0
  9
$UCSXDIR
 10
1.0
 20
0.0
 30
0.0
  9
$UCSYDIR
 10
0.0
 20
1.0
 30
0.0
  9
$PUCSNAME
  2

  9
$PUCSORG
 10
0.0
 20
0.0
 30
0.0
  9
$PUCSXDIR
 10
1.0
 20
0.0
 30
0.0
  9
$PUCSYDIR
 10
0.0
 20
1.0
 30
0.0
  9
$USERI1
 70
     0
  9
$USERI2
 70
     1
  9
$USERI3
 70
     0
  9
$USERI4
 70
     0
  9
$USERI5
 70
     0
  9
$USERR1
 40
0.0
  9
$USERR2
 40
0.0
  9
$USERR3
 40
0.0
  9
$USERR4
 40
0.0
  9
$USERR5
 40
0.0
  9
$WORLDVIEW
 70
     1
  9
$SHADEDGE
 70
     3
  9
$SHADEDIF
 70
    70
  9
$TILEMODE
 70
     1
  9
$MAXACTVP
 70
    16
  9
$PLIMCHECK
 70
     0
  9
$PEXTMIN
 10
1.0000000000000000E+020
 20
1.0000000000000000E+020
 30
1.0000000000000000E+020
  9
$PEXTMAX
 10
-1.0000000000000000E+020
 20
-1.0000000000000000E+020
 30
-1.0000000000000000E+020
  9
$PLIMMIN
 10
0.0
 20
0.0
  9
$PLIMMAX
 10
12.0
 20
9.0
  9
$UNITMODE
 70
     0
  9
$VISRETAIN
 70
     0
  9
$PLINEGEN
 70
     0
  9
$PSLTSCALE
 70
     0
  0
ENDSEC
  0
SECTION
  2
TABLES
  0
TABLE
  2
VPORT
 70
     1
  0
VPORT
  2
*ACTIVE
 70
     0
 10
0.0
 20
0.0
 11
1.0
 21
1.0
 12
187.49427839065231
 22
174.91677254346851
 13
0.0
 23
0.0
 14
10.0
 24
10.0
 15
10.0
 25
10.0
 16
0.0
 26
0.0
 36
1.0
 17
0.0
 27
0.0
 37
0.0
 40
358.92027899574339
 41
1.7807262569832401
 42
50.0
 43
0.0
 44
0.0
 50
0.0
 51
0.0
 71
     0
 72
   500
 73
     1
 74
     0
 75
     0
 76
     0
 77
     0
 78
     2
  0
ENDTAB
  0
TABLE
  2
LTYPE
 70
     3
  0
LTYPE
  2
CONTINUOUS
 70
     0
  3
Solid Line
 72
    65
 73
     0
 40
0.0
  0
LTYPE
  2
CENTER
 70
     0
  3
____ _ ____ _ ____ _ ____ _ ____ _ ____ _ ____
 72
    65
 73
     4
 40
2.0
 49
1.25
 49
-0.25
 49
0.25
 49
-0.25
  0
LTYPE
  2
PHANTOM2
 70
     0
  3
___ _ _ ___ _ _ ___ _ _ ___ _ _
 72
    65
 73
     6
 40
1.25
 49
0.625
 49
-0.125
 49
0.125
 49
-0.125
 49
0.125
 49
-0.125
  0
ENDTAB
  0
TABLE
  2
LAYER
 70
     2
  0
LAYER
  2
0
 70
     0
 62
     7
  6
CONTINUOUS
  0
LAYER
  2
1
 70
     0
 62
     1
  6
CENTER
  0
ENDTAB
  0
TABLE
  2
STYLE
 70
     3
  0
STYLE
  2
STANDARD
 70
     0
 40
0.0
 41
1.0
 50
0.0
 71
     0
 42
0.2
  3
TXT
  4
BIGFONT
  0
STYLE
  2
07500
 70
     0
 40
0.0
 41
0.75
 50
0.0
 71
     0
 42
3.0000000000000502
  3
TXT
  4
BIGFONT
  0
STYLE
  2
STANDARD1
 70
     0
 40
0.0
 41
1.0
 50
0.0
 71
     0
 42
3.0
  3
txt
  4

  0
ENDTAB
  0
TABLE
  2
VIEW
 70
     1
  0
VIEW
  2
ALL
 70
     0
 40
270.0
 10
220.99159663865549
 20
135.0
 41
0.0
 11
0.0
 21
0.0
 31
1.0
 12
0.0
 22
0.0
 32
0.0
 42
0.0
 43
0.0
 44
0.0
 50
0.0
 71
     0
  0
ENDTAB
  0
TABLE
  2
UCS
 70
     0
  0
ENDTAB
  0
TABLE
  2
APPID
 70
     3
  0
APPID
  2
ACAD
 70
     0
  0
APPID
  2
ACAD_MLEADERVER
 70
     0
  0
APPID
  2
ACAD_NAV_VCDISPLAY
 70
     0
  0
ENDTAB
  0
TABLE
  2
DIMSTYLE
 70
     1
  0
DIMSTYLE
  2
STANDARD
 70
     0
  3

  4

  5

  6

  7

 40
1.0
 41
0.18
 42
0.0625
 43
0.38
 44
0.18
 45
0.0
 46
0.0
 47
0.0
 48
0.0
140
0.18
141
0.09
142
0.0
143
25.399999999999999
144
1.0
145
0.0
146
1.0
147
0.09
 71
     0
 72
     0
 73
     1
 74
     1
 75
     0
 76
     0
 77
     0
 78
     0
170
     0
171
     2
172
     0
173
     0
174
     0
175
     0
176
     0
177
     0
178
     0
  0
ENDTAB
  0
ENDSEC
  0
SECTION
  2
BLOCKS
  0
BLOCK
  8
0
  2
$MODEL_SPACE
 70
     0
 10
0.0
 20
0.0
 30
0.0
  3
$MODEL_SPACE
  1

  0
ENDBLK
  5
84
  8
0
  0
BLOCK
 67
     1
  8
0
  2
$PAPER_SPACE
 70
     0
 10
0.0
 20
0.0
 30
0.0
  3
$PAPER_SPACE
  1

  0
ENDBLK
  5
82
 67
     1
  8
0
  0
ENDSEC
  0
SECTION
  2
ENTITIES
  0
LINE
  5
33
  8
0
 10
38.931217809727052
 20
128.99303815557411
 30
0.0
 11
83.931217809727045
 21
128.9930381555742
 31
0.0
  0
LINE
  5
34
  8
0
 10
83.931217809727045
 20
128.9930381555742
 30
0.0
 11
83.931217809727045
 21
131.9930381555742
 31
0.0
  0
LINE
  5
35
  8
0
 10
38.931217809727052
 20
131.99303815557411
 30
0.0
 11
83.931217809727045
 21
131.9930381555742
 31
0.0
  0
LINE
  5
36
  8
0
 10
130.22451091762139
 20
128.08709365560711
 30
0.0
 11
230.22451091762139
 21
128.08709365560711
 31
0.0
  0
LINE
  5
37
  8
0
 10
130.22451091762139
 20
131.08709365560711
 30
0.0
 11
230.22451091762139
 21
131.08709365560711
 31
0.0
  0
LINE
  5
38
  8
0
 10
130.22451091762139
 20
131.08709365560711
 30
0.0
 11
130.22451091762139
 21
128.08709365560711
 31
0.0
  0
LINE
  5
39
  8
0
 10
130.22451091762139
 20
184.16712962683019
 30
0.0
 11
230.22451091762139
 21
184.16712962683019
 31
0.0
  0
LINE
  5
3A
  8
0
 10
130.22451091762139
 20
229.16712962683019
 30
0.0
 11
230.22451091762139
 21
229.16712962683019
 31
0.0
  0
LINE
  5
3B
  8
0
 10
130.22451091762139
 20
229.16712962683019
 30
0.0
 11
130.22451091762139
 21
184.16712962683019
 31
0.0
  0
LINE
  5
3C
  8
0
 10
230.22451091762139
 20
229.16712962683019
 30
0.0
 11
230.22451091762139
 21
184.16712962683019
 31
0.0
  0
LINE
  5
3D
  8
0
 10
230.22451091762139
 20
131.08709365560711
 30
0.0
 11
230.22451091762139
 21
128.08709365560711
 31
0.0
  0
LINE
  5
47
  8
0
 10
38.931217809727052
 20
128.9930381555742
 30
0.0
 11
38.931217809727052
 21
131.9930381555742
 31
0.0
  0
LINE
  5
48
  8
1
 10
61.431217809727038
 20
123.9930381555741
 30
0.0
 11
61.431217809727052
 21
136.99303815557411
 31
0.0
  0
LINE
  5
49
  8
1
 10
235.22451091762139
 20
206.6671296268303
 30
0.0
 11
125.2245109176214
 21
206.66712962683019
 31
0.0
  0
LINE
  5
4A
  8
1
 10
306.9189836173868
 20
123.9930381555741
 30
0.0
 11
306.9189836173868
 21
136.99303815557411
 31
0.0
  0
LINE
  5
4B
  8
0
 10
284.4189836173868
 20
128.9930381555742
 30
0.0
 11
284.4189836173868
 21
131.9930381555742
 31
0.0
  0
LINE
  5
4C
  8
0
 10
284.4189836173868
 20
131.99303815557411
 30
0.0
 11
329.41898361738691
 21
131.9930381555742
 31
0.0
  0
LINE
  5
4D
  8
0
 10
329.41898361738691
 20
128.9930381555742
 30
0.0
 11
329.41898361738691
 21
131.9930381555742
 31
0.0
  0
LINE
  5
4E
  8
0
 10
284.4189836173868
 20
128.99303815557411
 30
0.0
 11
329.41898361738691
 21
128.9930381555742
 31
0.0
  0
LINE
  5
4F
  8
1
 10
235.22451091762139
 20
65.543028907405784
 30
0.0
 11
125.2245109176214
 21
65.543028907405755
 31
0.0
  0
LINE
  5
50
  8
0
 10
230.22451091762139
 20
88.043028907405727
 30
0.0
 11
230.22451091762139
 21
43.04302890740572
 31
0.0
  0
LINE
  5
51
  8
0
 10
130.22451091762139
 20
88.043028907405727
 30
0.0
 11
130.22451091762139
 21
43.04302890740572
 31
0.0
  0
LINE
  5
52
  8
0
 10
130.22451091762139
 20
88.043028907405727
 30
0.0
 11
230.22451091762139
 21
88.043028907405727
 31
0.0
  0
LINE
  5
53
  8
0
 10
130.22451091762139
 20
43.04302890740572
 30
0.0
 11
230.22451091762139
 21
43.04302890740572
 31
0.0
  0
TEXT
  5
176
  8
0
 62
     3
 10
0.0
 20
0.0
 30
0.0
 40
10.0
  1
FLR45X3
  7
STANDARD1
  0
ENDSEC
  0
EOF
