  0
SECTION
  2
HEADER
  9
$ACADVER
  1
AC1009
  9
$INSBASE
 10
0.0
 20
0.0
 30
0.0
  9
$EXTMIN
 10
0.0
 20
-2.960436562073669
 30
0.0
  9
$EXTMAX
 10
319.13809998497322
 20
239.0
 30
0.0
  9
$LIMMIN
 10
0.0
 20
0.0
  9
$LIMMAX
 10
375.0
 20
270.0
  9
$ORTHOMODE
 70
     1
  9
$REGENMODE
 70
     1
  9
$FILLMODE
 70
     1
  9
$QTEXTMODE
 70
     0
  9
$MIRRTEXT
 70
     0
  9
$DRAGMODE
 70
     2
  9
$LTSCALE
 40
10.0
  9
$OSMODE
 70
    55
  9
$ATTMODE
 70
     1
  9
$TEXTSIZE
 40
0.2
  9
$TRACEWID
 40
0.05
  9
$TEXTSTYLE
  7
STANDARD
  9
$CLAYER
  8
0
  9
$CELTYPE
  6
BYLAYER
  9
$CECOLOR
 62
   256
  9
$DIMSCALE
 40
1.0
  9
$DIMASZ
 40
3.0
  9
$DIMEXO
 40
2.0
  9
$DIMDLI
 40
0.38
  9
$DIMRND
 40
0.0
  9
$DIMDLE
 40
0.0
  9
$DIMEXE
 40
2.0
  9
$DIMTP
 40
0.0
  9
$DIMTM
 40
0.0
  9
$DIMTXT
 40
3.2000000000000002
  9
$DIMCEN
 40
0.0
  9
$DIMTSZ
 40
0.0
  9
$DIMTOL
 70
     0
  9
$DIMLIM
 70
     0
  9
$DIMTIH
 70
     0
  9
$DIMTOH
 70
     0
  9
$DIMSE1
 70
     0
  9
$DIMSE2
 70
     0
  9
$DIMTAD
 70
     1
  9
$DIMZIN
 70
     0
  9
$DIMBLK
  1

  9
$DIMASO
 70
     0
  9
$DIMSHO
 70
     0
  9
$DIMPOST
  1

  9
$DIMAPOST
  1

  9
$DIMALT
 70
     0
  9
$DIMALTD
 70
     2
  9
$DIMALTF
 40
25.399999999999999
  9
$DIMLFAC
 40
1.0
  9
$DIMTOFL
 70
     1
  9
$DIMTVP
 40
1.6000000000000001
  9
$DIMTIX
 70
     1
  9
$DIMSOXD
 70
     0
  9
$DIMSAH
 70
     0
  9
$DIMBLK1
  1

  9
$DIMBLK2
  1

  9
$DIMSTYLE
  2
STANDARD
  9
$DIMCLRD
 70
     0
  9
$DIMCLRE
 70
     0
  9
$DIMCLRT
 70
     0
  9
$DIMTFAC
 40
1.0
  9
$DIMGAP
 40
0.09
  9
$LUNITS
 70
     2
  9
$LUPREC
 70
     4
  9
$SKETCHINC
 40
0.1
  9
$FILLETRAD
 40
0.0
  9
$AUNITS
 70
     0
  9
$AUPREC
 70
     4
  9
$MENU
  1
E:\r13\win\SUPPORT\ACAD
  9
$ELEVATION
 40
0.0
  9
$PELEVATION
 40
0.0
  9
$THICKNESS
 40
0.0
  9
$LIMCHECK
 70
     0
  9
$BLIPMODE
 70
     0
  9
$CHAMFERA
 40
0.0
  9
$CHAMFERB
 40
0.0
  9
$SKPOLY
 70
     0
  9
$TDCREATE
 40
2449839.7756134262
  9
$TDUPDATE
 40
2456598.6671657059
  9
$TDINDWG
 40
0.0000910417
  9
$TDUSRTIMER
 40
0.0000910417
  9
$USRTIMER
 70
     1
  9
$ANGBASE
 50
0.0
  9
$ANGDIR
 70
     0
  9
$PDMODE
 70
     0
  9
$PDSIZE
 40
0.0
  9
$PLINEWID
 40
0.0
  9
$COORDS
 70
     1
  9
$SPLFRAME
 70
     0
  9
$SPLINETYPE
 70
     6
  9
$SPLINESEGS
 70
     8
  9
$ATTDIA
 70
     0
  9
$ATTREQ
 70
     1
  9
$HANDLING
 70
     1
  9
$HANDSEED
  5
256
  9
$SURFTAB1
 70
     6
  9
$SURFTAB2
 70
     6
  9
$SURFTYPE
 70
     6
  9
$SURFU
 70
     6
  9
$SURFV
 70
     6
  9
$UCSNAME
  2

  9
$UCSORG
 10
0.0
 20
0.0
 30
0.0
  9
$UCSXDIR
 10
1.0
 20
0.0
 30
0.0
  9
$UCSYDIR
 10
0.0
 20
1.0
 30
0.0
  9
$PUCSNAME
  2

  9
$PUCSORG
 10
0.0
 20
0.0
 30
0.0
  9
$PUCSXDIR
 10
1.0
 20
0.0
 30
0.0
  9
$PUCSYDIR
 10
0.0
 20
1.0
 30
0.0
  9
$USERI1
 70
     0
  9
$USERI2
 70
     1
  9
$USERI3
 70
     0
  9
$USERI4
 70
     0
  9
$USERI5
 70
     0
  9
$USERR1
 40
0.0
  9
$USERR2
 40
0.0
  9
$USERR3
 40
0.0
  9
$USERR4
 40
0.0
  9
$USERR5
 40
0.0
  9
$WORLDVIEW
 70
     1
  9
$SHADEDGE
 70
     3
  9
$SHADEDIF
 70
    70
  9
$TILEMODE
 70
     1
  9
$MAXACTVP
 70
    16
  9
$PLIMCHECK
 70
     0
  9
$PEXTMIN
 10
1.0000000000000000E+020
 20
1.0000000000000000E+020
 30
1.0000000000000000E+020
  9
$PEXTMAX
 10
-1.0000000000000000E+020
 20
-1.0000000000000000E+020
 30
-1.0000000000000000E+020
  9
$PLIMMIN
 10
0.0
 20
0.0
  9
$PLIMMAX
 10
12.0
 20
9.0
  9
$UNITMODE
 70
     0
  9
$VISRETAIN
 70
     0
  9
$PLINEGEN
 70
     0
  9
$PSLTSCALE
 70
     0
  0
ENDSEC
  0
SECTION
  2
TABLES
  0
TABLE
  2
VPORT
 70
     1
  0
VPORT
  2
*ACTIVE
 70
     0
 10
0.0
 20
0.0
 11
1.0
 21
1.0
 12
187.49427839065231
 22
174.91677254346851
 13
0.0
 23
0.0
 14
10.0
 24
10.0
 15
10.0
 25
10.0
 16
0.0
 26
0.0
 36
1.0
 17
0.0
 27
0.0
 37
0.0
 40
358.92027899574339
 41
1.7807262569832401
 42
50.0
 43
0.0
 44
0.0
 50
0.0
 51
0.0
 71
     0
 72
   500
 73
     1
 74
     0
 75
     0
 76
     0
 77
     0
 78
     2
  0
ENDTAB
  0
TABLE
  2
LTYPE
 70
     4
  0
LTYPE
  2
CONTINUOUS
 70
     0
  3
Solid Line
 72
    65
 73
     0
 40
0.0
  0
LTYPE
  2
CENTER
 70
     0
  3
____ _ ____ _ ____ _ ____ _ ____ _ ____ _ ____
 72
    65
 73
     4
 40
2.0
 49
1.25
 49
-0.25
 49
0.25
 49
-0.25
  0
LTYPE
  2
HIDDEN
 70
     0
  3
_ _ _ _ _ _ _ _ _ _ _ _ _ _ _ _ _ _ _ _ _ _ _
 72
    65
 73
     2
 40
0.375
 49
0.25
 49
-0.125
  0
LTYPE
  2
PHANTOM2
 70
     0
  3
___ _ _ ___ _ _ ___ _ _ ___ _ _
 72
    65
 73
     6
 40
1.25
 49
0.625
 49
-0.125
 49
0.125
 49
-0.125
 49
0.125
 49
-0.125
  0
ENDTAB
  0
TABLE
  2
LAYER
 70
     4
  0
LAYER
  2
0
 70
     0
 62
     7
  6
CONTINUOUS
  0
LAYER
  2
1
 70
     0
 62
     1
  6
CENTER
  0
LAYER
  2
2
 70
     0
 62
     2
  6
HIDDEN
  0
LAYER
  2
3
 70
     0
 62
     3
  6
CONTINUOUS
  0
ENDTAB
  0
TABLE
  2
STYLE
 70
     2
  0
STYLE
  2
STANDARD
 70
     0
 40
0.0
 41
1.0
 50
0.0
 71
     0
 42
0.2
  3
TXT
  4
BIGFONT
  0
STYLE
  2
STANDARD1
 70
     0
 40
0.0
 41
1.0
 50
0.0
 71
     0
 42
3.0
  3
txt
  4

  0
ENDTAB
  0
TABLE
  2
VIEW
 70
     1
  0
VIEW
  2
ALL
 70
     0
 40
270.0
 10
220.99159663865549
 20
135.0
 41
0.0
 11
0.0
 21
0.0
 31
1.0
 12
0.0
 22
0.0
 32
0.0
 42
0.0
 43
0.0
 44
0.0
 50
0.0
 71
     0
  0
ENDTAB
  0
TABLE
  2
UCS
 70
     0
  0
ENDTAB
  0
TABLE
  2
APPID
 70
     3
  0
APPID
  2
ACAD
 70
     0
  0
APPID
  2
ACAD_MLEADERVER
 70
     0
  0
APPID
  2
ACAD_NAV_VCDISPLAY
 70
     0
  0
ENDTAB
  0
TABLE
  2
DIMSTYLE
 70
     1
  0
DIMSTYLE
  2
STANDARD
 70
     0
  3

  4

  5

  6

  7

 40
1.0
 41
0.18
 42
0.0625
 43
0.38
 44
0.18
 45
0.0
 46
0.0
 47
0.0
 48
0.0
140
0.18
141
0.09
142
0.0
143
25.399999999999999
144
1.0
145
0.0
146
1.0
147
0.09
 71
     0
 72
     0
 73
     1
 74
     1
 75
     0
 76
     0
 77
     0
 78
     0
170
     0
171
     2
172
     0
173
     0
174
     0
175
     0
176
     0
177
     0
178
     0
  0
ENDTAB
  0
ENDSEC
  0
SECTION
  2
BLOCKS
  0
BLOCK
  8
0
  2
$MODEL_SPACE
 70
     0
 10
0.0
 20
0.0
 30
0.0
  3
$MODEL_SPACE
  1

  0
ENDBLK
  5
108
  8
0
  0
BLOCK
 67
     1
  8
0
  2
$PAPER_SPACE
 70
     0
 10
0.0
 20
0.0
 30
0.0
  3
$PAPER_SPACE
  1

  0
ENDBLK
  5
106
 67
     1
  8
0
  0
ENDSEC
  0
SECTION
  2
ENTITIES
  0
LINE
  5
3E
  8
0
 10
181.7756683002109
 20
234.0
 30
0.0
 11
181.7756683002109
 21
206.0
 31
0.0
  0
LINE
  5
3F
  8
0
 10
180.7756683002109
 20
207.0
 30
0.0
 11
181.7756683002109
 21
206.0
 31
0.0
  0
LINE
  5
40
  8
0
 10
181.7756683002109
 20
234.0
 30
0.0
 11
180.7756683002109
 21
233.0
 31
0.0
  0
LINE
  5
41
  8
1
 10
186.7756683002109
 20
239.0
 30
0.0
 11
186.7756683002109
 21
220.0
 31
0.0
  0
LINE
  5
42
  8
1
 10
210.7756683002109
 20
220.0
 30
0.0
 11
170.7756683002109
 21
220.0
 31
0.0
  0
LINE
  5
43
  8
0
 10
181.7756683002109
 20
206.0
 30
0.0
 11
200.2756683002109
 21
206.0
 31
0.0
  0
LINE
  5
44
  8
0
 10
200.2756683002109
 20
206.0
 30
0.0
 11
200.7756683002109
 21
206.5
 31
0.0
  0
LINE
  5
45
  8
0
 10
200.7756683002109
 20
206.5
 30
0.0
 11
200.7756683002109
 21
233.5
 31
0.0
  0
LINE
  5
46
  8
0
 10
200.7756683002109
 20
233.5
 30
0.0
 11
200.2756683002109
 21
234.0
 31
0.0
  0
LINE
  5
47
  8
0
 10
200.2756683002109
 20
234.0
 30
0.0
 11
181.7756683002109
 21
234.0
 31
0.0
  0
LINE
  5
48
  8
0
 10
180.7756683002109
 20
233.0
 30
0.0
 11
180.7756683002109
 21
207.0
 31
0.0
  0
LINE
  5
49
  8
0
 10
191.77566830021081
 20
206.59692367420561
 30
0.0
 11
191.7756683002109
 21
233.40307632579439
 31
0.0
  0
LINE
  5
4A
  8
0
 10
188.02566830016141
 20
136.66785063165551
 30
0.0
 11
186.77566830024861
 21
135.94616279521881
 31
0.0
  0
LINE
  5
4B
  8
0
 10
186.77566830016141
 20
135.9461627952256
 30
0.0
 11
185.52566830024861
 21
136.6678506316623
 31
0.0
  0
LINE
  5
4C
  8
0
 10
185.5256683002109
 20
136.6678506317412
 30
0.0
 11
185.5256683002109
 21
138.11122630461449
 31
0.0
  0
LINE
  5
4D
  8
0
 10
185.52566830026041
 20
138.11122630468671
 30
0.0
 11
186.77566830017309
 21
138.8329141411233
 31
0.0
  0
LINE
  5
4E
  8
0
 10
186.77566830026029
 20
138.83291414111659
 30
0.0
 11
188.02566830017309
 21
138.11122630467989
 31
0.0
  0
LINE
  5
4F
  8
0
 10
188.0256683002109
 20
138.11122630460099
 30
0.0
 11
188.0256683002109
 21
136.6678506317277
 31
0.0
  0
LINE
  5
50
  8
1
 10
186.7756683002109
 20
129.88953846817111
 30
0.0
 11
186.7756683002109
 21
144.88953846817111
 31
0.0
  0
CIRCLE
  5
51
  8
3
 10
186.7756683002109
 20
137.38953846817111
 30
0.0
 40
2.0669999999999988
  0
CIRCLE
  5
52
  8
0
 10
186.7756683002109
 20
137.38953846817111
 30
0.0
 40
2.5
  0
LINE
  5
53
  8
1
 10
205.7756683002109
 20
114.8895384681711
 30
0.0
 11
186.7756683002109
 21
114.8895384681711
 31
0.0
  0
LINE
  5
54
  8
1
 10
205.7756683002109
 20
159.88953846817111
 30
0.0
 11
186.7756683002109
 21
159.88953846817111
 31
0.0
  0
LINE
  5
55
  8
0
 10
181.7756683001989
 20
151.38953846817111
 30
0.0
 11
181.7756683001989
 21
123.3895384681711
 31
0.0
  0
LINE
  5
56
  8
0
 10
180.7756683002109
 20
150.38953846817111
 30
0.0
 11
180.7756683002109
 21
124.3895384681591
 31
0.0
  0
LINE
  5
57
  8
0
 10
191.7756683002109
 20
131.34509402372731
 30
0.0
 11
191.7756683002109
 21
109.3895384681711
 31
0.0
  0
LINE
  5
58
  8
0
 10
191.7756683002109
 20
165.38953846817111
 30
0.0
 11
191.7756683002109
 21
143.43398481996351
 31
0.0
  0
ARC
  5
59
  8
0
 10
189.7756683002109
 20
131.34509402372731
 30
0.0
 40
2.0
 50
0.0
 51
90.000000000000014
  0
ARC
  5
5A
  8
0
 10
189.7756683002109
 20
143.43398291261491
 30
0.0
 40
2.0
 50
270.0
 51
0.0
  0
LINE
  5
5B
  8
0
 10
200.7756683002109
 20
166.88953846817111
 30
0.0
 11
200.7756683002109
 21
107.8895384681711
 31
0.0
  0
LINE
  5
5C
  8
0
 10
200.7756683002109
 20
107.8895384681711
 30
0.0
 11
200.2756683002109
 21
107.3895384681711
 31
0.0
  0
LINE
  5
5D
  8
0
 10
181.7756683001989
 20
123.3895384681711
 30
0.0
 11
180.7756683002109
 21
124.3895384681591
 31
0.0
  0
LINE
  5
5E
  8
0
 10
200.2756683002109
 20
107.3895384681711
 30
0.0
 11
193.7756683002109
 21
107.3895384681711
 31
0.0
  0
ARC
  5
5F
  8
0
 10
193.7756683002109
 20
109.3895384681711
 30
0.0
 40
2.0
 50
180.00000000000011
 51
270.0
  0
LINE
  5
60
  8
0
 10
189.7756683002109
 20
123.3895384681711
 30
0.0
 11
181.7756683001989
 21
123.3895384681711
 31
0.0
  0
ARC
  5
61
  8
0
 10
189.7756683002109
 20
121.3895384681711
 30
0.0
 40
2.0
 50
0.0
 51
90.000000000000014
  0
ARC
  5
62
  8
0
 10
189.7756683002109
 20
153.38953846817111
 30
0.0
 40
2.0
 50
270.0
 51
0.0
  0
ARC
  5
63
  8
0
 10
193.7756683002109
 20
165.38953846817111
 30
0.0
 40
2.0
 50
90.0
 51
179.99999999999989
  0
LINE
  5
64
  8
0
 10
181.7756683001989
 20
151.38953846817111
 30
0.0
 11
180.7756683002109
 21
150.3895384681831
 31
0.0
  0
LINE
  5
65
  8
0
 10
189.7756683002109
 20
151.38953846817111
 30
0.0
 11
181.7756683001989
 21
151.38953846817111
 31
0.0
  0
LINE
  5
66
  8
0
 10
200.2756683002109
 20
167.38953846817111
 30
0.0
 11
193.7756683002109
 21
167.38953846817111
 31
0.0
  0
LINE
  5
67
  8
0
 10
200.7756683002109
 20
166.88953846817111
 30
0.0
 11
200.2756683002109
 21
167.38953846817111
 31
0.0
  0
LINE
  5
68
  8
1
 10
210.7756683002109
 20
137.38953846817111
 30
0.0
 11
170.7756683002109
 21
137.38953846817111
 31
0.0
  0
CIRCLE
  5
69
  8
0
 10
87.369542904512244
 20
137.38953846817111
 30
0.0
 40
4.1879999999999988
  0
CIRCLE
  5
6A
  8
3
 10
87.369542904512244
 20
137.38953846817111
 30
0.0
 40
5.0
  0
CIRCLE
  5
6B
  8
0
 10
87.369542904512244
 20
137.38953846817111
 30
0.0
 40
13.0
  0
LINE
  5
6C
  8
0
 10
94.549762647358264
 20
112.7228718015044
 30
0.0
 11
100.7726197578248
 21
133.34509402372669
 31
0.0
  0
LINE
  5
6D
  8
0
 10
80.189323161666223
 20
112.7228718015044
 30
0.0
 11
73.966466051199703
 21
133.34509402372669
 31
0.0
  0
ARC
  5
6E
  8
0
 10
87.369542904512244
 20
114.8895384681711
 30
0.0
 40
7.5
 50
196.79144711458881
 51
343.20855288541122
  0
CIRCLE
  5
6F
  8
0
 10
87.369542904512244
 20
114.8895384681711
 30
0.0
 40
3.5
  0
LINE
  5
70
  8
1
 10
95.869542904512244
 20
114.8895384681711
 30
0.0
 11
78.869542904512244
 21
114.8895384681711
 31
0.0
  0
LINE
  5
71
  8
1
 10
95.869542904512244
 20
159.88953846817111
 30
0.0
 11
78.869542904512244
 21
159.88953846817111
 31
0.0
  0
CIRCLE
  5
72
  8
0
 10
87.369542904512244
 20
159.88953846817111
 30
0.0
 40
3.5
  0
ARC
  5
73
  8
0
 10
87.369542904512244
 20
159.88953846817111
 30
0.0
 40
7.5
 50
16.791447114588831
 51
163.20855288541111
  0
LINE
  5
74
  8
0
 10
80.189323161666223
 20
162.0562051348378
 30
0.0
 11
73.966466051199703
 21
141.43398291261551
 31
0.0
  0
LINE
  5
75
  8
0
 10
94.549762647358264
 20
162.0562051348378
 30
0.0
 11
100.7726197578248
 21
141.43398291261551
 31
0.0
  0
LINE
  5
76
  8
1
 10
87.369542904512244
 20
177.38953846817111
 30
0.0
 11
87.369542904512244
 21
97.389538468171111
 31
0.0
  0
LINE
  5
77
  8
1
 10
111.3695429045122
 20
137.38953846817111
 30
0.0
 11
63.369542904512237
 21
137.38953846817111
 31
0.0
  0
CIRCLE
  5
78
  8
0
 10
87.369542904512244
 20
137.38953846817111
 30
0.0
 40
14.0
  0
ARC
  5
79
  8
0
 10
295.13809998497322
 20
137.38953846817111
 30
0.0
 40
14.0
 50
163.20854231684319
 51
196.79144711458861
  0
LINE
  5
7A
  8
1
 10
319.13809998497322
 20
137.38953846817111
 30
0.0
 11
271.13809998497322
 21
137.38953846817111
 31
0.0
  0
LINE
  5
7B
  8
1
 10
295.13809998497322
 20
177.38953846817111
 30
0.0
 11
295.13809998497322
 21
97.389538468171111
 31
0.0
  0
LINE
  5
7C
  8
0
 10
302.31831972781919
 20
162.0562051348378
 30
0.0
 11
308.54117683828582
 21
141.43398291261551
 31
0.0
  0
LINE
  5
7D
  8
0
 10
287.9578802421272
 20
162.0562051348378
 30
0.0
 11
281.73502313166068
 21
141.43398291261551
 31
0.0
  0
ARC
  5
7E
  8
0
 10
295.13809998497322
 20
159.88953846817111
 30
0.0
 40
7.5
 50
16.791447114588831
 51
163.20855288541111
  0
LINE
  5
7F
  8
1
 10
303.63809998497322
 20
159.88953846817111
 30
0.0
 11
286.63809998497322
 21
159.88953846817111
 31
0.0
  0
LINE
  5
80
  8
1
 10
303.63809998497322
 20
114.8895384681711
 30
0.0
 11
286.63809998497322
 21
114.8895384681711
 31
0.0
  0
ARC
  5
81
  8
0
 10
295.13809998497322
 20
114.8895384681711
 30
0.0
 40
7.5
 50
196.79144711458881
 51
343.20855288541122
  0
LINE
  5
82
  8
0
 10
287.9578802421272
 20
112.7228718015044
 30
0.0
 11
281.73502313166068
 21
133.34509402372669
 31
0.0
  0
LINE
  5
83
  8
0
 10
302.31831972781919
 20
112.7228718015044
 30
0.0
 11
308.54117683828582
 21
133.34509402372669
 31
0.0
  0
ARC
  5
84
  8
0
 10
295.13809998497322
 20
137.38953846817111
 30
0.0
 40
14.0
 50
343.20855288541139
 51
16.791457683156821
  0
LINE
  5
85
  8
0
 10
191.7756683002109
 20
68.182153262136637
 30
0.0
 11
191.7756683002109
 21
41.376000610547798
 31
0.0
  0
LINE
  5
86
  8
0
 10
180.7756683002109
 20
41.779076936342221
 30
0.0
 11
180.7756683002109
 21
67.779076936342221
 31
0.0
  0
LINE
  5
87
  8
0
 10
200.2756683002109
 20
40.779076936342221
 30
0.0
 11
181.7756683002109
 21
40.779076936342221
 31
0.0
  0
LINE
  5
88
  8
0
 10
200.7756683002109
 20
41.279076936342221
 30
0.0
 11
200.2756683002109
 21
40.779076936342221
 31
0.0
  0
LINE
  5
89
  8
0
 10
200.7756683002109
 20
68.279076936342221
 30
0.0
 11
200.7756683002109
 21
41.279076936342221
 31
0.0
  0
LINE
  5
8A
  8
0
 10
200.2756683002109
 20
68.779076936342221
 30
0.0
 11
200.7756683002109
 21
68.279076936342221
 31
0.0
  0
LINE
  5
8B
  8
0
 10
181.7756683002109
 20
68.779076936342221
 30
0.0
 11
200.2756683002109
 21
68.779076936342221
 31
0.0
  0
LINE
  5
8C
  8
1
 10
210.7756683002109
 20
54.779076936342221
 30
0.0
 11
170.7756683002109
 21
54.779076936342221
 31
0.0
  0
LINE
  5
8D
  8
1
 10
186.7756683002109
 20
35.779076936342221
 30
0.0
 11
186.7756683002109
 21
54.779076936342221
 31
0.0
  0
LINE
  5
8E
  8
0
 10
181.7756683002109
 20
40.779076936342221
 30
0.0
 11
180.7756683002109
 21
41.779076936342221
 31
0.0
  0
LINE
  5
8F
  8
0
 10
180.7756683002109
 20
67.779076936342221
 30
0.0
 11
181.7756683002109
 21
68.779076936342221
 31
0.0
  0
LINE
  5
90
  8
0
 10
181.7756683002109
 20
40.779076936342221
 30
0.0
 11
181.7756683002109
 21
68.779076936342221
 31
0.0
  0
CIRCLE
  5
91
  8
0
 10
295.13809998497322
 20
159.88953846817111
 30
0.0
 40
3.5
  0
CIRCLE
  5
92
  8
0
 10
295.13809998497322
 20
114.8895384681711
 30
0.0
 40
3.5
  0
CIRCLE
  5
93
  8
3
 10
295.13809998497322
 20
137.38953846817111
 30
0.0
 40
5.0
  0
CIRCLE
  5
94
  8
0
 10
295.13809998497322
 20
137.38953846817111
 30
0.0
 40
4.1879999999999988
  0
LINE
  5
95
  8
2
 10
200.7756683002109
 20
163.3895384681685
 30
0.0
 11
191.7756683002109
 21
163.3895384681685
 31
0.0
  0
LINE
  5
96
  8
2
 10
200.7756683002109
 20
156.3895384681737
 30
0.0
 11
191.7756683002109
 21
156.3895384681737
 31
0.0
  0
LINE
  5
97
  8
2
 10
200.7756683002109
 20
118.3895384681685
 30
0.0
 11
191.7756683002109
 21
118.3895384681685
 31
0.0
  0
LINE
  5
98
  8
2
 10
200.7756683002109
 20
111.3895384681737
 30
0.0
 11
191.7756683002109
 21
111.3895384681737
 31
0.0
  0
LINE
  5
99
  8
2
 10
200.7756683002109
 20
58.2790769363396
 30
0.0
 11
191.7756683002109
 21
58.2790769363396
 31
0.0
  0
LINE
  5
9A
  8
2
 10
200.7756683002109
 20
51.279076936344822
 30
0.0
 11
191.7756683002109
 21
51.279076936344822
 31
0.0
  0
LINE
  5
9B
  8
2
 10
200.7756683002109
 20
216.50000000000259
 30
0.0
 11
191.7756683002109
 21
216.50000000000259
 31
0.0
  0
LINE
  5
9C
  8
2
 10
200.7756683002109
 20
223.49999999999741
 30
0.0
 11
191.7756683002109
 21
223.49999999999741
 31
0.0
  0
TEXT
  5
1C5
  8
0
 62
     3
 10
0.0
 20
0.0
 30
0.0
 40
10.0
  1
FLT45S
  7
STANDARD1
  0
ENDSEC
  0
EOF
