  0
SECTION
  2
HEADER
  9
$ACADVER
  1
AC1009
  9
$INSBASE
 10
0.0
 20
0.0
 30
0.0
  9
$EXTMIN
 10
0.0
 20
-2.960436562073669
 30
0.0
  9
$EXTMAX
 10
357.7997509999999
 20
259.00719400000003
 30
0.0
  9
$LIMMIN
 10
0.0
 20
0.0
  9
$LIMMAX
 10
375.0
 20
270.0
  9
$ORTHOMODE
 70
     1
  9
$REGENMODE
 70
     1
  9
$FILLMODE
 70
     1
  9
$QTEXTMODE
 70
     0
  9
$MIRRTEXT
 70
     0
  9
$DRAGMODE
 70
     2
  9
$LTSCALE
 40
10.0
  9
$OSMODE
 70
    55
  9
$ATTMODE
 70
     1
  9
$TEXTSIZE
 40
4.0
  9
$TRACEWID
 40
0.05
  9
$TEXTSTYLE
  7
STANDARD
  9
$CLAYER
  8
0
  9
$CELTYPE
  6
BYLAYER
  9
$CECOLOR
 62
   256
  9
$DIMSCALE
 40
1.0
  9
$DIMASZ
 40
3.0
  9
$DIMEXO
 40
2.0
  9
$DIMDLI
 40
0.38
  9
$DIMRND
 40
0.0
  9
$DIMDLE
 40
0.0
  9
$DIMEXE
 40
2.0
  9
$DIMTP
 40
0.0
  9
$DIMTM
 40
0.0
  9
$DIMTXT
 40
3.2000000000000002
  9
$DIMCEN
 40
0.0
  9
$DIMTSZ
 40
0.0
  9
$DIMTOL
 70
     0
  9
$DIMLIM
 70
     0
  9
$DIMTIH
 70
     0
  9
$DIMTOH
 70
     0
  9
$DIMSE1
 70
     0
  9
$DIMSE2
 70
     0
  9
$DIMTAD
 70
     1
  9
$DIMZIN
 70
     0
  9
$DIMBLK
  1

  9
$DIMASO
 70
     0
  9
$DIMSHO
 70
     0
  9
$DIMPOST
  1

  9
$DIMAPOST
  1

  9
$DIMALT
 70
     0
  9
$DIMALTD
 70
     2
  9
$DIMALTF
 40
25.399999999999999
  9
$DIMLFAC
 40
1.0
  9
$DIMTOFL
 70
     1
  9
$DIMTVP
 40
1.6000000000000001
  9
$DIMTIX
 70
     1
  9
$DIMSOXD
 70
     0
  9
$DIMSAH
 70
     0
  9
$DIMBLK1
  1

  9
$DIMBLK2
  1

  9
$DIMSTYLE
  2
STANDARD
  9
$DIMCLRD
 70
     0
  9
$DIMCLRE
 70
     0
  9
$DIMCLRT
 70
     0
  9
$DIMTFAC
 40
1.0
  9
$DIMGAP
 40
0.09
  9
$LUNITS
 70
     2
  9
$LUPREC
 70
     4
  9
$SKETCHINC
 40
0.1
  9
$FILLETRAD
 40
0.0
  9
$AUNITS
 70
     0
  9
$AUPREC
 70
     4
  9
$MENU
  1
E:\r13\win\SUPPORT\ACAD
  9
$ELEVATION
 40
0.0
  9
$PELEVATION
 40
0.0
  9
$THICKNESS
 40
0.0
  9
$LIMCHECK
 70
     0
  9
$BLIPMODE
 70
     0
  9
$CHAMFERA
 40
0.0
  9
$CHAMFERB
 40
0.0
  9
$SKPOLY
 70
     0
  9
$TDCREATE
 40
2449840.6173611111
  9
$TDUPDATE
 40
2456598.6678727199
  9
$TDINDWG
 40
0.0005050694
  9
$TDUSRTIMER
 40
0.0005050694
  9
$USRTIMER
 70
     1
  9
$ANGBASE
 50
0.0
  9
$ANGDIR
 70
     0
  9
$PDMODE
 70
     0
  9
$PDSIZE
 40
0.0
  9
$PLINEWID
 40
0.0
  9
$COORDS
 70
     1
  9
$SPLFRAME
 70
     0
  9
$SPLINETYPE
 70
     6
  9
$SPLINESEGS
 70
     8
  9
$ATTDIA
 70
     0
  9
$ATTREQ
 70
     1
  9
$HANDLING
 70
     1
  9
$HANDSEED
  5
253
  9
$SURFTAB1
 70
     6
  9
$SURFTAB2
 70
     6
  9
$SURFTYPE
 70
     6
  9
$SURFU
 70
     6
  9
$SURFV
 70
     6
  9
$UCSNAME
  2

  9
$UCSORG
 10
0.0
 20
0.0
 30
0.0
  9
$UCSXDIR
 10
1.0
 20
0.0
 30
0.0
  9
$UCSYDIR
 10
0.0
 20
1.0
 30
0.0
  9
$PUCSNAME
  2

  9
$PUCSORG
 10
0.0
 20
0.0
 30
0.0
  9
$PUCSXDIR
 10
1.0
 20
0.0
 30
0.0
  9
$PUCSYDIR
 10
0.0
 20
1.0
 30
0.0
  9
$USERI1
 70
     0
  9
$USERI2
 70
     1
  9
$USERI3
 70
     0
  9
$USERI4
 70
     0
  9
$USERI5
 70
     0
  9
$USERR1
 40
0.0
  9
$USERR2
 40
0.0
  9
$USERR3
 40
0.0
  9
$USERR4
 40
0.0
  9
$USERR5
 40
0.0
  9
$WORLDVIEW
 70
     1
  9
$SHADEDGE
 70
     3
  9
$SHADEDIF
 70
    70
  9
$TILEMODE
 70
     1
  9
$MAXACTVP
 70
    16
  9
$PLIMCHECK
 70
     0
  9
$PEXTMIN
 10
1.0000000000000000E+020
 20
1.0000000000000000E+020
 30
1.0000000000000000E+020
  9
$PEXTMAX
 10
-1.0000000000000000E+020
 20
-1.0000000000000000E+020
 30
-1.0000000000000000E+020
  9
$PLIMMIN
 10
0.0
 20
0.0
  9
$PLIMMAX
 10
12.0
 20
9.0
  9
$UNITMODE
 70
     0
  9
$VISRETAIN
 70
     0
  9
$PLINEGEN
 70
     0
  9
$PSLTSCALE
 70
     0
  0
ENDSEC
  0
SECTION
  2
TABLES
  0
TABLE
  2
VPORT
 70
     1
  0
VPORT
  2
*ACTIVE
 70
     0
 10
0.0
 20
0.0
 11
1.0
 21
1.0
 12
187.49427839065231
 22
174.91677254346851
 13
0.0
 23
0.0
 14
10.0
 24
10.0
 15
10.0
 25
10.0
 16
0.0
 26
0.0
 36
1.0
 17
0.0
 27
0.0
 37
0.0
 40
358.92027899574339
 41
1.7807262569832401
 42
50.0
 43
0.0
 44
0.0
 50
0.0
 51
0.0
 71
     0
 72
   100
 73
     1
 74
     0
 75
     0
 76
     0
 77
     0
 78
     2
  0
ENDTAB
  0
TABLE
  2
LTYPE
 70
     3
  0
LTYPE
  2
CONTINUOUS
 70
     0
  3
Solid Line
 72
    65
 73
     0
 40
0.0
  0
LTYPE
  2
CENTER
 70
     0
  3
____ _ ____ _ ____ _ ____ _ ____ _ ____ _ ____
 72
    65
 73
     4
 40
2.0
 49
1.25
 49
-0.25
 49
0.25
 49
-0.25
  0
LTYPE
  2
PHANTOM2
 70
     0
  3
___ _ _ ___ _ _ ___ _ _ ___ _ _
 72
    65
 73
     6
 40
1.25
 49
0.625
 49
-0.125
 49
0.125
 49
-0.125
 49
0.125
 49
-0.125
  0
ENDTAB
  0
TABLE
  2
LAYER
 70
     3
  0
LAYER
  2
0
 70
     0
 62
     7
  6
CONTINUOUS
  0
LAYER
  2
1
 70
     0
 62
     1
  6
CENTER
  0
LAYER
  2
3
 70
     0
 62
     3
  6
CONTINUOUS
  0
ENDTAB
  0
TABLE
  2
STYLE
 70
     3
  0
STYLE
  2
STANDARD
 70
     0
 40
0.0
 41
1.0
 50
0.0
 71
     0
 42
4.0
  3
TXT
  4
BIGFONT
  0
STYLE
  2
COMPLEX
 70
     0
 40
3.5
 41
0.4
 50
0.0
 71
     0
 42
3.0
  3
COMPLEX
  4

  0
STYLE
  2
STANDARD1
 70
     0
 40
0.0
 41
1.0
 50
0.0
 71
     0
 42
3.0
  3
txt
  4

  0
ENDTAB
  0
TABLE
  2
VIEW
 70
     1
  0
VIEW
  2
ALL
 70
     0
 40
270.0
 10
220.99159700000001
 20
135.0
 41
0.0
 11
0.0
 21
0.0
 31
1.0
 12
0.0
 22
0.0
 32
0.0
 42
0.0
 43
0.0
 44
0.0
 50
0.0
 71
     0
  0
ENDTAB
  0
TABLE
  2
UCS
 70
     0
  0
ENDTAB
  0
TABLE
  2
APPID
 70
     3
  0
APPID
  2
ACAD
 70
     0
  0
APPID
  2
ACAD_MLEADERVER
 70
     0
  0
APPID
  2
ACAD_NAV_VCDISPLAY
 70
     0
  0
ENDTAB
  0
TABLE
  2
DIMSTYLE
 70
     1
  0
DIMSTYLE
  2
STANDARD
 70
     0
  3

  4

  5

  6

  7

 40
1.0
 41
0.18
 42
0.0625
 43
0.38
 44
0.18
 45
0.0
 46
0.0
 47
0.0
 48
0.0
140
0.18
141
0.09
142
0.0
143
25.399999999999999
144
1.0
145
0.0
146
1.0
147
0.09
 71
     0
 72
     0
 73
     1
 74
     1
 75
     0
 76
     0
 77
     0
 78
     0
170
     0
171
     2
172
     0
173
     0
174
     0
175
     0
176
     0
177
     0
178
     0
  0
ENDTAB
  0
ENDSEC
  0
SECTION
  2
BLOCKS
  0
BLOCK
  8
0
  2
$MODEL_SPACE
 70
     0
 10
0.0
 20
0.0
 30
0.0
  3
$MODEL_SPACE
  1

  0
ENDBLK
  5
100
  8
0
  0
BLOCK
 67
     1
  8
0
  2
$PAPER_SPACE
 70
     0
 10
0.0
 20
0.0
 30
0.0
  3
$PAPER_SPACE
  1

  0
ENDBLK
  5
FE
 67
     1
  8
0
  0
ENDSEC
  0
SECTION
  2
ENTITIES
  0
LINE
  5
35
  8
0
 10
126.638982
 20
100.901978
 30
0.0
 11
128.638982
 21
102.901978
 31
0.0
  0
LINE
  5
36
  8
0
 10
128.638982
 20
102.901978
 30
0.0
 11
128.638982
 21
130.30197799999999
 31
0.0
  0
ARC
  5
37
  8
0
 10
129.23898199999999
 20
130.30197799999999
 30
0.0
 40
0.6
 50
90.0
 51
180.0
  0
LINE
  5
38
  8
3
 10
128.638982
 20
130.30197799999999
 30
0.0
 11
127.691982
 21
128.66172599999999
 31
0.0
  0
LINE
  5
39
  8
3
 10
127.691982
 20
128.66172599999999
 30
0.0
 11
127.691982
 21
101.954978
 31
0.0
  0
LINE
  5
3A
  8
3
 10
117.585982
 20
128.66172599999999
 30
0.0
 11
117.585982
 21
101.954978
 31
0.0
  0
LINE
  5
3B
  8
3
 10
116.638982
 20
130.30197799999999
 30
0.0
 11
117.585982
 21
128.66172599999999
 31
0.0
  0
ARC
  5
3C
  8
0
 10
116.038982
 20
130.30197799999999
 30
0.0
 40
0.6
 50
0.0
 51
90.0
  0
LINE
  5
3D
  8
0
 10
116.638982
 20
102.901978
 30
0.0
 11
116.638982
 21
130.30197799999999
 31
0.0
  0
LINE
  5
3E
  8
0
 10
118.638982
 20
100.901978
 30
0.0
 11
116.638982
 21
102.901978
 31
0.0
  0
LINE
  5
3F
  8
0
 10
116.638982
 20
128.66172599999999
 30
0.0
 11
128.638982
 21
128.66172599999999
 31
0.0
  0
LINE
  5
40
  8
0
 10
116.638982
 20
102.901978
 30
0.0
 11
128.638982
 21
102.901978
 31
0.0
  0
LINE
  5
41
  8
0
 10
118.638982
 20
100.901978
 30
0.0
 11
126.638982
 21
100.901978
 31
0.0
  0
CIRCLE
  5
42
  8
0
 10
122.638982
 20
233.507194
 30
0.0
 40
20.5
  0
LINE
  5
43
  8
1
 10
97.138981999999999
 20
233.507194
 30
0.0
 11
273.638982
 21
233.507194
 31
0.0
  0
LINE
  5
44
  8
1
 10
253.638982
 20
253.507194
 30
0.0
 11
253.638982
 21
213.507194
 31
0.0
  0
LINE
  5
45
  8
1
 10
122.638982
 20
259.00719400000003
 30
0.0
 11
122.638982
 21
208.007194
 31
0.0
  0
ARC
  5
46
  8
0
 10
253.638982
 20
233.507194
 30
0.0
 40
15.0
 50
209.926435
 51
150.073565
  0
LINE
  5
47
  8
0
 10
240.638982
 20
240.990509
 30
0.0
 11
240.638982
 21
226.02387899999999
 31
0.0
  0
CIRCLE
  5
48
  8
0
 10
122.638982
 20
233.507194
 30
0.0
 40
18.5
  0
CIRCLE
  5
49
  8
0
 10
122.638982
 20
233.507194
 30
0.0
 40
11.0
  0
CIRCLE
  5
4A
  8
0
 10
122.638982
 20
233.507194
 30
0.0
 40
7.5
  0
CIRCLE
  5
4B
  8
0
 10
122.638982
 20
242.507194
 30
0.0
 40
0.75
  0
LINE
  5
4C
  8
1
 10
119.388982
 20
242.507194
 30
0.0
 11
125.888982
 21
242.507194
 31
0.0
  0
LINE
  5
4D
  8
1
 10
119.388982
 20
224.507194
 30
0.0
 11
125.888982
 21
224.507194
 31
0.0
  0
CIRCLE
  5
4E
  8
0
 10
122.638982
 20
224.507194
 30
0.0
 40
0.75
  0
TEXT
  5
4F
  8
0
 10
120.3056486666667
 20
232.007194
 30
0.0
 40
3.5
  1
Kipp
 41
0.4
  7
COMPLEX
 72
     1
 11
122.638982
 21
232.007194
 31
0.0
  0
ARC
  5
50
  8
0
 10
127.835134
 20
230.507194
 30
0.0
 40
0.5
 50
270.0
 51
30.0
  0
ARC
  5
51
  8
0
 10
117.442829
 20
230.507194
 30
0.0
 40
0.5
 50
150.0
 51
270.0
  0
ARC
  5
52
  8
0
 10
122.638982
 20
239.507194
 30
0.0
 40
0.5
 50
30.0
 51
150.0
  0
LINE
  5
53
  8
0
 10
128.268147
 20
230.757194
 30
0.0
 11
123.071994
 21
239.757194
 31
0.0
  0
LINE
  5
54
  8
0
 10
117.442829
 20
230.007194
 30
0.0
 11
127.835134
 21
230.007194
 31
0.0
  0
LINE
  5
55
  8
0
 10
122.205969
 20
239.757194
 30
0.0
 11
117.009817
 21
230.757194
 31
0.0
  0
LINE
  5
56
  8
0
 10
142.241277
 20
239.507194
 30
0.0
 11
240.638982
 21
239.507194
 31
0.0
  0
LINE
  5
57
  8
0
 10
240.638982
 20
227.507194
 30
0.0
 11
142.241277
 21
227.507194
 31
0.0
  0
LINE
  5
58
  8
0
 10
240.638982
 20
138.40197800000001
 30
0.0
 11
143.138982
 21
138.40197800000001
 31
0.0
  0
LINE
  5
59
  8
0
 10
143.138982
 20
150.40197800000001
 30
0.0
 11
240.638982
 21
150.40197800000001
 31
0.0
  0
LINE
  5
5A
  8
0
 10
240.638982
 20
151.88529299999999
 30
0.0
 11
240.638982
 21
136.91866400000001
 31
0.0
  0
ARC
  5
5B
  8
0
 10
253.638982
 20
144.40197800000001
 30
0.0
 40
15.0
 50
209.926435
 51
150.073565
  0
LINE
  5
5C
  8
1
 10
253.638982
 20
164.40197800000001
 30
0.0
 11
253.638982
 21
124.401978
 31
0.0
  0
LINE
  5
5D
  8
1
 10
97.138981999999999
 20
144.40197800000001
 30
0.0
 11
273.638982
 21
144.40197800000001
 31
0.0
  0
LINE
  5
5E
  8
0
 10
104.138982
 20
152.90197800000001
 30
0.0
 11
102.138982
 21
150.90197800000001
 31
0.0
  0
LINE
  5
5F
  8
0
 10
102.138982
 20
150.90197800000001
 30
0.0
 11
102.138982
 21
133.90197800000001
 31
0.0
  0
LINE
  5
60
  8
0
 10
102.138982
 20
133.90197800000001
 30
0.0
 11
103.138982
 21
132.90197800000001
 31
0.0
  0
LINE
  5
61
  8
0
 10
113.138982
 20
132.90197800000001
 30
0.0
 11
113.138982
 21
131.50197800000001
 31
0.0
  0
LINE
  5
62
  8
0
 10
113.138982
 20
131.50197800000001
 30
0.0
 11
113.73898199999999
 21
130.90197800000001
 31
0.0
  0
LINE
  5
63
  8
0
 10
132.138982
 20
131.50197800000001
 30
0.0
 11
131.538982
 21
130.90197800000001
 31
0.0
  0
LINE
  5
64
  8
0
 10
132.138982
 20
132.90197800000001
 30
0.0
 11
132.138982
 21
131.50197800000001
 31
0.0
  0
LINE
  5
65
  8
0
 10
143.138982
 20
133.90197800000001
 30
0.0
 11
142.138982
 21
132.90197800000001
 31
0.0
  0
LINE
  5
66
  8
0
 10
143.138982
 20
150.90197800000001
 30
0.0
 11
143.138982
 21
150.40197800000001
 31
0.0
  0
LINE
  5
67
  8
0
 10
141.138982
 20
152.90197800000001
 30
0.0
 11
143.138982
 21
150.90197800000001
 31
0.0
  0
LINE
  5
68
  8
0
 10
104.138982
 20
152.90197800000001
 30
0.0
 11
141.138982
 21
152.90197800000001
 31
0.0
  0
LINE
  5
69
  8
0
 10
143.138982
 20
150.90197800000001
 30
0.0
 11
102.138982
 21
150.90197800000001
 31
0.0
  0
LINE
  5
6A
  8
0
 10
102.138982
 20
133.90197800000001
 30
0.0
 11
143.138982
 21
133.90197800000001
 31
0.0
  0
LINE
  5
6B
  8
0
 10
103.138982
 20
132.90197800000001
 30
0.0
 11
142.138982
 21
132.90197800000001
 31
0.0
  0
LINE
  5
6C
  8
0
 10
113.73898199999999
 20
130.90197800000001
 30
0.0
 11
131.538982
 21
130.90197800000001
 31
0.0
  0
ARC
  5
6D
  8
0
 10
162.741277
 20
144.40197800000001
 30
0.0
 40
20.5
 50
162.98135300000001
 51
197.01864699999999
  0
LINE
  5
6E
  8
0
 10
143.138982
 20
138.40197800000001
 30
0.0
 11
143.138982
 21
133.90197800000001
 31
0.0
  0
LINE
  5
6F
  8
1
 10
122.638982
 20
157.90197800000001
 30
0.0
 11
122.638982
 21
95.901978
 31
0.0
  0
LINE
  5
70
  8
0
 10
113.138982
 20
131.50197800000001
 30
0.0
 11
132.138982
 21
131.50197800000001
 31
0.0
  0
LINE
  5
71
  8
0
 10
240.638982
 20
31.009892000000001
 30
0.0
 11
142.241277
 21
31.009892000000001
 31
0.0
  0
LINE
  5
72
  8
0
 10
142.241277
 20
43.009892000000001
 30
0.0
 11
240.638982
 21
43.009892000000001
 31
0.0
  0
LINE
  5
73
  8
0
 10
240.638982
 20
44.493206999999998
 30
0.0
 11
240.638982
 21
29.52657700000001
 31
0.0
  0
ARC
  5
74
  8
0
 10
253.638982
 20
37.009892000000001
 30
0.0
 40
15.0
 50
209.926435
 51
150.073565
  0
LINE
  5
75
  8
1
 10
122.638982
 20
62.509892000000001
 30
0.0
 11
122.638982
 21
11.509892000000001
 31
0.0
  0
LINE
  5
76
  8
1
 10
253.638982
 20
57.009892000000001
 30
0.0
 11
253.638982
 21
17.009892000000001
 31
0.0
  0
LINE
  5
77
  8
1
 10
97.138981999999999
 20
37.009892000000001
 30
0.0
 11
273.638982
 21
37.009892000000001
 31
0.0
  0
CIRCLE
  5
78
  8
0
 10
122.638982
 20
37.009892000000001
 30
0.0
 40
20.5
  0
CIRCLE
  5
79
  8
0
 10
122.638982
 20
37.009892000000001
 30
0.0
 40
19.5
  0
CIRCLE
  5
7A
  8
0
 10
122.638982
 20
37.009892000000001
 30
0.0
 40
9.5
  0
CIRCLE
  5
7B
  8
0
 10
122.638982
 20
37.009892000000001
 30
0.0
 40
8.9000000000000004
  0
CIRCLE
  5
7C
  8
0
 10
122.638982
 20
37.009892000000001
 30
0.0
 40
6.0
  0
CIRCLE
  5
7D
  8
3
 10
122.638982
 20
37.009892000000001
 30
0.0
 40
5.052999999999999
  0
LINE
  5
7E
  8
0
 10
322.79975100000001
 20
131.50197800000001
 30
0.0
 11
324.64534099999997
 21
131.50197800000001
 31
0.0
  0
LINE
  5
7F
  8
1
 10
332.2997509999999
 20
164.40197800000001
 30
0.0
 11
332.2997509999999
 21
95.901978
 31
0.0
  0
LINE
  5
80
  8
0
 10
352.79975100000001
 20
150.90197800000001
 30
0.0
 11
352.79975100000001
 21
133.90197800000001
 31
0.0
  0
LINE
  5
81
  8
0
 10
323.39975099999998
 20
130.90197800000001
 30
0.0
 11
325.76140299999997
 21
130.90197800000001
 31
0.0
  0
LINE
  5
82
  8
0
 10
312.79975100000001
 20
132.90197800000001
 30
0.0
 11
322.66907099999997
 21
132.90197800000001
 31
0.0
  0
LINE
  5
83
  8
0
 10
311.7997509999999
 20
133.90197800000001
 30
0.0
 11
321.58760899999999
 21
133.90197800000001
 31
0.0
  0
LINE
  5
84
  8
0
 10
352.79975100000001
 20
150.90197800000001
 30
0.0
 11
345.8182569999999
 21
150.90197800000001
 31
0.0
  0
LINE
  5
85
  8
0
 10
313.7997509999999
 20
152.90197800000001
 30
0.0
 11
319.94054399999999
 21
152.90197800000001
 31
0.0
  0
LINE
  5
86
  8
0
 10
350.79975100000001
 20
152.90197800000001
 30
0.0
 11
352.79975100000001
 21
150.90197800000001
 31
0.0
  0
LINE
  5
87
  8
0
 10
352.79975100000001
 20
133.90197800000001
 30
0.0
 11
351.79975100000001
 21
132.90197800000001
 31
0.0
  0
LINE
  5
88
  8
0
 10
341.79975100000001
 20
132.90197800000001
 30
0.0
 11
341.79975100000001
 21
131.50197800000001
 31
0.0
  0
LINE
  5
89
  8
0
 10
341.79975100000001
 20
131.50197800000001
 30
0.0
 11
341.19975099999999
 21
130.90197800000001
 31
0.0
  0
LINE
  5
8A
  8
0
 10
322.79975100000001
 20
131.50197800000001
 30
0.0
 11
323.39975099999998
 21
130.90197800000001
 31
0.0
  0
LINE
  5
8B
  8
0
 10
322.79975100000001
 20
132.90197800000001
 30
0.0
 11
322.79975100000001
 21
131.50197800000001
 31
0.0
  0
LINE
  5
8C
  8
0
 10
311.7997509999999
 20
133.90197800000001
 30
0.0
 11
312.79975100000001
 21
132.90197800000001
 31
0.0
  0
LINE
  5
8D
  8
0
 10
311.7997509999999
 20
150.90197800000001
 30
0.0
 11
311.7997509999999
 21
133.90197800000001
 31
0.0
  0
LINE
  5
8E
  8
0
 10
313.7997509999999
 20
152.90197800000001
 30
0.0
 11
311.7997509999999
 21
150.90197800000001
 31
0.0
  0
LINE
  5
8F
  8
1
 10
306.79975100000001
 20
144.40197800000001
 30
0.0
 11
357.7997509999999
 21
144.40197800000001
 31
0.0
  0
CIRCLE
  5
90
  8
0
 10
332.2997509999999
 20
144.40197800000001
 30
0.0
 40
15.0
  0
LINE
  5
91
  8
0
 10
344.65895799999998
 20
152.90197800000001
 30
0.0
 11
350.79975100000001
 21
152.90197800000001
 31
0.0
  0
LINE
  5
92
  8
0
 10
318.78124500000001
 20
150.90197800000001
 30
0.0
 11
311.7997509999999
 21
150.90197800000001
 31
0.0
  0
LINE
  5
93
  8
0
 10
343.01189399999998
 20
133.90197800000001
 30
0.0
 11
352.79975100000001
 21
133.90197800000001
 31
0.0
  0
LINE
  5
94
  8
0
 10
341.930431
 20
132.90197800000001
 30
0.0
 11
351.79975100000001
 21
132.90197800000001
 31
0.0
  0
LINE
  5
95
  8
0
 10
339.954162
 20
131.50197800000001
 30
0.0
 11
341.79975100000001
 21
131.50197800000001
 31
0.0
  0
LINE
  5
96
  8
0
 10
338.8381
 20
130.90197800000001
 30
0.0
 11
341.19975099999999
 21
130.90197800000001
 31
0.0
  0
LINE
  5
97
  8
0
 10
66.480540000000005
 20
150.90197800000001
 30
0.0
 11
25.480540000000001
 21
150.90197800000001
 31
0.0
  0
ARC
  5
98
  8
0
 10
45.980539999999998
 20
144.40197800000001
 30
0.0
 40
15.0
 50
34.518107999999998
 51
145.48189199999999
  0
LINE
  5
99
  8
1
 10
20.480540000000001
 20
144.40197800000001
 30
0.0
 11
71.480540000000005
 21
144.40197800000001
 31
0.0
  0
LINE
  5
9A
  8
0
 10
27.480540000000001
 20
152.90197800000001
 30
0.0
 11
25.480540000000001
 21
150.90197800000001
 31
0.0
  0
LINE
  5
9B
  8
0
 10
25.480540000000001
 20
150.90197800000001
 30
0.0
 11
25.480540000000001
 21
133.90197800000001
 31
0.0
  0
LINE
  5
9C
  8
0
 10
25.480540000000001
 20
133.90197800000001
 30
0.0
 11
26.480540000000001
 21
132.90197800000001
 31
0.0
  0
LINE
  5
9D
  8
0
 10
36.480540000000012
 20
132.90197800000001
 30
0.0
 11
36.480540000000012
 21
131.50197800000001
 31
0.0
  0
LINE
  5
9E
  8
0
 10
36.480540000000012
 20
131.50197800000001
 30
0.0
 11
37.080539999999999
 21
130.90197800000001
 31
0.0
  0
LINE
  5
9F
  8
0
 10
55.480539999999998
 20
131.50197800000001
 30
0.0
 11
54.880540000000003
 21
130.90197800000001
 31
0.0
  0
LINE
  5
A0
  8
0
 10
55.480539999999998
 20
132.90197800000001
 30
0.0
 11
55.480539999999998
 21
131.50197800000001
 31
0.0
  0
LINE
  5
A1
  8
0
 10
66.480540000000005
 20
133.90197800000001
 30
0.0
 11
65.480540000000005
 21
132.90197800000001
 31
0.0
  0
LINE
  5
A2
  8
0
 10
64.480540000000005
 20
152.90197800000001
 30
0.0
 11
66.480540000000005
 21
150.90197800000001
 31
0.0
  0
LINE
  5
A3
  8
0
 10
27.480540000000001
 20
152.90197800000001
 30
0.0
 11
64.480540000000005
 21
152.90197800000001
 31
0.0
  0
LINE
  5
A4
  8
0
 10
25.480540000000001
 20
133.90197800000001
 30
0.0
 11
66.480540000000005
 21
133.90197800000001
 31
0.0
  0
LINE
  5
A5
  8
0
 10
26.480540000000001
 20
132.90197800000001
 30
0.0
 11
65.480540000000005
 21
132.90197800000001
 31
0.0
  0
LINE
  5
A6
  8
0
 10
37.080539999999999
 20
130.90197800000001
 30
0.0
 11
54.880540000000003
 21
130.90197800000001
 31
0.0
  0
LINE
  5
A7
  8
0
 10
66.480540000000005
 20
150.90197800000001
 30
0.0
 11
66.480540000000005
 21
133.90197800000001
 31
0.0
  0
LINE
  5
A8
  8
1
 10
45.980539999999998
 20
164.40197800000001
 30
0.0
 11
45.980539999999998
 21
95.901978
 31
0.0
  0
LINE
  5
A9
  8
0
 10
36.480540000000012
 20
131.50197800000001
 30
0.0
 11
55.480539999999998
 21
131.50197800000001
 31
0.0
  0
LINE
  5
AA
  8
0
 10
41.980539999999998
 20
100.901978
 30
0.0
 11
49.980539999999998
 21
100.901978
 31
0.0
  0
LINE
  5
AB
  8
0
 10
39.980540000000012
 20
102.901978
 30
0.0
 11
51.980539999999998
 21
102.901978
 31
0.0
  0
LINE
  5
AC
  8
0
 10
39.980540000000012
 20
128.66172599999999
 30
0.0
 11
51.980539999999998
 21
128.66172599999999
 31
0.0
  0
LINE
  5
AD
  8
0
 10
41.980539999999998
 20
100.901978
 30
0.0
 11
39.980540000000012
 21
102.901978
 31
0.0
  0
LINE
  5
AE
  8
0
 10
39.980540000000012
 20
102.901978
 30
0.0
 11
39.980540000000012
 21
130.30197799999999
 31
0.0
  0
ARC
  5
AF
  8
0
 10
39.380540000000011
 20
130.30197799999999
 30
0.0
 40
0.6
 50
0.0
 51
90.0
  0
LINE
  5
B0
  8
3
 10
39.980540000000012
 20
130.30197799999999
 30
0.0
 11
40.92754
 21
128.66172599999999
 31
0.0
  0
LINE
  5
B1
  8
3
 10
40.92754
 20
128.66172599999999
 30
0.0
 11
40.92754
 21
101.954978
 31
0.0
  0
LINE
  5
B2
  8
3
 10
51.033540000000002
 20
128.66172599999999
 30
0.0
 11
51.033540000000002
 21
101.954978
 31
0.0
  0
LINE
  5
B3
  8
3
 10
51.980539999999998
 20
130.30197799999999
 30
0.0
 11
51.033540000000002
 21
128.66172599999999
 31
0.0
  0
ARC
  5
B4
  8
0
 10
52.580539999999999
 20
130.30197799999999
 30
0.0
 40
0.6
 50
90.0
 51
180.0
  0
LINE
  5
B5
  8
0
 10
51.980539999999998
 20
102.901978
 30
0.0
 11
51.980539999999998
 21
130.30197799999999
 31
0.0
  0
LINE
  5
B6
  8
0
 10
49.980539999999998
 20
100.901978
 30
0.0
 11
51.980539999999998
 21
102.901978
 31
0.0
  0
LINE
  5
B7
  8
0
 10
328.2997509999999
 20
100.901978
 30
0.0
 11
336.29975100000001
 21
100.901978
 31
0.0
  0
LINE
  5
B8
  8
0
 10
326.2997509999999
 20
102.901978
 30
0.0
 11
338.29975100000001
 21
102.901978
 31
0.0
  0
LINE
  5
B9
  8
0
 10
326.2997509999999
 20
128.66172599999999
 30
0.0
 11
338.29975100000001
 21
128.66172599999999
 31
0.0
  0
LINE
  5
BA
  8
0
 10
328.2997509999999
 20
100.901978
 30
0.0
 11
326.2997509999999
 21
102.901978
 31
0.0
  0
LINE
  5
BB
  8
0
 10
326.2997509999999
 20
102.901978
 30
0.0
 11
326.2997509999999
 21
130.30197799999999
 31
0.0
  0
LINE
  5
BC
  8
3
 10
326.2997509999999
 20
130.30197799999999
 30
0.0
 11
327.24675100000002
 21
128.66172599999999
 31
0.0
  0
LINE
  5
BD
  8
3
 10
327.24675100000002
 20
128.66172599999999
 30
0.0
 11
327.24675100000002
 21
101.954978
 31
0.0
  0
LINE
  5
BE
  8
3
 10
337.35275100000001
 20
128.66172599999999
 30
0.0
 11
337.35275100000001
 21
101.954978
 31
0.0
  0
LINE
  5
BF
  8
3
 10
338.29975100000001
 20
130.30197799999999
 30
0.0
 11
337.35275100000001
 21
128.66172599999999
 31
0.0
  0
ARC
  5
C0
  8
0
 10
338.89975099999998
 20
130.30197799999999
 30
0.0
 40
0.6
 50
90.0
 51
180.0
  0
LINE
  5
C1
  8
0
 10
338.29975100000001
 20
102.901978
 30
0.0
 11
338.29975100000001
 21
130.30197799999999
 31
0.0
  0
LINE
  5
C2
  8
0
 10
336.29975100000001
 20
100.901978
 30
0.0
 11
338.29975100000001
 21
102.901978
 31
0.0
  0
ARC
  5
C3
  8
0
 10
325.69975099999999
 20
130.30197799999999
 30
0.0
 40
0.6
 50
0.0
 51
90.0
  0
TEXT
  5
1C1
  8
0
 62
     3
 10
0.0
 20
0.0
 30
0.0
 40
10.0
  1
FT12X30-SUS
  7
STANDARD1
  0
ENDSEC
  0
EOF
