  0
SECTION
  2
HEADER
  9
$ACADVER
  1
AC1009
  9
$INSBASE
 10
0.0
 20
0.0
 30
0.0
  9
$EXTMIN
 10
0.0
 20
-2.960436562073669
 30
0.0
  9
$EXTMAX
 10
359.162148
 20
260.8012589999999
 30
0.0
  9
$LIMMIN
 10
0.0
 20
0.0
  9
$LIMMAX
 10
375.0
 20
270.0
  9
$ORTHOMODE
 70
     1
  9
$REGENMODE
 70
     1
  9
$FILLMODE
 70
     1
  9
$QTEXTMODE
 70
     0
  9
$MIRRTEXT
 70
     0
  9
$DRAGMODE
 70
     2
  9
$LTSCALE
 40
10.0
  9
$OSMODE
 70
    55
  9
$ATTMODE
 70
     1
  9
$TEXTSIZE
 40
0.2
  9
$TRACEWID
 40
0.05
  9
$TEXTSTYLE
  7
STANDARD
  9
$CLAYER
  8
0
  9
$CELTYPE
  6
BYLAYER
  9
$CECOLOR
 62
   256
  9
$DIMSCALE
 40
1.0
  9
$DIMASZ
 40
3.0
  9
$DIMEXO
 40
2.0
  9
$DIMDLI
 40
0.38
  9
$DIMRND
 40
0.0
  9
$DIMDLE
 40
0.0
  9
$DIMEXE
 40
2.0
  9
$DIMTP
 40
0.0
  9
$DIMTM
 40
0.0
  9
$DIMTXT
 40
3.2000000000000002
  9
$DIMCEN
 40
0.0
  9
$DIMTSZ
 40
0.0
  9
$DIMTOL
 70
     0
  9
$DIMLIM
 70
     0
  9
$DIMTIH
 70
     0
  9
$DIMTOH
 70
     0
  9
$DIMSE1
 70
     0
  9
$DIMSE2
 70
     0
  9
$DIMTAD
 70
     1
  9
$DIMZIN
 70
     0
  9
$DIMBLK
  1

  9
$DIMASO
 70
     0
  9
$DIMSHO
 70
     0
  9
$DIMPOST
  1

  9
$DIMAPOST
  1

  9
$DIMALT
 70
     0
  9
$DIMALTD
 70
     2
  9
$DIMALTF
 40
25.399999999999999
  9
$DIMLFAC
 40
1.0
  9
$DIMTOFL
 70
     1
  9
$DIMTVP
 40
1.6000000000000001
  9
$DIMTIX
 70
     1
  9
$DIMSOXD
 70
     0
  9
$DIMSAH
 70
     0
  9
$DIMBLK1
  1

  9
$DIMBLK2
  1

  9
$DIMSTYLE
  2
STANDARD
  9
$DIMCLRD
 70
     0
  9
$DIMCLRE
 70
     0
  9
$DIMCLRT
 70
     0
  9
$DIMTFAC
 40
1.0
  9
$DIMGAP
 40
0.09
  9
$LUNITS
 70
     2
  9
$LUPREC
 70
     4
  9
$SKETCHINC
 40
0.1
  9
$FILLETRAD
 40
0.0
  9
$AUNITS
 70
     0
  9
$AUPREC
 70
     4
  9
$MENU
  1
E:\r13\win\SUPPORT\ACAD
  9
$ELEVATION
 40
0.0
  9
$PELEVATION
 40
0.0
  9
$THICKNESS
 40
0.0
  9
$LIMCHECK
 70
     0
  9
$BLIPMODE
 70
     0
  9
$CHAMFERA
 40
0.0
  9
$CHAMFERB
 40
0.0
  9
$SKPOLY
 70
     0
  9
$TDCREATE
 40
2449840.6174537041
  9
$TDUPDATE
 40
2456598.6680756831
  9
$TDINDWG
 40
0.0011108102
  9
$TDUSRTIMER
 40
0.0011108102
  9
$USRTIMER
 70
     1
  9
$ANGBASE
 50
0.0
  9
$ANGDIR
 70
     0
  9
$PDMODE
 70
     0
  9
$PDSIZE
 40
0.0
  9
$PLINEWID
 40
0.0
  9
$COORDS
 70
     1
  9
$SPLFRAME
 70
     0
  9
$SPLINETYPE
 70
     6
  9
$SPLINESEGS
 70
     8
  9
$ATTDIA
 70
     0
  9
$ATTREQ
 70
     1
  9
$HANDLING
 70
     1
  9
$HANDSEED
  5
257
  9
$SURFTAB1
 70
     6
  9
$SURFTAB2
 70
     6
  9
$SURFTYPE
 70
     6
  9
$SURFU
 70
     6
  9
$SURFV
 70
     6
  9
$UCSNAME
  2

  9
$UCSORG
 10
0.0
 20
0.0
 30
0.0
  9
$UCSXDIR
 10
1.0
 20
0.0
 30
0.0
  9
$UCSYDIR
 10
0.0
 20
1.0
 30
0.0
  9
$PUCSNAME
  2

  9
$PUCSORG
 10
0.0
 20
0.0
 30
0.0
  9
$PUCSXDIR
 10
1.0
 20
0.0
 30
0.0
  9
$PUCSYDIR
 10
0.0
 20
1.0
 30
0.0
  9
$USERI1
 70
     0
  9
$USERI2
 70
     1
  9
$USERI3
 70
     0
  9
$USERI4
 70
     0
  9
$USERI5
 70
     0
  9
$USERR1
 40
0.0
  9
$USERR2
 40
0.0
  9
$USERR3
 40
0.0
  9
$USERR4
 40
0.0
  9
$USERR5
 40
0.0
  9
$WORLDVIEW
 70
     1
  9
$SHADEDGE
 70
     3
  9
$SHADEDIF
 70
    70
  9
$TILEMODE
 70
     1
  9
$MAXACTVP
 70
    16
  9
$PLIMCHECK
 70
     0
  9
$PEXTMIN
 10
1.0000000000000000E+020
 20
1.0000000000000000E+020
 30
1.0000000000000000E+020
  9
$PEXTMAX
 10
-1.0000000000000000E+020
 20
-1.0000000000000000E+020
 30
-1.0000000000000000E+020
  9
$PLIMMIN
 10
0.0
 20
0.0
  9
$PLIMMAX
 10
12.0
 20
9.0
  9
$UNITMODE
 70
     0
  9
$VISRETAIN
 70
     0
  9
$PLINEGEN
 70
     0
  9
$PSLTSCALE
 70
     0
  0
ENDSEC
  0
SECTION
  2
TABLES
  0
TABLE
  2
VPORT
 70
     1
  0
VPORT
  2
*ACTIVE
 70
     0
 10
0.0
 20
0.0
 11
1.0
 21
1.0
 12
187.49427839065231
 22
174.91677254346851
 13
0.0
 23
0.0
 14
10.0
 24
10.0
 15
10.0
 25
10.0
 16
0.0
 26
0.0
 36
1.0
 17
0.0
 27
0.0
 37
0.0
 40
358.92027899574339
 41
1.7807262569832401
 42
50.0
 43
0.0
 44
0.0
 50
0.0
 51
0.0
 71
     0
 72
   100
 73
     1
 74
     0
 75
     0
 76
     0
 77
     0
 78
     2
  0
ENDTAB
  0
TABLE
  2
LTYPE
 70
     3
  0
LTYPE
  2
CONTINUOUS
 70
     0
  3
Solid Line
 72
    65
 73
     0
 40
0.0
  0
LTYPE
  2
CENTER
 70
     0
  3
____ _ ____ _ ____ _ ____ _ ____ _ ____ _ ____
 72
    65
 73
     4
 40
2.0
 49
1.25
 49
-0.25
 49
0.25
 49
-0.25
  0
LTYPE
  2
PHANTOM2
 70
     0
  3
___ _ _ ___ _ _ ___ _ _ ___ _ _
 72
    65
 73
     6
 40
1.25
 49
0.625
 49
-0.125
 49
0.125
 49
-0.125
 49
0.125
 49
-0.125
  0
ENDTAB
  0
TABLE
  2
LAYER
 70
     3
  0
LAYER
  2
0
 70
     0
 62
     7
  6
CONTINUOUS
  0
LAYER
  2
1
 70
     0
 62
     1
  6
CENTER
  0
LAYER
  2
3
 70
     0
 62
     3
  6
CONTINUOUS
  0
ENDTAB
  0
TABLE
  2
STYLE
 70
     3
  0
STYLE
  2
STANDARD
 70
     0
 40
0.0
 41
1.0
 50
0.0
 71
     0
 42
0.2
  3
TXT
  4
BIGFONT
  0
STYLE
  2
COMPLEX
 70
     0
 40
3.5
 41
0.4
 50
0.0
 71
     0
 42
3.0
  3
COMPLEX
  4

  0
STYLE
  2
STANDARD1
 70
     0
 40
0.0
 41
1.0
 50
0.0
 71
     0
 42
3.0
  3
txt
  4

  0
ENDTAB
  0
TABLE
  2
VIEW
 70
     1
  0
VIEW
  2
ALL
 70
     0
 40
270.0
 10
220.99159700000001
 20
135.0
 41
0.0
 11
0.0
 21
0.0
 31
1.0
 12
0.0
 22
0.0
 32
0.0
 42
0.0
 43
0.0
 44
0.0
 50
0.0
 71
     0
  0
ENDTAB
  0
TABLE
  2
UCS
 70
     0
  0
ENDTAB
  0
TABLE
  2
APPID
 70
     3
  0
APPID
  2
ACAD
 70
     0
  0
APPID
  2
ACAD_MLEADERVER
 70
     0
  0
APPID
  2
ACAD_NAV_VCDISPLAY
 70
     0
  0
ENDTAB
  0
TABLE
  2
DIMSTYLE
 70
     1
  0
DIMSTYLE
  2
STANDARD
 70
     0
  3

  4

  5

  6

  7

 40
1.0
 41
0.18
 42
0.0625
 43
0.38
 44
0.18
 45
0.0
 46
0.0
 47
0.0
 48
0.0
140
0.18
141
0.09
142
0.0
143
25.399999999999999
144
1.0
145
0.0
146
1.0
147
0.09
 71
     0
 72
     0
 73
     1
 74
     1
 75
     0
 76
     0
 77
     0
 78
     0
170
     0
171
     2
172
     0
173
     0
174
     0
175
     0
176
     0
177
     0
178
     0
  0
ENDTAB
  0
ENDSEC
  0
SECTION
  2
BLOCKS
  0
BLOCK
  8
0
  2
$MODEL_SPACE
 70
     0
 10
0.0
 20
0.0
 30
0.0
  3
$MODEL_SPACE
  1

  0
ENDBLK
  5
104
  8
0
  0
BLOCK
 67
     1
  8
0
  2
$PAPER_SPACE
 70
     0
 10
0.0
 20
0.0
 30
0.0
  3
$PAPER_SPACE
  1

  0
ENDBLK
  5
102
 67
     1
  8
0
  0
ENDSEC
  0
SECTION
  2
ENTITIES
  0
LINE
  5
35
  8
0
 10
125.735213
 20
84.512590000000003
 30
0.0
 11
127.735213
 21
86.512590000000003
 31
0.0
  0
LINE
  5
36
  8
0
 10
127.735213
 20
86.512590000000003
 30
0.0
 11
127.735213
 21
143.91258999999999
 31
0.0
  0
ARC
  5
37
  8
0
 10
128.33521300000001
 20
143.91258999999999
 30
0.0
 40
0.6
 50
90.0
 51
180.0
  0
LINE
  5
38
  8
3
 10
127.735213
 20
143.91258999999999
 30
0.0
 11
126.788213
 21
142.27233799999999
 31
0.0
  0
LINE
  5
39
  8
3
 10
126.788213
 20
142.27233799999999
 30
0.0
 11
126.788213
 21
85.56559
 31
0.0
  0
LINE
  5
3A
  8
3
 10
116.682213
 20
142.27233799999999
 30
0.0
 11
116.682213
 21
85.56559
 31
0.0
  0
LINE
  5
3B
  8
3
 10
115.735213
 20
143.91258999999999
 30
0.0
 11
116.682213
 21
142.27233799999999
 31
0.0
  0
ARC
  5
3C
  8
0
 10
115.13521299999999
 20
143.91258999999999
 30
0.0
 40
0.6
 50
0.0
 51
90.0
  0
LINE
  5
3D
  8
0
 10
115.735213
 20
86.512590000000003
 30
0.0
 11
115.735213
 21
143.91258999999999
 31
0.0
  0
LINE
  5
3E
  8
0
 10
117.735213
 20
84.512590000000003
 30
0.0
 11
115.735213
 21
86.512590000000003
 31
0.0
  0
LINE
  5
3F
  8
0
 10
115.735213
 20
142.27233799999999
 30
0.0
 11
127.735213
 21
142.27233799999999
 31
0.0
  0
LINE
  5
40
  8
0
 10
115.735213
 20
86.512590000000003
 30
0.0
 11
127.735213
 21
86.512590000000003
 31
0.0
  0
LINE
  5
41
  8
0
 10
117.735213
 20
84.512590000000003
 30
0.0
 11
125.735213
 21
84.512590000000003
 31
0.0
  0
CIRCLE
  5
42
  8
0
 10
121.735213
 20
235.30125899999999
 30
0.0
 40
20.5
  0
LINE
  5
43
  8
1
 10
96.235213000000002
 20
235.30125899999999
 30
0.0
 11
272.73521299999999
 21
235.30125899999999
 31
0.0
  0
LINE
  5
44
  8
1
 10
252.73521299999999
 20
255.30125899999999
 30
0.0
 11
252.73521299999999
 21
215.30125899999999
 31
0.0
  0
LINE
  5
45
  8
1
 10
121.735213
 20
260.8012589999999
 30
0.0
 11
121.735213
 21
209.80125899999999
 31
0.0
  0
ARC
  5
46
  8
0
 10
252.73521299999999
 20
235.30125899999999
 30
0.0
 40
15.0
 50
209.926435
 51
150.073565
  0
LINE
  5
47
  8
0
 10
239.73521299999999
 20
242.78457399999999
 30
0.0
 11
239.73521299999999
 21
227.81794400000001
 31
0.0
  0
CIRCLE
  5
48
  8
0
 10
121.735213
 20
235.30125899999999
 30
0.0
 40
18.5
  0
CIRCLE
  5
49
  8
0
 10
121.735213
 20
235.30125899999999
 30
0.0
 40
11.0
  0
CIRCLE
  5
4A
  8
0
 10
121.735213
 20
235.30125899999999
 30
0.0
 40
7.5
  0
CIRCLE
  5
4B
  8
0
 10
121.735213
 20
244.30125899999999
 30
0.0
 40
0.75
  0
LINE
  5
4C
  8
1
 10
118.485213
 20
244.30125899999999
 30
0.0
 11
124.985213
 21
244.30125899999999
 31
0.0
  0
LINE
  5
4D
  8
1
 10
118.485213
 20
226.30125899999999
 30
0.0
 11
124.985213
 21
226.30125899999999
 31
0.0
  0
CIRCLE
  5
4E
  8
0
 10
121.735213
 20
226.30125899999999
 30
0.0
 40
0.75
  0
TEXT
  5
4F
  8
0
 10
119.4018796666666
 20
233.80125899999999
 30
0.0
 40
3.5
  1
Kipp
 41
0.4
  7
COMPLEX
 72
     1
 11
121.735213
 21
233.80125899999999
 31
0.0
  0
ARC
  5
50
  8
0
 10
126.931366
 20
232.30125899999999
 30
0.0
 40
0.5
 50
270.0
 51
30.0
  0
ARC
  5
51
  8
0
 10
116.539061
 20
232.30125899999999
 30
0.0
 40
0.5
 50
150.0
 51
270.0
  0
ARC
  5
52
  8
0
 10
121.735213
 20
241.30125899999999
 30
0.0
 40
0.5
 50
30.0
 51
150.0
  0
LINE
  5
53
  8
0
 10
127.364378
 20
232.55125899999999
 30
0.0
 11
122.168226
 21
241.55125899999999
 31
0.0
  0
LINE
  5
54
  8
0
 10
116.539061
 20
231.80125899999999
 30
0.0
 11
126.931366
 21
231.80125899999999
 31
0.0
  0
LINE
  5
55
  8
0
 10
121.302201
 20
241.55125899999999
 30
0.0
 11
116.106048
 21
232.55125899999999
 31
0.0
  0
LINE
  5
56
  8
0
 10
141.33750900000001
 20
241.30125899999999
 30
0.0
 11
239.73521299999999
 21
241.30125899999999
 31
0.0
  0
LINE
  5
57
  8
0
 10
239.73521299999999
 20
229.30125899999999
 30
0.0
 11
141.33750900000001
 21
229.30125899999999
 31
0.0
  0
LINE
  5
58
  8
0
 10
239.73521299999999
 20
152.01258999999999
 30
0.0
 11
142.23521299999999
 21
152.01258999999999
 31
0.0
  0
LINE
  5
59
  8
0
 10
142.23521299999999
 20
164.01258999999999
 30
0.0
 11
239.73521299999999
 21
164.01258999999999
 31
0.0
  0
LINE
  5
5A
  8
0
 10
239.73521299999999
 20
165.49590499999999
 30
0.0
 11
239.73521299999999
 21
150.52927500000001
 31
0.0
  0
ARC
  5
5B
  8
0
 10
252.73521299999999
 20
158.01258999999999
 30
0.0
 40
15.0
 50
209.926435
 51
150.073565
  0
LINE
  5
5C
  8
1
 10
252.73521299999999
 20
178.0125899999999
 30
0.0
 11
252.73521299999999
 21
138.01258999999999
 31
0.0
  0
LINE
  5
5D
  8
1
 10
96.235213000000002
 20
158.01258999999999
 30
0.0
 11
272.73521299999999
 21
158.01258999999999
 31
0.0
  0
LINE
  5
5E
  8
0
 10
103.235213
 20
166.51258999999999
 30
0.0
 11
101.235213
 21
164.51258999999999
 31
0.0
  0
LINE
  5
5F
  8
0
 10
101.235213
 20
164.51258999999999
 30
0.0
 11
101.235213
 21
147.51258999999999
 31
0.0
  0
LINE
  5
60
  8
0
 10
101.235213
 20
147.51258999999999
 30
0.0
 11
102.235213
 21
146.51258999999999
 31
0.0
  0
LINE
  5
61
  8
0
 10
112.235213
 20
146.51258999999999
 30
0.0
 11
112.235213
 21
145.11259000000001
 31
0.0
  0
LINE
  5
62
  8
0
 10
112.235213
 20
145.11259000000001
 30
0.0
 11
112.835213
 21
144.51258999999999
 31
0.0
  0
LINE
  5
63
  8
0
 10
131.23521299999999
 20
145.11259000000001
 30
0.0
 11
130.63521299999999
 21
144.51258999999999
 31
0.0
  0
LINE
  5
64
  8
0
 10
131.23521299999999
 20
146.51258999999999
 30
0.0
 11
131.23521299999999
 21
145.11259000000001
 31
0.0
  0
LINE
  5
65
  8
0
 10
142.23521299999999
 20
147.51258999999999
 30
0.0
 11
141.23521299999999
 21
146.51258999999999
 31
0.0
  0
LINE
  5
66
  8
0
 10
142.23521299999999
 20
164.51258999999999
 30
0.0
 11
142.23521299999999
 21
164.01258999999999
 31
0.0
  0
LINE
  5
67
  8
0
 10
140.23521299999999
 20
166.51258999999999
 30
0.0
 11
142.23521299999999
 21
164.51258999999999
 31
0.0
  0
LINE
  5
68
  8
0
 10
103.235213
 20
166.51258999999999
 30
0.0
 11
140.23521299999999
 21
166.51258999999999
 31
0.0
  0
LINE
  5
69
  8
0
 10
142.23521299999999
 20
164.51258999999999
 30
0.0
 11
101.235213
 21
164.51258999999999
 31
0.0
  0
LINE
  5
6A
  8
0
 10
101.235213
 20
147.51258999999999
 30
0.0
 11
142.23521299999999
 21
147.51258999999999
 31
0.0
  0
LINE
  5
6B
  8
0
 10
102.235213
 20
146.51258999999999
 30
0.0
 11
141.23521299999999
 21
146.51258999999999
 31
0.0
  0
LINE
  5
6C
  8
0
 10
112.835213
 20
144.51258999999999
 30
0.0
 11
130.63521299999999
 21
144.51258999999999
 31
0.0
  0
ARC
  5
6D
  8
0
 10
161.83750900000001
 20
158.01258999999999
 30
0.0
 40
20.5
 50
162.98135300000001
 51
197.01864699999999
  0
LINE
  5
6E
  8
0
 10
142.23521299999999
 20
152.01258999999999
 30
0.0
 11
142.23521299999999
 21
147.51258999999999
 31
0.0
  0
LINE
  5
6F
  8
1
 10
121.735213
 20
171.51258999999999
 30
0.0
 11
121.735213
 21
79.512590000000003
 31
0.0
  0
LINE
  5
70
  8
0
 10
112.235213
 20
145.11259000000001
 30
0.0
 11
131.23521299999999
 21
145.11259000000001
 31
0.0
  0
LINE
  5
71
  8
0
 10
239.73521299999999
 20
28.298560999999999
 30
0.0
 11
141.33750900000001
 21
28.298560999999999
 31
0.0
  0
LINE
  5
72
  8
0
 10
141.33750900000001
 20
40.298560999999992
 30
0.0
 11
239.73521299999999
 21
40.298560999999992
 31
0.0
  0
LINE
  5
73
  8
0
 10
239.73521299999999
 20
41.781875999999997
 30
0.0
 11
239.73521299999999
 21
26.815245999999998
 31
0.0
  0
ARC
  5
74
  8
0
 10
252.73521299999999
 20
34.298560999999999
 30
0.0
 40
15.0
 50
209.926435
 51
150.073565
  0
LINE
  5
75
  8
1
 10
121.735213
 20
59.798560999999999
 30
0.0
 11
121.735213
 21
8.7985609999999994
 31
0.0
  0
LINE
  5
76
  8
1
 10
252.73521299999999
 20
54.298560999999999
 30
0.0
 11
252.73521299999999
 21
14.298560999999999
 31
0.0
  0
LINE
  5
77
  8
1
 10
96.235213000000002
 20
34.298560999999999
 30
0.0
 11
272.73521299999999
 21
34.298560999999999
 31
0.0
  0
CIRCLE
  5
78
  8
0
 10
121.735213
 20
34.298560999999999
 30
0.0
 40
20.5
  0
CIRCLE
  5
79
  8
0
 10
121.735213
 20
34.298560999999999
 30
0.0
 40
19.5
  0
CIRCLE
  5
7A
  8
0
 10
121.735213
 20
34.298560999999999
 30
0.0
 40
9.5
  0
CIRCLE
  5
7B
  8
0
 10
121.735213
 20
34.298560999999999
 30
0.0
 40
8.9000000000000004
  0
CIRCLE
  5
7C
  8
0
 10
121.735213
 20
34.298560999999999
 30
0.0
 40
6.0
  0
CIRCLE
  5
7D
  8
3
 10
121.735213
 20
34.298560999999999
 30
0.0
 40
5.052999999999999
  0
LINE
  5
7E
  8
0
 10
324.162148
 20
145.11259000000001
 30
0.0
 11
326.00773800000002
 21
145.11259000000001
 31
0.0
  0
LINE
  5
7F
  8
1
 10
333.662148
 20
178.0125899999999
 30
0.0
 11
333.662148
 21
79.512590000000003
 31
0.0
  0
LINE
  5
80
  8
0
 10
354.162148
 20
164.51258999999999
 30
0.0
 11
354.162148
 21
147.51258999999999
 31
0.0
  0
LINE
  5
81
  8
0
 10
324.76214800000002
 20
144.51258999999999
 30
0.0
 11
327.12380000000002
 21
144.51258999999999
 31
0.0
  0
LINE
  5
82
  8
0
 10
314.162148
 20
146.51258999999999
 30
0.0
 11
324.03146800000002
 21
146.51258999999999
 31
0.0
  0
LINE
  5
83
  8
0
 10
313.162148
 20
147.51258999999999
 30
0.0
 11
322.95000599999997
 21
147.51258999999999
 31
0.0
  0
LINE
  5
84
  8
0
 10
354.162148
 20
164.51258999999999
 30
0.0
 11
347.180654
 21
164.51258999999999
 31
0.0
  0
LINE
  5
85
  8
0
 10
315.162148
 20
166.51258999999999
 30
0.0
 11
321.30294099999998
 21
166.51258999999999
 31
0.0
  0
LINE
  5
86
  8
0
 10
352.162148
 20
166.51258999999999
 30
0.0
 11
354.162148
 21
164.51258999999999
 31
0.0
  0
LINE
  5
87
  8
0
 10
354.162148
 20
147.51258999999999
 30
0.0
 11
353.162148
 21
146.51258999999999
 31
0.0
  0
LINE
  5
88
  8
0
 10
343.162148
 20
146.51258999999999
 30
0.0
 11
343.162148
 21
145.11259000000001
 31
0.0
  0
LINE
  5
89
  8
0
 10
343.162148
 20
145.11259000000001
 30
0.0
 11
342.56214799999998
 21
144.51258999999999
 31
0.0
  0
LINE
  5
8A
  8
0
 10
324.162148
 20
145.11259000000001
 30
0.0
 11
324.76214800000002
 21
144.51258999999999
 31
0.0
  0
LINE
  5
8B
  8
0
 10
324.162148
 20
146.51258999999999
 30
0.0
 11
324.162148
 21
145.11259000000001
 31
0.0
  0
LINE
  5
8C
  8
0
 10
313.162148
 20
147.51258999999999
 30
0.0
 11
314.162148
 21
146.51258999999999
 31
0.0
  0
LINE
  5
8D
  8
0
 10
313.162148
 20
164.51258999999999
 30
0.0
 11
313.162148
 21
147.51258999999999
 31
0.0
  0
LINE
  5
8E
  8
0
 10
315.162148
 20
166.51258999999999
 30
0.0
 11
313.162148
 21
164.51258999999999
 31
0.0
  0
LINE
  5
8F
  8
1
 10
308.162148
 20
158.01258999999999
 30
0.0
 11
359.162148
 21
158.01258999999999
 31
0.0
  0
CIRCLE
  5
90
  8
0
 10
333.662148
 20
158.01258999999999
 30
0.0
 40
15.0
  0
LINE
  5
91
  8
0
 10
346.02135500000003
 20
166.51258999999999
 30
0.0
 11
352.162148
 21
166.51258999999999
 31
0.0
  0
LINE
  5
92
  8
0
 10
320.143642
 20
164.51258999999999
 30
0.0
 11
313.162148
 21
164.51258999999999
 31
0.0
  0
LINE
  5
93
  8
0
 10
344.37429100000003
 20
147.51258999999999
 30
0.0
 11
354.162148
 21
147.51258999999999
 31
0.0
  0
LINE
  5
94
  8
0
 10
343.29282799999999
 20
146.51258999999999
 30
0.0
 11
353.162148
 21
146.51258999999999
 31
0.0
  0
LINE
  5
95
  8
0
 10
341.31655899999998
 20
145.11259000000001
 30
0.0
 11
343.162148
 21
145.11259000000001
 31
0.0
  0
LINE
  5
96
  8
0
 10
340.2004970000001
 20
144.51258999999999
 30
0.0
 11
342.56214799999998
 21
144.51258999999999
 31
0.0
  0
LINE
  5
97
  8
0
 10
63.297117999999998
 20
164.51258999999999
 30
0.0
 11
22.297118000000001
 21
164.51258999999999
 31
0.0
  0
ARC
  5
98
  8
0
 10
42.797117999999998
 20
158.01258999999999
 30
0.0
 40
15.0
 50
34.518107999999998
 51
145.48189199999999
  0
LINE
  5
99
  8
1
 10
17.297118000000001
 20
158.01258999999999
 30
0.0
 11
68.297118000000012
 21
158.01258999999999
 31
0.0
  0
LINE
  5
9A
  8
0
 10
24.297118000000001
 20
166.51258999999999
 30
0.0
 11
22.297118000000001
 21
164.51258999999999
 31
0.0
  0
LINE
  5
9B
  8
0
 10
22.297118000000001
 20
164.51258999999999
 30
0.0
 11
22.297118000000001
 21
147.51258999999999
 31
0.0
  0
LINE
  5
9C
  8
0
 10
22.297118000000001
 20
147.51258999999999
 30
0.0
 11
23.297118000000001
 21
146.51258999999999
 31
0.0
  0
LINE
  5
9D
  8
0
 10
33.297117999999998
 20
146.51258999999999
 30
0.0
 11
33.297117999999998
 21
145.11259000000001
 31
0.0
  0
LINE
  5
9E
  8
0
 10
33.297117999999998
 20
145.11259000000001
 30
0.0
 11
33.897117999999999
 21
144.51258999999999
 31
0.0
  0
LINE
  5
9F
  8
0
 10
52.297117999999998
 20
145.11259000000001
 30
0.0
 11
51.697117999999989
 21
144.51258999999999
 31
0.0
  0
LINE
  5
A0
  8
0
 10
52.297117999999998
 20
146.51258999999999
 30
0.0
 11
52.297117999999998
 21
145.11259000000001
 31
0.0
  0
LINE
  5
A1
  8
0
 10
63.297117999999998
 20
147.51258999999999
 30
0.0
 11
62.297117999999998
 21
146.51258999999999
 31
0.0
  0
LINE
  5
A2
  8
0
 10
61.297117999999998
 20
166.51258999999999
 30
0.0
 11
63.297117999999998
 21
164.51258999999999
 31
0.0
  0
LINE
  5
A3
  8
0
 10
24.297118000000001
 20
166.51258999999999
 30
0.0
 11
61.297117999999998
 21
166.51258999999999
 31
0.0
  0
LINE
  5
A4
  8
0
 10
22.297118000000001
 20
147.51258999999999
 30
0.0
 11
63.297117999999998
 21
147.51258999999999
 31
0.0
  0
LINE
  5
A5
  8
0
 10
23.297118000000001
 20
146.51258999999999
 30
0.0
 11
62.297117999999998
 21
146.51258999999999
 31
0.0
  0
LINE
  5
A6
  8
0
 10
33.897117999999999
 20
144.51258999999999
 30
0.0
 11
51.697117999999989
 21
144.51258999999999
 31
0.0
  0
LINE
  5
A7
  8
0
 10
63.297117999999998
 20
164.51258999999999
 30
0.0
 11
63.297117999999998
 21
147.51258999999999
 31
0.0
  0
LINE
  5
A8
  8
1
 10
42.797117999999998
 20
178.0125899999999
 30
0.0
 11
42.797117999999998
 21
79.512590000000003
 31
0.0
  0
LINE
  5
A9
  8
0
 10
33.297117999999998
 20
145.11259000000001
 30
0.0
 11
52.297117999999998
 21
145.11259000000001
 31
0.0
  0
LINE
  5
AA
  8
0
 10
52.297117999999998
 20
146.51258999999999
 30
0.0
 11
52.297117999999998
 21
145.11259000000001
 31
0.0
  0
LINE
  5
AB
  8
0
 10
52.297117999999998
 20
145.11259000000001
 30
0.0
 11
51.697117999999989
 21
144.51258999999999
 31
0.0
  0
LINE
  5
AC
  8
0
 10
38.797117999999998
 20
84.512590000000003
 30
0.0
 11
46.79711799999999
 21
84.512590000000003
 31
0.0
  0
LINE
  5
AD
  8
0
 10
36.797117999999998
 20
86.512590000000003
 30
0.0
 11
48.79711799999999
 21
86.512590000000003
 31
0.0
  0
LINE
  5
AE
  8
0
 10
36.797117999999998
 20
142.27233799999999
 30
0.0
 11
48.79711799999999
 21
142.27233799999999
 31
0.0
  0
LINE
  5
AF
  8
0
 10
38.797117999999998
 20
84.512590000000003
 30
0.0
 11
36.797117999999998
 21
86.512590000000003
 31
0.0
  0
LINE
  5
B0
  8
0
 10
36.797117999999998
 20
86.512590000000003
 30
0.0
 11
36.797117999999998
 21
143.91258999999999
 31
0.0
  0
ARC
  5
B1
  8
0
 10
36.197118000000003
 20
143.91258999999999
 30
0.0
 40
0.6
 50
0.0
 51
90.0
  0
LINE
  5
B2
  8
3
 10
36.797117999999998
 20
143.91258999999999
 30
0.0
 11
37.744118
 21
142.27233799999999
 31
0.0
  0
LINE
  5
B3
  8
3
 10
37.744118
 20
142.27233799999999
 30
0.0
 11
37.744118
 21
85.56559
 31
0.0
  0
LINE
  5
B4
  8
3
 10
47.850118000000002
 20
142.27233799999999
 30
0.0
 11
47.850118000000002
 21
85.56559
 31
0.0
  0
LINE
  5
B5
  8
3
 10
48.79711799999999
 20
143.91258999999999
 30
0.0
 11
47.850118000000002
 21
142.27233799999999
 31
0.0
  0
ARC
  5
B6
  8
0
 10
49.397117999999999
 20
143.91258999999999
 30
0.0
 40
0.6
 50
90.0
 51
180.0
  0
LINE
  5
B7
  8
0
 10
48.79711799999999
 20
86.512590000000003
 30
0.0
 11
48.79711799999999
 21
143.91258999999999
 31
0.0
  0
LINE
  5
B8
  8
0
 10
46.79711799999999
 20
84.512590000000003
 30
0.0
 11
48.79711799999999
 21
86.512590000000003
 31
0.0
  0
LINE
  5
B9
  8
0
 10
343.162148
 20
146.51258999999999
 30
0.0
 11
343.162148
 21
145.11259000000001
 31
0.0
  0
LINE
  5
BA
  8
0
 10
343.162148
 20
145.11259000000001
 30
0.0
 11
342.56214799999998
 21
144.51258999999999
 31
0.0
  0
LINE
  5
BB
  8
0
 10
329.662148
 20
84.512590000000003
 30
0.0
 11
337.662148
 21
84.512590000000003
 31
0.0
  0
LINE
  5
BC
  8
0
 10
327.662148
 20
86.512590000000003
 30
0.0
 11
339.662148
 21
86.512590000000003
 31
0.0
  0
LINE
  5
BD
  8
0
 10
327.662148
 20
142.27233799999999
 30
0.0
 11
339.662148
 21
142.27233799999999
 31
0.0
  0
LINE
  5
BE
  8
0
 10
329.662148
 20
84.512590000000003
 30
0.0
 11
327.662148
 21
86.512590000000003
 31
0.0
  0
LINE
  5
BF
  8
0
 10
327.662148
 20
86.512590000000003
 30
0.0
 11
327.662148
 21
143.91258999999999
 31
0.0
  0
LINE
  5
C0
  8
3
 10
327.662148
 20
143.91258999999999
 30
0.0
 11
328.609148
 21
142.27233799999999
 31
0.0
  0
LINE
  5
C1
  8
3
 10
328.609148
 20
142.27233799999999
 30
0.0
 11
328.609148
 21
85.56559
 31
0.0
  0
LINE
  5
C2
  8
3
 10
338.715148
 20
142.27233799999999
 30
0.0
 11
338.715148
 21
85.56559
 31
0.0
  0
LINE
  5
C3
  8
3
 10
339.662148
 20
143.91258999999999
 30
0.0
 11
338.715148
 21
142.27233799999999
 31
0.0
  0
ARC
  5
C4
  8
0
 10
340.26214800000002
 20
143.91258999999999
 30
0.0
 40
0.6
 50
90.0
 51
180.0
  0
LINE
  5
C5
  8
0
 10
339.662148
 20
86.512590000000003
 30
0.0
 11
339.662148
 21
143.91258999999999
 31
0.0
  0
LINE
  5
C6
  8
0
 10
337.662148
 20
84.512590000000003
 30
0.0
 11
339.662148
 21
86.512590000000003
 31
0.0
  0
ARC
  5
C7
  8
0
 10
327.06214799999998
 20
143.91258999999999
 30
0.0
 40
0.6
 50
0.0
 51
90.0
  0
TEXT
  5
1C5
  8
0
 62
     3
 10
0.0
 20
0.0
 30
0.0
 40
10.0
  1
FT12X60-SUS
  7
STANDARD1
  0
ENDSEC
  0
EOF
