  0
SECTION
  2
HEADER
  9
$ACADVER
  1
AC1009
  9
$INSBASE
 10
0.0
 20
0.0
 30
0.0
  9
$EXTMIN
 10
0.0
 20
-2.960436562073669
 30
0.0
  9
$EXTMAX
 10
198.99999999999989
 20
133.99999999999989
 30
0.0
  9
$LIMMIN
 10
0.0
 20
0.0
  9
$LIMMAX
 10
375.0
 20
270.0
  9
$ORTHOMODE
 70
     1
  9
$REGENMODE
 70
     1
  9
$FILLMODE
 70
     1
  9
$QTEXTMODE
 70
     0
  9
$MIRRTEXT
 70
     0
  9
$DRAGMODE
 70
     2
  9
$LTSCALE
 40
10.0
  9
$OSMODE
 70
    37
  9
$ATTMODE
 70
     1
  9
$TEXTSIZE
 40
0.2
  9
$TRACEWID
 40
0.05
  9
$TEXTSTYLE
  7
STANDARD
  9
$CLAYER
  8
0
  9
$CELTYPE
  6
BYLAYER
  9
$CECOLOR
 62
   256
  9
$DIMSCALE
 40
1.0
  9
$DIMASZ
 40
3.0
  9
$DIMEXO
 40
2.0
  9
$DIMDLI
 40
0.38
  9
$DIMRND
 40
0.0
  9
$DIMDLE
 40
0.0
  9
$DIMEXE
 40
2.0
  9
$DIMTP
 40
0.0
  9
$DIMTM
 40
0.0
  9
$DIMTXT
 40
3.2000000000000002
  9
$DIMCEN
 40
0.0
  9
$DIMTSZ
 40
0.0
  9
$DIMTOL
 70
     0
  9
$DIMLIM
 70
     0
  9
$DIMTIH
 70
     0
  9
$DIMTOH
 70
     0
  9
$DIMSE1
 70
     0
  9
$DIMSE2
 70
     0
  9
$DIMTAD
 70
     1
  9
$DIMZIN
 70
     0
  9
$DIMBLK
  1

  9
$DIMASO
 70
     1
  9
$DIMSHO
 70
     0
  9
$DIMPOST
  1

  9
$DIMAPOST
  1

  9
$DIMALT
 70
     0
  9
$DIMALTD
 70
     2
  9
$DIMALTF
 40
25.399999999999999
  9
$DIMLFAC
 40
1.0
  9
$DIMTOFL
 70
     1
  9
$DIMTVP
 40
1.6000000000000001
  9
$DIMTIX
 70
     1
  9
$DIMSOXD
 70
     0
  9
$DIMSAH
 70
     0
  9
$DIMBLK1
  1

  9
$DIMBLK2
  1

  9
$DIMSTYLE
  2
STANDARD
  9
$DIMCLRD
 70
     0
  9
$DIMCLRE
 70
     0
  9
$DIMCLRT
 70
     0
  9
$DIMTFAC
 40
1.0
  9
$DIMGAP
 40
0.09
  9
$LUNITS
 70
     2
  9
$LUPREC
 70
     4
  9
$SKETCHINC
 40
0.1
  9
$FILLETRAD
 40
0.0
  9
$AUNITS
 70
     0
  9
$AUPREC
 70
     4
  9
$MENU
  1
E:\r13\win\SUPPORT\ACAD
  9
$ELEVATION
 40
0.0
  9
$PELEVATION
 40
0.0
  9
$THICKNESS
 40
0.0
  9
$LIMCHECK
 70
     0
  9
$BLIPMODE
 70
     0
  9
$CHAMFERA
 40
0.0
  9
$CHAMFERB
 40
0.0
  9
$SKPOLY
 70
     0
  9
$TDCREATE
 40
2448436.5572774308
  9
$TDUPDATE
 40
2456840.544708136
  9
$TDINDWG
 40
0.024808588
  9
$TDUSRTIMER
 40
0.024808588
  9
$USRTIMER
 70
     1
  9
$ANGBASE
 50
0.0
  9
$ANGDIR
 70
     0
  9
$PDMODE
 70
     0
  9
$PDSIZE
 40
0.0
  9
$PLINEWID
 40
0.0
  9
$COORDS
 70
     1
  9
$SPLFRAME
 70
     0
  9
$SPLINETYPE
 70
     6
  9
$SPLINESEGS
 70
     8
  9
$ATTDIA
 70
     0
  9
$ATTREQ
 70
     1
  9
$HANDLING
 70
     1
  9
$HANDSEED
  5
623
  9
$SURFTAB1
 70
     6
  9
$SURFTAB2
 70
     6
  9
$SURFTYPE
 70
     6
  9
$SURFU
 70
     6
  9
$SURFV
 70
     6
  9
$UCSNAME
  2

  9
$UCSORG
 10
0.0
 20
0.0
 30
0.0
  9
$UCSXDIR
 10
1.0
 20
0.0
 30
0.0
  9
$UCSYDIR
 10
0.0
 20
1.0
 30
0.0
  9
$PUCSNAME
  2

  9
$PUCSORG
 10
0.0
 20
0.0
 30
0.0
  9
$PUCSXDIR
 10
1.0
 20
0.0
 30
0.0
  9
$PUCSYDIR
 10
0.0
 20
1.0
 30
0.0
  9
$USERI1
 70
     0
  9
$USERI2
 70
     1
  9
$USERI3
 70
     1
  9
$USERI4
 70
     0
  9
$USERI5
 70
     0
  9
$USERR1
 40
0.0
  9
$USERR2
 40
0.0
  9
$USERR3
 40
0.0
  9
$USERR4
 40
0.0
  9
$USERR5
 40
0.0
  9
$WORLDVIEW
 70
     1
  9
$SHADEDGE
 70
     3
  9
$SHADEDIF
 70
    70
  9
$TILEMODE
 70
     1
  9
$MAXACTVP
 70
    16
  9
$PLIMCHECK
 70
     0
  9
$PEXTMIN
 10
1.0000000000000000E+020
 20
1.0000000000000000E+020
 30
1.0000000000000000E+020
  9
$PEXTMAX
 10
-1.0000000000000000E+020
 20
-1.0000000000000000E+020
 30
-1.0000000000000000E+020
  9
$PLIMMIN
 10
0.0
 20
0.0
  9
$PLIMMAX
 10
12.0
 20
9.0
  9
$UNITMODE
 70
     0
  9
$VISRETAIN
 70
     0
  9
$PLINEGEN
 70
     1
  9
$PSLTSCALE
 70
     0
  0
ENDSEC
  0
SECTION
  2
TABLES
  0
TABLE
  2
VPORT
 70
     1
  0
VPORT
  2
*ACTIVE
 70
     0
 10
0.0
 20
0.0
 11
1.0
 21
1.0
 12
174.5507585567035
 22
100.0
 13
0.0
 23
0.0
 14
10.0
 24
10.0
 15
10.0
 25
10.0
 16
0.0
 26
0.0
 36
1.0
 17
0.0
 27
0.0
 37
0.0
 40
200.0280116098694
 41
1.7454798331015291
 42
50.0
 43
0.0
 44
0.0
 50
0.0
 51
0.0
 71
     0
 72
   500
 73
     1
 74
     0
 75
     0
 76
     0
 77
     0
 78
     2
  0
ENDTAB
  0
TABLE
  2
LTYPE
 70
     4
  0
LTYPE
  2
CONTINUOUS
 70
     0
  3
Solid Line
 72
    65
 73
     0
 40
0.0
  0
LTYPE
  2
CENTER
 70
     0
  3
____ _ ____ _ ____ _ ____ _ ____ _ ____ _ ____
 72
    65
 73
     4
 40
2.0
 49
1.25
 49
-0.25
 49
0.25
 49
-0.25
  0
LTYPE
  2
HIDDEN
 70
     0
  3
_ _ _ _ _ _ _ _ _ _ _ _ _ _ _ _ _ _ _ _ _ _ _
 72
    65
 73
     2
 40
0.375
 49
0.25
 49
-0.125
  0
LTYPE
  2
PHANTOM2
 70
     0
  3
___ _ _ ___ _ _ ___ _ _ ___ _ _
 72
    65
 73
     6
 40
1.25
 49
0.625
 49
-0.125
 49
0.125
 49
-0.125
 49
0.125
 49
-0.125
  0
ENDTAB
  0
TABLE
  2
LAYER
 70
     3
  0
LAYER
  2
0
 70
     0
 62
     7
  6
CONTINUOUS
  0
LAYER
  2
1
 70
     0
 62
     1
  6
CENTER
  0
LAYER
  2
2
 70
     0
 62
     2
  6
HIDDEN
  0
ENDTAB
  0
TABLE
  2
STYLE
 70
     2
  0
STYLE
  2
STANDARD
 70
     0
 40
0.0
 41
1.0
 50
0.0
 71
     0
 42
0.2
  3
TXT
  4
BIGFONT
  0
STYLE
  2
STANDARD1
 70
     0
 40
0.0
 41
1.0
 50
0.0
 71
     0
 42
3.0
  3
txt
  4

  0
ENDTAB
  0
TABLE
  2
VIEW
 70
     1
  0
VIEW
  2
ALL
 70
     0
 40
270.0
 10
220.99159663865549
 20
135.0
 41
0.0
 11
0.0
 21
0.0
 31
1.0
 12
0.0
 22
0.0
 32
0.0
 42
0.0
 43
0.0
 44
0.0
 50
0.0
 71
     0
  0
ENDTAB
  0
TABLE
  2
UCS
 70
     0
  0
ENDTAB
  0
TABLE
  2
APPID
 70
     4
  0
APPID
  2
ACAD
 70
     0
  0
APPID
  2
ACAD_MLEADERVER
 70
     0
  0
APPID
  2
ACAD_NAV_VCDISPLAY
 70
     0
  0
APPID
  2
ACAD_EXEMPT_FROM_CAD_STANDARDS
 70
     0
  0
ENDTAB
  0
TABLE
  2
DIMSTYLE
 70
     1
  0
DIMSTYLE
  2
STANDARD
 70
     0
  3

  4

  5

  6

  7

 40
1.0
 41
0.18
 42
0.0625
 43
0.38
 44
0.18
 45
0.0
 46
0.0
 47
0.0
 48
0.0
140
0.18
141
0.09
142
0.0
143
25.399999999999999
144
1.0
145
0.0
146
1.0
147
0.09
 71
     0
 72
     0
 73
     1
 74
     1
 75
     0
 76
     0
 77
     0
 78
     0
170
     0
171
     2
172
     0
173
     0
174
     0
175
     0
176
     0
177
     0
178
     0
  0
ENDTAB
  0
ENDSEC
  0
SECTION
  2
BLOCKS
  0
BLOCK
  8
0
  2
$MODEL_SPACE
 70
     0
 10
0.0
 20
0.0
 30
0.0
  3
$MODEL_SPACE
  1

  0
ENDBLK
  5
15E
  8
0
  0
BLOCK
 67
     1
  8
0
  2
$PAPER_SPACE
 70
     0
 10
0.0
 20
0.0
 30
0.0
  3
$PAPER_SPACE
  1

  0
ENDBLK
  5
15C
 67
     1
  8
0
  0
ENDSEC
  0
SECTION
  2
ENTITIES
  0
LINE
  5
37
  8
0
 10
65.0
 20
128.99999999999989
 30
0.0
 11
65.0
 21
88.999999999999957
 31
0.0
  0
LINE
  5
38
  8
0
 10
67.5
 20
128.99999999999989
 30
0.0
 11
67.5
 21
88.999999999999957
 31
0.0
  0
LINE
  5
39
  8
0
 10
75.0
 20
128.99999999999989
 30
0.0
 11
75.0
 21
88.999999999999957
 31
0.0
  0
LINE
  5
3A
  8
0
 10
72.5
 20
128.99999999999989
 30
0.0
 11
72.5
 21
88.999999999999957
 31
0.0
  0
LINE
  5
4F
  8
2
 10
52.600000000000087
 20
54.999999999999609
 30
0.0
 11
54.850000000000101
 21
52.749999999999623
 31
0.0
  0
LINE
  5
50
  8
2
 10
54.850000000000101
 20
52.749999999999623
 30
0.0
 11
54.850000000000101
 21
49.999999999999943
 31
0.0
  0
LINE
  5
51
  8
2
 10
62.399999999999821
 20
54.999999999999609
 30
0.0
 11
60.149999999999821
 21
52.749999999999623
 31
0.0
  0
LINE
  5
52
  8
2
 10
60.149999999999821
 20
52.749999999999623
 30
0.0
 11
60.149999999999821
 21
49.999999999999943
 31
0.0
  0
LINE
  5
53
  8
2
 10
60.149999999999821
 20
52.749999999999623
 30
0.0
 11
54.850000000000101
 21
52.749999999999623
 31
0.0
  0
LINE
  5
54
  8
2
 10
79.850000000000122
 20
52.749999999999602
 30
0.0
 11
85.149999999999835
 21
52.749999999999602
 31
0.0
  0
LINE
  5
55
  8
2
 10
79.850000000000122
 20
52.749999999999602
 30
0.0
 11
79.850000000000122
 21
49.999999999999943
 31
0.0
  0
LINE
  5
56
  8
2
 10
77.600000000000122
 20
54.999999999999602
 30
0.0
 11
79.850000000000122
 21
52.749999999999602
 31
0.0
  0
LINE
  5
57
  8
2
 10
85.149999999999835
 20
52.749999999999602
 30
0.0
 11
85.149999999999835
 21
49.999999999999943
 31
0.0
  0
LINE
  5
58
  8
2
 10
87.399999999999864
 20
54.999999999999602
 30
0.0
 11
85.149999999999835
 21
52.749999999999602
 31
0.0
  0
LINE
  5
59
  8
0
 10
75.999999999999986
 20
50.499999999999908
 30
0.0
 11
63.999998092651182
 21
50.499999999999943
 31
0.0
  0
LINE
  5
5A
  8
0
 10
52.499999999999957
 20
54.999999999999957
 30
0.0
 11
64.999999999999957
 21
54.999999999999957
 31
0.0
  0
LINE
  5
5B
  8
0
 10
63.999997980454211
 20
50.499999999999943
 30
0.0
 11
63.999997980454211
 21
49.999999999999943
 31
0.0
  0
LINE
  5
5C
  8
0
 10
63.999997980454211
 20
49.999999999999943
 30
0.0
 11
49.999999999999957
 21
49.999999999999943
 31
0.0
  0
LINE
  5
5D
  8
0
 10
49.999999999999957
 20
49.999999999999943
 30
0.0
 11
49.999999999999957
 21
52.499999999999957
 31
0.0
  0
LINE
  5
5E
  8
0
 10
49.999999999999957
 20
52.499999999999957
 30
0.0
 11
52.499999999999957
 21
54.999999999999957
 31
0.0
  0
LINE
  5
5F
  8
0
 10
75.999999999999986
 20
49.999999999999943
 30
0.0
 11
89.999999999999986
 21
49.999999999999943
 31
0.0
  0
ARC
  5
60
  8
0
 10
69.999999999999986
 20
55.499999999999957
 30
0.0
 40
5.0
 50
270.0
 51
0.0
  0
CIRCLE
  5
61
  8
0
 10
69.999999999999986
 20
55.499999999999957
 30
0.0
 40
2.0
  0
LINE
  5
62
  8
0
 10
72.499999999999986
 20
58.99999999999995
 30
0.0
 11
74.999999999999986
 21
56.49999999999995
 31
0.0
  0
LINE
  5
63
  8
0
 10
64.999999999999957
 20
56.49999999999995
 30
0.0
 11
67.499999999999986
 21
58.99999999999995
 31
0.0
  0
LINE
  5
64
  8
0
 10
64.999999999999957
 20
56.49999999999995
 30
0.0
 11
64.999999999999957
 21
54.999999999999957
 31
0.0
  0
LINE
  5
65
  8
0
 10
72.499999999999986
 20
58.99999999999995
 30
0.0
 11
67.499999999999986
 21
58.99999999999995
 31
0.0
  0
LINE
  5
66
  8
0
 10
74.999999999999986
 20
54.999999999999957
 30
0.0
 11
74.999999999999986
 21
56.49999999999995
 31
0.0
  0
LINE
  5
67
  8
0
 10
87.499999999999986
 20
54.999999999999943
 30
0.0
 11
74.999999999999986
 21
54.999999999999957
 31
0.0
  0
LINE
  5
68
  8
0
 10
89.999999999999986
 20
52.499999999999943
 30
0.0
 11
87.499999999999986
 21
54.999999999999943
 31
0.0
  0
LINE
  5
69
  8
0
 10
89.999999999999986
 20
49.999999999999943
 30
0.0
 11
89.999999999999986
 21
52.499999999999943
 31
0.0
  0
CIRCLE
  5
6A
  8
0
 10
82.5
 20
96.499999999999943
 30
0.0
 40
4.9000000000000004
  0
CIRCLE
  5
6B
  8
0
 10
82.5
 20
96.499999999999943
 30
0.0
 40
2.649999999999999
  0
CIRCLE
  5
6C
  8
0
 10
57.499999999999993
 20
96.499999999999957
 30
0.0
 40
4.9000000000000004
  0
CIRCLE
  5
6D
  8
0
 10
57.499999999999993
 20
96.499999999999957
 30
0.0
 40
2.649999999999999
  0
CIRCLE
  5
6E
  8
0
 10
57.499999999999993
 20
121.4999999999999
 30
0.0
 40
4.9000000000000004
  0
CIRCLE
  5
6F
  8
0
 10
57.499999999999993
 20
121.4999999999999
 30
0.0
 40
2.649999999999999
  0
LINE
  5
70
  8
0
 10
76.0
 20
98.999999999999957
 30
0.0
 11
76.0
 21
88.999999999999957
 31
0.0
  0
LINE
  5
71
  8
0
 10
64.0
 20
98.999999999999957
 30
0.0
 11
76.0
 21
98.999999999999957
 31
0.0
  0
LINE
  5
72
  8
0
 10
64.0
 20
108.9999999999999
 30
0.0
 11
64.0
 21
98.999999999999957
 31
0.0
  0
LINE
  5
73
  8
0
 10
76.0
 20
108.9999999999999
 30
0.0
 11
64.0
 21
108.9999999999999
 31
0.0
  0
LINE
  5
74
  8
0
 10
76.0
 20
118.9999999999999
 30
0.0
 11
76.0
 21
108.9999999999999
 31
0.0
  0
LINE
  5
75
  8
0
 10
64.0
 20
118.9999999999999
 30
0.0
 11
76.0
 21
118.9999999999999
 31
0.0
  0
LINE
  5
76
  8
0
 10
64.0
 20
128.99999999999989
 30
0.0
 11
64.0
 21
118.9999999999999
 31
0.0
  0
LINE
  5
77
  8
0
 10
89.999999999999986
 20
88.999999999999943
 30
0.0
 11
90.0
 21
128.99999999999989
 31
0.0
  0
LINE
  5
78
  8
0
 10
49.999999999999993
 20
88.999999999999986
 30
0.0
 11
75.0
 21
88.999999999999957
 31
0.0
  0
LINE
  5
79
  8
0
 10
49.999999999999993
 20
128.99999999999989
 30
0.0
 11
49.999999999999993
 21
88.999999999999986
 31
0.0
  0
LINE
  5
7A
  8
0
 10
90.0
 20
128.99999999999989
 30
0.0
 11
65.0
 21
128.99999999999989
 31
0.0
  0
CIRCLE
  5
7B
  8
0
 10
82.5
 20
121.4999999999999
 30
0.0
 40
2.649999999999999
  0
CIRCLE
  5
7C
  8
0
 10
82.5
 20
121.4999999999999
 30
0.0
 40
4.9000000000000004
  0
CIRCLE
  5
7D
  8
0
 10
191.5
 20
96.499999999999943
 30
0.0
 40
2.649999999999999
  0
LINE
  5
7E
  8
0
 10
198.99999999999989
 20
88.999999999999943
 30
0.0
 11
173.99999999999989
 21
88.999999999999943
 31
0.0
  0
LINE
  5
7F
  8
0
 10
158.99999999999989
 20
88.999999999999943
 30
0.0
 11
158.99999999999989
 21
128.99999999999989
 31
0.0
  0
LINE
  5
80
  8
0
 10
158.99999999999989
 20
128.99999999999989
 30
0.0
 11
184.0
 21
128.99999999999989
 31
0.0
  0
LINE
  5
81
  8
0
 10
198.99999999999989
 20
128.99999999999989
 30
0.0
 11
198.99999999999989
 21
88.999999999999943
 31
0.0
  0
LINE
  5
82
  8
0
 10
173.00000302931849
 20
98.999999999999943
 30
0.0
 11
184.99999697068139
 21
98.999999999999943
 31
0.0
  0
LINE
  5
83
  8
0
 10
184.99999697068139
 20
108.9999999999999
 30
0.0
 11
173.00000302931849
 21
108.9999999999999
 31
0.0
  0
LINE
  5
84
  8
0
 10
173.00000302931849
 20
118.9999999999999
 30
0.0
 11
184.99999697068139
 21
118.9999999999999
 31
0.0
  0
CIRCLE
  5
85
  8
0
 10
166.49999999999989
 20
96.499999999999943
 30
0.0
 40
2.649999999999999
  0
CIRCLE
  5
86
  8
0
 10
166.49999999999989
 20
121.4999999999999
 30
0.0
 40
2.649999999999999
  0
CIRCLE
  5
87
  8
0
 10
191.5
 20
121.4999999999999
 30
0.0
 40
2.649999999999999
  0
LINE
  5
88
  8
1
 10
70.0
 20
133.99999999999989
 30
0.0
 11
70.0
 21
83.999999999999957
 31
0.0
  0
LINE
  5
89
  8
1
 10
65.399999999999977
 20
96.499999999999957
 30
0.0
 11
49.59999999999998
 21
96.499999999999986
 31
0.0
  0
LINE
  5
8A
  8
1
 10
57.499999999999993
 20
104.39999999999991
 30
0.0
 11
57.499999999999993
 21
88.599999999999966
 31
0.0
  0
LINE
  5
8B
  8
1
 10
65.399999999999977
 20
121.4999999999999
 30
0.0
 11
49.59999999999998
 21
121.4999999999999
 31
0.0
  0
LINE
  5
8C
  8
1
 10
57.499999999999993
 20
129.39999999999989
 30
0.0
 11
57.499999999999993
 21
113.59999999999989
 31
0.0
  0
LINE
  5
8D
  8
1
 10
90.400000000000006
 20
96.499999999999943
 30
0.0
 11
74.599999999999994
 21
96.499999999999957
 31
0.0
  0
LINE
  5
8E
  8
1
 10
82.5
 20
104.39999999999991
 30
0.0
 11
82.5
 21
88.599999999999966
 31
0.0
  0
LINE
  5
8F
  8
1
 10
90.400000000000034
 20
121.4999999999999
 30
0.0
 11
74.599999999999994
 21
121.4999999999999
 31
0.0
  0
LINE
  5
90
  8
1
 10
82.5
 20
129.39999999999989
 30
0.0
 11
82.5
 21
113.59999999999989
 31
0.0
  0
LINE
  5
91
  8
0
 10
87.5
 20
88.999999999999943
 30
0.0
 11
87.5
 21
128.99999999999989
 31
0.0
  0
LINE
  5
92
  8
0
 10
52.5
 20
88.999999999999957
 30
0.0
 11
52.5
 21
128.99999999999989
 31
0.0
  0
LINE
  5
93
  8
1
 10
179.0
 20
133.99999999999989
 30
0.0
 11
178.99999999999989
 21
83.999999999999943
 31
0.0
  0
LINE
  5
94
  8
1
 10
172.14999999999989
 20
96.499999999999943
 30
0.0
 11
160.84999999999991
 21
96.499999999999943
 31
0.0
  0
LINE
  5
95
  8
1
 10
166.49999999999989
 20
102.14999999999991
 30
0.0
 11
166.49999999999989
 21
90.849999999999966
 31
0.0
  0
LINE
  5
96
  8
1
 10
172.14999999999989
 20
121.4999999999999
 30
0.0
 11
160.84999999999991
 21
121.4999999999999
 31
0.0
  0
LINE
  5
97
  8
1
 10
166.49999999999989
 20
127.14999999999991
 30
0.0
 11
166.49999999999989
 21
115.84999999999989
 31
0.0
  0
LINE
  5
98
  8
1
 10
197.14999999999989
 20
96.499999999999943
 30
0.0
 11
185.84999999999991
 21
96.499999999999943
 31
0.0
  0
LINE
  5
99
  8
1
 10
191.5
 20
102.14999999999991
 30
0.0
 11
191.49999999999989
 21
90.849999999999966
 31
0.0
  0
LINE
  5
9A
  8
1
 10
197.14999999999989
 20
121.4999999999999
 30
0.0
 11
185.84999999999991
 21
121.4999999999999
 31
0.0
  0
LINE
  5
9B
  8
1
 10
191.5
 20
127.14999999999991
 30
0.0
 11
191.5
 21
115.84999999999989
 31
0.0
  0
LINE
  5
9C
  8
1
 10
70.000001121969774
 20
63.999999999999787
 30
0.0
 11
69.999996970681579
 21
45.500000000000057
 31
0.0
  0
LINE
  5
9D
  8
1
 10
74.999999999999986
 20
55.499999999999957
 30
0.0
 11
64.999999999999986
 21
55.499999999999957
 31
0.0
  0
LINE
  5
9E
  8
1
 10
82.499999999999986
 20
57.999999999999943
 30
0.0
 11
82.499999999999986
 21
46.999999999999943
 31
0.0
  0
LINE
  5
9F
  8
1
 10
57.499993941363158
 20
57.999999999999957
 30
0.0
 11
57.499993941363158
 21
46.999999999999943
 31
0.0
  0
LINE
  5
C6
  8
1
 10
131.99999999999989
 20
121.5000000000001
 30
0.0
 11
120.9999999999999
 21
121.5000000000001
 31
0.0
  0
LINE
  5
C7
  8
1
 10
131.99999999999989
 20
96.500000000000071
 30
0.0
 11
120.9999999999999
 21
96.500000000000071
 31
0.0
  0
LINE
  5
C8
  8
2
 10
125.5000000000003
 20
105.5000000000002
 30
0.0
 11
128.99999999999989
 21
105.5000000000002
 31
0.0
  0
LINE
  5
C9
  8
2
 10
125.5000000000003
 20
112.4999999999999
 30
0.0
 11
125.5000000000003
 21
105.5000000000002
 31
0.0
  0
LINE
  5
CA
  8
2
 10
125.5000000000003
 20
112.4999999999999
 30
0.0
 11
128.99999999999989
 21
112.4999999999999
 31
0.0
  0
LINE
  5
CB
  8
0
 10
128.99999999999989
 20
129.0
 30
0.0
 11
128.99999999999989
 21
89.000000000000071
 31
0.0
  0
LINE
  5
CC
  8
0
 10
128.99999999999989
 20
129.0
 30
0.0
 11
120.0
 21
128.99999999999989
 31
0.0
  0
LINE
  5
CD
  8
0
 10
128.99999999999989
 20
89.000000000000071
 30
0.0
 11
120.0
 21
89.000000000000071
 31
0.0
  0
LINE
  5
CE
  8
0
 10
120.0
 20
89.000000000000071
 30
0.0
 11
120.0
 21
128.99999999999989
 31
0.0
  0
LINE
  5
CF
  8
0
 10
126.4999999999999
 20
129.0
 30
0.0
 11
126.4999999999999
 21
89.000000000000071
 31
0.0
  0
LINE
  5
D0
  8
0
 10
123.9999999999999
 20
129.0
 30
0.0
 11
123.9999999999999
 21
89.000000000000071
 31
0.0
  0
LINE
  5
D1
  8
0
 10
122.4999999999999
 20
129.0
 30
0.0
 11
122.4999999999999
 21
89.000000000000071
 31
0.0
  0
LINE
  5
D2
  8
0
 10
123.9999999999999
 20
119.0000000000001
 30
0.0
 11
120.0
 21
119.0000000000001
 31
0.0
  0
LINE
  5
D3
  8
0
 10
123.9999999999999
 20
109.0
 30
0.0
 11
120.0
 21
109.0
 31
0.0
  0
LINE
  5
D4
  8
0
 10
123.9999999999999
 20
99.000000000000071
 30
0.0
 11
120.0
 21
99.000000000000071
 31
0.0
  0
LINE
  5
D5
  8
2
 10
126.2500000000001
 20
124.14999999999981
 30
0.0
 11
126.2500000000002
 21
118.85000000000019
 31
0.0
  0
LINE
  5
D6
  8
2
 10
126.2500000000001
 20
124.14999999999981
 30
0.0
 11
128.99999999999989
 21
124.14999999999981
 31
0.0
  0
LINE
  5
D7
  8
2
 10
124.0000000000001
 20
126.39999999999981
 30
0.0
 11
126.2500000000001
 21
124.14999999999981
 31
0.0
  0
LINE
  5
D8
  8
2
 10
126.2500000000002
 20
118.85000000000019
 30
0.0
 11
128.99999999999989
 21
118.85000000000019
 31
0.0
  0
LINE
  5
D9
  8
2
 10
124.0000000000001
 20
116.60000000000019
 30
0.0
 11
126.2500000000002
 21
118.85000000000019
 31
0.0
  0
LINE
  5
DA
  8
2
 10
124.0000000000003
 20
91.600000000000207
 30
0.0
 11
126.2500000000003
 21
93.850000000000207
 31
0.0
  0
LINE
  5
DB
  8
2
 10
126.2500000000003
 20
93.850000000000207
 30
0.0
 11
128.99999999999989
 21
93.850000000000207
 31
0.0
  0
LINE
  5
DC
  8
2
 10
124.0000000000003
 20
101.39999999999991
 30
0.0
 11
126.2500000000003
 21
99.149999999999935
 31
0.0
  0
LINE
  5
DD
  8
2
 10
126.2500000000003
 20
99.149999999999935
 30
0.0
 11
128.99999999999989
 21
99.149999999999935
 31
0.0
  0
LINE
  5
DE
  8
2
 10
126.2500000000003
 20
99.149999999999935
 30
0.0
 11
126.2500000000003
 21
93.850000000000207
 31
0.0
  0
CIRCLE
  5
DF
  8
0
 10
191.5
 20
108.9999999999999
 30
0.0
 40
3.5
  0
CIRCLE
  5
E4
  8
0
 10
166.49999999999989
 20
108.9999999999999
 30
0.0
 40
3.5
  0
LINE
  5
F1
  8
0
 10
76.0
 20
88.999999999999957
 30
0.0
 11
89.999999999999986
 21
88.999999999999943
 31
0.0
  0
LINE
  5
F2
  8
0
 10
64.0
 20
128.99999999999989
 30
0.0
 11
49.999999999999993
 21
128.99999999999989
 31
0.0
  0
LINE
  5
F3
  8
0
 10
75.999999999999986
 20
54.999999999999957
 30
0.0
 11
75.999999999999986
 21
49.999999999999943
 31
0.0
  0
LINE
  5
F4
  8
0
 10
184.99999697068139
 20
128.99999999999989
 30
0.0
 11
184.99999697068139
 21
88.999999999999943
 31
0.0
  0
LINE
  5
F5
  8
0
 10
173.00000302931849
 20
128.99999999999989
 30
0.0
 11
173.00000302931849
 21
88.999999999999943
 31
0.0
  0
LINE
  5
F6
  8
0
 10
184.99999697068139
 20
128.99999999999989
 30
0.0
 11
198.99999999999989
 21
128.99999999999989
 31
0.0
  0
LINE
  5
F7
  8
0
 10
173.00000302931849
 20
88.999999999999943
 30
0.0
 11
158.99999999999989
 21
88.999999999999943
 31
0.0
  0
LINE
  5
F8
  8
0
 10
184.0
 20
128.99999999999989
 30
0.0
 11
184.0
 21
118.9999999999999
 31
0.0
  0
LINE
  5
F9
  8
0
 10
174.0
 20
118.9999999999999
 30
0.0
 11
174.0
 21
108.9999999999999
 31
0.0
  0
LINE
  5
FA
  8
0
 10
174.0
 20
98.999999999999943
 30
0.0
 11
173.99999999999989
 21
88.999999999999943
 31
0.0
  0
LINE
  5
FB
  8
0
 10
184.0
 20
108.9999999999999
 30
0.0
 11
184.0
 21
98.999999999999943
 31
0.0
  0
TEXT
  5
250
  8
0
 62
     3
 10
0.0
 20
0.0
 30
0.0
 40
10.0
  1
FTH4040HC-SUS
  7
STANDARD1
  0
ENDSEC
  0
EOF
