  0
SECTION
  2
HEADER
  9
$ACADVER
  1
AC1009
  9
$INSBASE
 10
0.0
 20
0.0
 30
0.0
  9
$EXTMIN
 10
0.0
 20
-2.960436562073669
 30
0.0
  9
$EXTMAX
 10
221.5
 20
146.5
 30
0.0
  9
$LIMMIN
 10
0.0
 20
0.0
  9
$LIMMAX
 10
375.0
 20
270.0
  9
$ORTHOMODE
 70
     1
  9
$REGENMODE
 70
     1
  9
$FILLMODE
 70
     1
  9
$QTEXTMODE
 70
     0
  9
$MIRRTEXT
 70
     0
  9
$DRAGMODE
 70
     2
  9
$LTSCALE
 40
10.0
  9
$OSMODE
 70
    37
  9
$ATTMODE
 70
     1
  9
$TEXTSIZE
 40
0.2
  9
$TRACEWID
 40
0.05
  9
$TEXTSTYLE
  7
STANDARD
  9
$CLAYER
  8
0
  9
$CELTYPE
  6
BYLAYER
  9
$CECOLOR
 62
   256
  9
$DIMSCALE
 40
1.0
  9
$DIMASZ
 40
3.0
  9
$DIMEXO
 40
2.0
  9
$DIMDLI
 40
0.38
  9
$DIMRND
 40
0.0
  9
$DIMDLE
 40
0.0
  9
$DIMEXE
 40
2.0
  9
$DIMTP
 40
0.0
  9
$DIMTM
 40
0.0
  9
$DIMTXT
 40
3.2000000000000002
  9
$DIMCEN
 40
0.0
  9
$DIMTSZ
 40
0.0
  9
$DIMTOL
 70
     0
  9
$DIMLIM
 70
     0
  9
$DIMTIH
 70
     0
  9
$DIMTOH
 70
     0
  9
$DIMSE1
 70
     0
  9
$DIMSE2
 70
     0
  9
$DIMTAD
 70
     1
  9
$DIMZIN
 70
     0
  9
$DIMBLK
  1

  9
$DIMASO
 70
     1
  9
$DIMSHO
 70
     0
  9
$DIMPOST
  1

  9
$DIMAPOST
  1

  9
$DIMALT
 70
     0
  9
$DIMALTD
 70
     2
  9
$DIMALTF
 40
25.399999999999999
  9
$DIMLFAC
 40
1.0
  9
$DIMTOFL
 70
     1
  9
$DIMTVP
 40
1.6000000000000001
  9
$DIMTIX
 70
     1
  9
$DIMSOXD
 70
     0
  9
$DIMSAH
 70
     0
  9
$DIMBLK1
  1

  9
$DIMBLK2
  1

  9
$DIMSTYLE
  2
STANDARD
  9
$DIMCLRD
 70
     0
  9
$DIMCLRE
 70
     0
  9
$DIMCLRT
 70
     0
  9
$DIMTFAC
 40
1.0
  9
$DIMGAP
 40
0.09
  9
$LUNITS
 70
     2
  9
$LUPREC
 70
     4
  9
$SKETCHINC
 40
0.1
  9
$FILLETRAD
 40
0.0
  9
$AUNITS
 70
     0
  9
$AUPREC
 70
     4
  9
$MENU
  1
E:\r13\win\SUPPORT\ACAD
  9
$ELEVATION
 40
0.0
  9
$PELEVATION
 40
0.0
  9
$THICKNESS
 40
0.0
  9
$LIMCHECK
 70
     0
  9
$BLIPMODE
 70
     0
  9
$CHAMFERA
 40
0.0
  9
$CHAMFERB
 40
0.0
  9
$SKPOLY
 70
     0
  9
$TDCREATE
 40
2448439.4652310191
  9
$TDUPDATE
 40
2456840.544761227
  9
$TDINDWG
 40
0.0193474769
  9
$TDUSRTIMER
 40
0.0193474769
  9
$USRTIMER
 70
     1
  9
$ANGBASE
 50
0.0
  9
$ANGDIR
 70
     0
  9
$PDMODE
 70
     0
  9
$PDSIZE
 40
0.0
  9
$PLINEWID
 40
0.0
  9
$COORDS
 70
     1
  9
$SPLFRAME
 70
     0
  9
$SPLINETYPE
 70
     6
  9
$SPLINESEGS
 70
     8
  9
$ATTDIA
 70
     0
  9
$ATTREQ
 70
     1
  9
$HANDLING
 70
     1
  9
$HANDSEED
  5
547
  9
$SURFTAB1
 70
     6
  9
$SURFTAB2
 70
     6
  9
$SURFTYPE
 70
     6
  9
$SURFU
 70
     6
  9
$SURFV
 70
     6
  9
$UCSNAME
  2

  9
$UCSORG
 10
0.0
 20
0.0
 30
0.0
  9
$UCSXDIR
 10
1.0
 20
0.0
 30
0.0
  9
$UCSYDIR
 10
0.0
 20
1.0
 30
0.0
  9
$PUCSNAME
  2

  9
$PUCSORG
 10
0.0
 20
0.0
 30
0.0
  9
$PUCSXDIR
 10
1.0
 20
0.0
 30
0.0
  9
$PUCSYDIR
 10
0.0
 20
1.0
 30
0.0
  9
$USERI1
 70
     0
  9
$USERI2
 70
     1
  9
$USERI3
 70
     1
  9
$USERI4
 70
     0
  9
$USERI5
 70
     0
  9
$USERR1
 40
0.0
  9
$USERR2
 40
0.0
  9
$USERR3
 40
0.0
  9
$USERR4
 40
0.0
  9
$USERR5
 40
0.0
  9
$WORLDVIEW
 70
     1
  9
$SHADEDGE
 70
     3
  9
$SHADEDIF
 70
    70
  9
$TILEMODE
 70
     1
  9
$MAXACTVP
 70
    16
  9
$PLIMCHECK
 70
     0
  9
$PEXTMIN
 10
1.0000000000000000E+020
 20
1.0000000000000000E+020
 30
1.0000000000000000E+020
  9
$PEXTMAX
 10
-1.0000000000000000E+020
 20
-1.0000000000000000E+020
 30
-1.0000000000000000E+020
  9
$PLIMMIN
 10
0.0
 20
0.0
  9
$PLIMMAX
 10
12.0
 20
9.0
  9
$UNITMODE
 70
     0
  9
$VISRETAIN
 70
     0
  9
$PLINEGEN
 70
     1
  9
$PSLTSCALE
 70
     0
  0
ENDSEC
  0
SECTION
  2
TABLES
  0
TABLE
  2
VPORT
 70
     1
  0
VPORT
  2
*ACTIVE
 70
     0
 10
0.0
 20
0.0
 11
1.0
 21
1.0
 12
174.547983310153
 22
100.0
 13
0.0
 23
0.0
 14
10.0
 24
10.0
 15
10.0
 25
10.0
 16
0.0
 26
0.0
 36
1.0
 17
0.0
 27
0.0
 37
0.0
 40
200.0
 41
1.7454798331015291
 42
50.0
 43
0.0
 44
0.0
 50
0.0
 51
0.0
 71
     0
 72
   500
 73
     1
 74
     0
 75
     0
 76
     0
 77
     0
 78
     2
  0
ENDTAB
  0
TABLE
  2
LTYPE
 70
     4
  0
LTYPE
  2
CONTINUOUS
 70
     0
  3
Solid Line
 72
    65
 73
     0
 40
0.0
  0
LTYPE
  2
CENTER
 70
     0
  3
____ _ ____ _ ____ _ ____ _ ____ _ ____ _ ____
 72
    65
 73
     4
 40
2.0
 49
1.25
 49
-0.25
 49
0.25
 49
-0.25
  0
LTYPE
  2
HIDDEN
 70
     0
  3
_ _ _ _ _ _ _ _ _ _ _ _ _ _ _ _ _ _ _ _ _ _ _
 72
    65
 73
     2
 40
0.375
 49
0.25
 49
-0.125
  0
LTYPE
  2
PHANTOM2
 70
     0
  3
___ _ _ ___ _ _ ___ _ _ ___ _ _
 72
    65
 73
     6
 40
1.25
 49
0.625
 49
-0.125
 49
0.125
 49
-0.125
 49
0.125
 49
-0.125
  0
ENDTAB
  0
TABLE
  2
LAYER
 70
     3
  0
LAYER
  2
0
 70
     0
 62
     7
  6
CONTINUOUS
  0
LAYER
  2
1
 70
     0
 62
     1
  6
CENTER
  0
LAYER
  2
2
 70
     0
 62
     2
  6
HIDDEN
  0
ENDTAB
  0
TABLE
  2
STYLE
 70
     2
  0
STYLE
  2
STANDARD
 70
     0
 40
0.0
 41
1.0
 50
0.0
 71
     0
 42
0.2
  3
TXT
  4
BIGFONT
  0
STYLE
  2
STANDARD1
 70
     0
 40
0.0
 41
1.0
 50
0.0
 71
     0
 42
3.0
  3
txt
  4

  0
ENDTAB
  0
TABLE
  2
VIEW
 70
     1
  0
VIEW
  2
ALL
 70
     0
 40
270.35373846766328
 10
221.28112711554971
 20
134.8231307661683
 41
0.0
 11
0.0
 21
0.0
 31
1.0
 12
0.0
 22
0.0
 32
0.0
 42
0.0
 43
0.0
 44
0.0
 50
0.0
 71
     0
  0
ENDTAB
  0
TABLE
  2
UCS
 70
     0
  0
ENDTAB
  0
TABLE
  2
APPID
 70
     4
  0
APPID
  2
ACAD
 70
     0
  0
APPID
  2
ACAD_MLEADERVER
 70
     0
  0
APPID
  2
ACAD_NAV_VCDISPLAY
 70
     0
  0
APPID
  2
ACAD_EXEMPT_FROM_CAD_STANDARDS
 70
     0
  0
ENDTAB
  0
TABLE
  2
DIMSTYLE
 70
     1
  0
DIMSTYLE
  2
STANDARD
 70
     0
  3

  4

  5

  6

  7

 40
1.0
 41
0.18
 42
0.0625
 43
0.38
 44
0.18
 45
0.0
 46
0.0
 47
0.0
 48
0.0
140
0.18
141
0.09
142
0.0
143
25.399999999999999
144
1.0
145
0.0
146
1.0
147
0.09
 71
     0
 72
     0
 73
     1
 74
     1
 75
     0
 76
     0
 77
     0
 78
     0
170
     0
171
     2
172
     0
173
     0
174
     0
175
     0
176
     0
177
     0
178
     0
  0
ENDTAB
  0
ENDSEC
  0
SECTION
  2
BLOCKS
  0
BLOCK
  8
0
  2
$MODEL_SPACE
 70
     0
 10
0.0
 20
0.0
 30
0.0
  3
$MODEL_SPACE
  1

  0
ENDBLK
  5
164
  8
0
  0
BLOCK
 67
     1
  8
0
  2
$PAPER_SPACE
 70
     0
 10
0.0
 20
0.0
 30
0.0
  3
$PAPER_SPACE
  1

  0
ENDBLK
  5
162
 67
     1
  8
0
  0
ENDSEC
  0
SECTION
  2
ENTITIES
  0
CIRCLE
  5
37
  8
0
 10
90.000000000000057
 20
101.5
 30
0.0
 40
5.9000000000000004
  0
CIRCLE
  5
38
  8
0
 10
90.000000000000057
 20
101.5
 30
0.0
 40
3.149999999999999
  0
CIRCLE
  5
39
  8
0
 10
60.000000000000028
 20
101.5
 30
0.0
 40
5.9000000000000004
  0
CIRCLE
  5
3A
  8
0
 10
60.000000000000028
 20
101.5
 30
0.0
 40
3.149999999999999
  0
CIRCLE
  5
3B
  8
0
 10
60.000000000000028
 20
131.5
 30
0.0
 40
5.9000000000000004
  0
CIRCLE
  5
3C
  8
0
 10
60.000000000000028
 20
131.5
 30
0.0
 40
3.149999999999999
  0
CIRCLE
  5
3D
  8
0
 10
90.000000000000057
 20
131.5
 30
0.0
 40
3.149999999999999
  0
CIRCLE
  5
3E
  8
0
 10
90.000000000000057
 20
131.5
 30
0.0
 40
5.9000000000000004
  0
LINE
  5
3F
  8
2
 10
54.099999999998538
 20
56.0
 30
0.0
 11
56.849999999999909
 21
53.249999999998643
 31
0.0
  0
LINE
  5
40
  8
2
 10
56.849999999999909
 20
53.249999999998643
 30
0.0
 11
56.849999999999909
 21
50.0
 31
0.0
  0
LINE
  5
41
  8
2
 10
65.900000000001455
 20
56.0
 30
0.0
 11
63.150000000000091
 21
53.249999999998643
 31
0.0
  0
LINE
  5
42
  8
2
 10
63.150000000000091
 20
53.249999999998643
 30
0.0
 11
63.150000000000091
 21
50.0
 31
0.0
  0
LINE
  5
43
  8
2
 10
56.849999999999909
 20
53.249999999998643
 30
0.0
 11
63.150000000000091
 21
53.249999999998643
 31
0.0
  0
LINE
  5
44
  8
2
 10
93.150000000000105
 20
53.249999999998643
 30
0.0
 11
86.849999999999909
 21
53.249999999998643
 31
0.0
  0
LINE
  5
45
  8
2
 10
86.849999999999909
 20
53.249999999998643
 30
0.0
 11
86.849999999999909
 21
50.0
 31
0.0
  0
LINE
  5
46
  8
2
 10
84.099999999998545
 20
56.0
 30
0.0
 11
86.849999999999909
 21
53.249999999998643
 31
0.0
  0
LINE
  5
47
  8
2
 10
93.150000000000105
 20
53.249999999998643
 30
0.0
 11
93.150000000000105
 21
50.0
 31
0.0
  0
LINE
  5
48
  8
2
 10
95.900000000001455
 20
56.0
 30
0.0
 11
93.150000000000105
 21
53.249999999998643
 31
0.0
  0
LINE
  5
49
  8
0
 10
69.0
 20
91.500000000000014
 30
0.0
 11
69.000000000000028
 21
141.5
 31
0.0
  0
LINE
  5
4A
  8
0
 10
81.000000000000057
 20
141.5
 30
0.0
 11
81.0
 21
91.500000000000014
 31
0.0
  0
LINE
  5
4B
  8
0
 10
72.0
 20
91.500000000000014
 30
0.0
 11
72.000000000000014
 21
141.5
 31
0.0
  0
LINE
  5
4C
  8
0
 10
78.000000000000057
 20
141.5
 30
0.0
 11
78.0
 21
91.500000000000014
 31
0.0
  0
LINE
  5
4D
  8
0
 10
71.359945055359731
 20
50.5
 30
0.0
 11
71.359945055359731
 21
50.0
 31
0.0
  0
LINE
  5
4E
  8
0
 10
71.359945055359731
 20
50.0
 30
0.0
 11
50.0
 21
50.0
 31
0.0
  0
ARC
  5
4F
  8
0
 10
75.0
 20
56.5
 30
0.0
 40
6.0
 50
270.0
 51
0.0
  0
LINE
  5
50
  8
0
 10
82.0
 20
50.5
 30
0.0
 11
71.359945055359731
 21
50.5
 31
0.0
  0
LINE
  5
51
  8
0
 10
82.0
 20
50.0
 30
0.0
 11
100.0
 21
50.0
 31
0.0
  0
CIRCLE
  5
52
  8
0
 10
75.0
 20
56.5
 30
0.0
 40
3.0
  0
LINE
  5
53
  8
0
 10
97.0
 20
56.0
 30
0.0
 11
100.0
 21
53.0
 31
0.0
  0
LINE
  5
54
  8
0
 10
53.0
 20
56.0
 30
0.0
 11
50.0
 21
53.0
 31
0.0
  0
LINE
  5
55
  8
0
 10
78.0
 20
61.5
 30
0.0
 11
81.0
 21
58.5
 31
0.0
  0
LINE
  5
56
  8
0
 10
69.0
 20
58.5
 30
0.0
 11
72.0
 21
61.5
 31
0.0
  0
LINE
  5
57
  8
0
 10
50.0
 20
53.0
 30
0.0
 11
50.0
 21
50.0
 31
0.0
  0
LINE
  5
58
  8
0
 10
69.0
 20
56.0
 30
0.0
 11
53.0
 21
56.0
 31
0.0
  0
LINE
  5
59
  8
0
 10
69.0
 20
58.5
 30
0.0
 11
69.0
 21
56.0
 31
0.0
  0
LINE
  5
5A
  8
0
 10
78.0
 20
61.5
 30
0.0
 11
72.0
 21
61.5
 31
0.0
  0
LINE
  5
5B
  8
0
 10
81.0
 20
56.0
 30
0.0
 11
81.0
 21
58.5
 31
0.0
  0
LINE
  5
5C
  8
0
 10
97.0
 20
56.0
 30
0.0
 11
81.0
 21
56.0
 31
0.0
  0
LINE
  5
5D
  8
0
 10
100.0
 20
50.0
 30
0.0
 11
100.0
 21
53.0
 31
0.0
  0
LINE
  5
5E
  8
0
 10
82.000000000000057
 20
104.0
 30
0.0
 11
82.0
 21
91.500000000000014
 31
0.0
  0
LINE
  5
5F
  8
0
 10
68.000000000000028
 20
104.0
 30
0.0
 11
82.000000000000057
 21
104.0
 31
0.0
  0
LINE
  5
60
  8
0
 10
68.000000000000028
 20
116.5
 30
0.0
 11
68.000000000000028
 21
104.0
 31
0.0
  0
LINE
  5
61
  8
0
 10
82.000000000000057
 20
116.5
 30
0.0
 11
68.000000000000028
 21
116.5
 31
0.0
  0
LINE
  5
62
  8
0
 10
82.000000000000057
 20
129.0
 30
0.0
 11
82.000000000000057
 21
116.5
 31
0.0
  0
LINE
  5
63
  8
0
 10
68.000000000000028
 20
129.0
 30
0.0
 11
82.000000000000057
 21
129.0
 31
0.0
  0
LINE
  5
64
  8
0
 10
68.000000000000028
 20
141.5
 30
0.0
 11
68.000000000000028
 21
129.0
 31
0.0
  0
LINE
  5
65
  8
0
 10
53.0
 20
91.500000000000014
 30
0.0
 11
53.000000000000028
 21
141.5
 31
0.0
  0
LINE
  5
66
  8
0
 10
97.0
 20
91.500000000000014
 30
0.0
 11
97.000000000000057
 21
141.5
 31
0.0
  0
LINE
  5
67
  8
0
 10
100.0
 20
91.500000000000014
 30
0.0
 11
100.0
 21
141.5
 31
0.0
  0
LINE
  5
68
  8
0
 10
50.0
 20
91.500000000000014
 30
0.0
 11
81.0
 21
91.500000000000014
 31
0.0
  0
LINE
  5
69
  8
0
 10
50.0
 20
141.5
 30
0.0
 11
50.0
 21
91.500000000000014
 31
0.0
  0
LINE
  5
6A
  8
0
 10
100.0
 20
141.5
 30
0.0
 11
69.000000000000028
 21
141.5
 31
0.0
  0
LINE
  5
7F
  8
0
 10
221.5
 20
91.5
 30
0.0
 11
190.5
 21
91.5
 31
0.0
  0
LINE
  5
80
  8
0
 10
171.5
 20
91.5
 30
0.0
 11
171.5
 21
141.5
 31
0.0
  0
LINE
  5
81
  8
0
 10
171.5
 20
141.5
 30
0.0
 11
202.5
 21
141.5
 31
0.0
  0
LINE
  5
82
  8
0
 10
221.5
 20
141.5
 30
0.0
 11
221.5
 21
91.5
 31
0.0
  0
LINE
  5
83
  8
0
 10
189.5
 20
104.0
 30
0.0
 11
203.5
 21
104.0
 31
0.0
  0
LINE
  5
84
  8
0
 10
203.5
 20
116.5
 30
0.0
 11
189.5
 21
116.5
 31
0.0
  0
LINE
  5
85
  8
0
 10
189.5
 20
128.99999999999989
 30
0.0
 11
203.5
 21
128.99999999999989
 31
0.0
  0
CIRCLE
  5
86
  8
0
 10
211.5
 20
101.5
 30
0.0
 40
3.149999999999999
  0
CIRCLE
  5
87
  8
0
 10
181.5
 20
101.5
 30
0.0
 40
3.149999999999999
  0
CIRCLE
  5
88
  8
0
 10
181.5
 20
131.49999999999989
 30
0.0
 40
3.149999999999999
  0
CIRCLE
  5
89
  8
0
 10
211.5
 20
131.49999999999989
 30
0.0
 40
3.149999999999999
  0
ARC
  5
8A
  8
0
 10
181.5
 20
131.49999999999989
 30
0.0
 40
6.25
 50
208.68540201411841
 51
331.31459798588162
  0
LINE
  5
8B
  8
0
 10
174.0
 20
128.49999999999989
 30
0.0
 11
176.01707195013461
 21
128.49999999999989
 31
0.0
  0
LINE
  5
8C
  8
0
 10
186.98292804986531
 20
128.49999999999989
 30
0.0
 11
189.0
 21
128.49999999999989
 31
0.0
  0
LINE
  5
8D
  8
0
 10
174.0
 20
128.49999999999989
 30
0.0
 11
174.0
 21
104.5
 31
0.0
  0
LINE
  5
8E
  8
0
 10
189.0
 20
128.49999999999989
 30
0.0
 11
189.0
 21
104.5
 31
0.0
  0
LINE
  5
8F
  8
0
 10
186.98292804986531
 20
104.5
 30
0.0
 11
189.0
 21
104.5
 31
0.0
  0
LINE
  5
90
  8
0
 10
174.0
 20
104.5
 30
0.0
 11
176.01707195013461
 21
104.5
 31
0.0
  0
ARC
  5
91
  8
0
 10
181.5
 20
101.5
 30
0.0
 40
6.25
 50
28.685402014120069
 51
151.31459798587991
  0
LINE
  5
92
  8
1
 10
187.65000000000001
 20
101.5
 30
0.0
 11
175.34999999999991
 21
101.5
 31
0.0
  0
LINE
  5
93
  8
1
 10
181.5
 20
107.65000000000001
 30
0.0
 11
181.5
 21
95.350000000000009
 31
0.0
  0
LINE
  5
94
  8
1
 10
187.65000000000001
 20
131.49999999999989
 30
0.0
 11
175.34999999999991
 21
131.49999999999989
 31
0.0
  0
LINE
  5
95
  8
1
 10
181.5
 20
137.65000000000001
 30
0.0
 11
181.5
 21
125.34999999999999
 31
0.0
  0
LINE
  5
96
  8
1
 10
217.65000000000001
 20
131.49999999999989
 30
0.0
 11
205.34999999999999
 21
131.49999999999989
 31
0.0
  0
LINE
  5
97
  8
1
 10
211.5
 20
137.65000000000001
 30
0.0
 11
211.5
 21
125.34999999999999
 31
0.0
  0
LINE
  5
98
  8
1
 10
217.65000000000001
 20
101.5
 30
0.0
 11
205.34999999999999
 21
101.5
 31
0.0
  0
LINE
  5
99
  8
1
 10
211.5
 20
107.65000000000001
 30
0.0
 11
211.5
 21
95.350000000000009
 31
0.0
  0
ARC
  5
9A
  8
0
 10
211.50000000000011
 20
101.5
 30
0.0
 40
6.25
 50
28.685402014120069
 51
151.31459798587991
  0
LINE
  5
9B
  8
0
 10
219.00000000000011
 20
104.5
 30
0.0
 11
216.98292804986539
 21
104.5
 31
0.0
  0
LINE
  5
9C
  8
0
 10
206.01707195013469
 20
104.5
 30
0.0
 11
204.0
 21
104.5
 31
0.0
  0
LINE
  5
9D
  8
0
 10
204.0
 20
128.49999999999989
 30
0.0
 11
204.0
 21
104.5
 31
0.0
  0
LINE
  5
9E
  8
0
 10
219.00000000000011
 20
128.49999999999989
 30
0.0
 11
219.00000000000011
 21
104.5
 31
0.0
  0
LINE
  5
9F
  8
0
 10
206.01707195013469
 20
128.49999999999989
 30
0.0
 11
204.0
 21
128.49999999999989
 31
0.0
  0
LINE
  5
A0
  8
0
 10
219.00000000000011
 20
128.49999999999989
 30
0.0
 11
216.98292804986539
 21
128.49999999999989
 31
0.0
  0
ARC
  5
A1
  8
0
 10
211.50000000000011
 20
131.49999999999989
 30
0.0
 40
6.25
 50
208.68540201411841
 51
331.31459798588162
  0
LINE
  5
A2
  8
1
 10
196.5
 20
146.5
 30
0.0
 11
196.5
 21
86.5
 31
0.0
  0
LINE
  5
A3
  8
1
 10
60.0
 20
59.0
 30
0.0
 11
60.0
 21
47.0
 31
0.0
  0
LINE
  5
A4
  8
1
 10
90.0
 20
59.0
 30
0.0
 11
90.0
 21
47.0
 31
0.0
  0
LINE
  5
A5
  8
1
 10
75.0
 20
66.5
 30
0.0
 11
75.0
 21
45.499999999999993
 31
0.0
  0
LINE
  5
A6
  8
1
 10
81.0
 20
56.5
 30
0.0
 11
69.0
 21
56.5
 31
0.0
  0
LINE
  5
C6
  8
1
 10
75.000000000000057
 20
146.5
 30
0.0
 11
75.0
 21
86.500000000000014
 31
0.0
  0
LINE
  5
C7
  8
1
 10
60.000000000000028
 20
122.59999999999999
 30
0.0
 11
60.000000000000028
 21
140.40000000000001
 31
0.0
  0
LINE
  5
C8
  8
1
 10
68.900000000000034
 20
131.5
 30
0.0
 11
51.100000000000023
 21
131.5
 31
0.0
  0
LINE
  5
C9
  8
1
 10
90.000000000000057
 20
122.59999999999999
 30
0.0
 11
90.000000000000057
 21
140.40000000000001
 31
0.0
  0
LINE
  5
CA
  8
1
 10
98.900000000000034
 20
131.5
 30
0.0
 11
81.100000000000023
 21
131.5
 31
0.0
  0
LINE
  5
CB
  8
1
 10
60.000000000000028
 20
92.600000000000037
 30
0.0
 11
60.000000000000028
 21
110.40000000000001
 31
0.0
  0
LINE
  5
CC
  8
1
 10
68.900000000000034
 20
101.5
 30
0.0
 11
51.100000000000023
 21
101.5
 31
0.0
  0
LINE
  5
CD
  8
1
 10
90.000000000000057
 20
92.600000000000037
 30
0.0
 11
90.000000000000057
 21
110.40000000000001
 31
0.0
  0
LINE
  5
CE
  8
1
 10
98.900000000000034
 20
101.5
 30
0.0
 11
81.100000000000023
 21
101.5
 31
0.0
  0
LINE
  5
D4
  8
2
 10
138.5
 20
125.25
 30
0.0
 11
138.5
 21
107.75
 31
0.0
  0
LINE
  5
D5
  8
2
 10
138.5
 20
107.75
 30
0.0
 11
141.5
 21
107.75
 31
0.0
  0
LINE
  5
D6
  8
2
 10
138.5
 20
125.25
 30
0.0
 11
141.5
 21
125.25
 31
0.0
  0
LINE
  5
D7
  8
1
 10
132.5
 20
101.5
 30
0.0
 11
144.5
 21
101.5
 31
0.0
  0
LINE
  5
D8
  8
1
 10
132.5
 20
131.5
 30
0.0
 11
144.5
 21
131.5
 31
0.0
  0
LINE
  5
D9
  8
0
 10
135.5
 20
104.0
 30
0.0
 11
130.0
 21
104.0
 31
0.0
  0
LINE
  5
DA
  8
0
 10
135.5
 20
129.0
 30
0.0
 11
130.0
 21
129.0
 31
0.0
  0
LINE
  5
DB
  8
0
 10
135.5
 20
116.5
 30
0.0
 11
130.0
 21
116.5
 31
0.0
  0
LINE
  5
DC
  8
2
 10
138.25000000000131
 20
134.65000000000009
 30
0.0
 11
138.25000000000131
 21
128.34999999999991
 31
0.0
  0
LINE
  5
DD
  8
2
 10
138.25000000000131
 20
128.34999999999991
 30
0.0
 11
141.5
 21
128.34999999999991
 31
0.0
  0
LINE
  5
DE
  8
2
 10
135.5
 20
125.5999999999985
 30
0.0
 11
138.25000000000131
 21
128.34999999999991
 31
0.0
  0
LINE
  5
DF
  8
2
 10
138.25000000000131
 20
134.65000000000009
 30
0.0
 11
141.5
 21
134.65000000000009
 31
0.0
  0
LINE
  5
E0
  8
2
 10
135.5
 20
137.4000000000014
 30
0.0
 11
138.25000000000131
 21
134.65000000000009
 31
0.0
  0
LINE
  5
E1
  8
2
 10
135.5
 20
107.4000000000014
 30
0.0
 11
138.25000000000131
 21
104.65000000000011
 31
0.0
  0
LINE
  5
E2
  8
2
 10
138.25000000000131
 20
104.65000000000011
 30
0.0
 11
141.5
 21
104.65000000000011
 31
0.0
  0
LINE
  5
E3
  8
2
 10
135.5
 20
95.599999999998559
 30
0.0
 11
138.25000000000131
 21
98.349999999999923
 31
0.0
  0
LINE
  5
E4
  8
2
 10
138.25000000000131
 20
98.349999999999923
 30
0.0
 11
141.5
 21
98.349999999999923
 31
0.0
  0
LINE
  5
E5
  8
2
 10
138.25000000000131
 20
104.65000000000011
 30
0.0
 11
138.25000000000131
 21
98.349999999999923
 31
0.0
  0
LINE
  5
E6
  8
0
 10
130.0
 20
91.500000000000014
 30
0.0
 11
130.0
 21
141.5
 31
0.0
  0
LINE
  5
E7
  8
0
 10
133.0
 20
91.500000000000014
 30
0.0
 11
133.0
 21
141.5
 31
0.0
  0
LINE
  5
E8
  8
0
 10
135.5
 20
91.500000000000014
 30
0.0
 11
135.5
 21
141.5
 31
0.0
  0
LINE
  5
E9
  8
0
 10
138.5
 20
91.500000000000014
 30
0.0
 11
138.5
 21
141.5
 31
0.0
  0
LINE
  5
EA
  8
0
 10
141.5
 20
91.500000000000014
 30
0.0
 11
130.0
 21
91.500000000000014
 31
0.0
  0
LINE
  5
EB
  8
0
 10
141.5
 20
141.5
 30
0.0
 11
130.0
 21
141.5
 31
0.0
  0
LINE
  5
EC
  8
0
 10
141.5
 20
91.500000000000014
 30
0.0
 11
141.5
 21
141.5
 31
0.0
  0
LINE
  5
F7
  8
0
 10
82.0
 20
91.500000000000014
 30
0.0
 11
100.0
 21
91.500000000000014
 31
0.0
  0
LINE
  5
F8
  8
0
 10
68.000000000000028
 20
141.5
 30
0.0
 11
50.0
 21
141.5
 31
0.0
  0
LINE
  5
F9
  8
0
 10
82.0
 20
56.0
 30
0.0
 11
82.0
 21
50.0
 31
0.0
  0
LINE
  5
FA
  8
0
 10
203.5
 20
91.5
 30
0.0
 11
203.5
 21
141.5
 31
0.0
  0
LINE
  5
FB
  8
0
 10
189.5
 20
91.5
 30
0.0
 11
189.5
 21
141.5
 31
0.0
  0
LINE
  5
FC
  8
0
 10
203.5
 20
141.5
 30
0.0
 11
221.5
 21
141.5
 31
0.0
  0
LINE
  5
FD
  8
0
 10
189.5
 20
91.5
 30
0.0
 11
171.5
 21
91.5
 31
0.0
  0
LINE
  5
FE
  8
0
 10
202.5
 20
141.5
 30
0.0
 11
202.5
 21
128.99999999999989
 31
0.0
  0
LINE
  5
FF
  8
0
 10
190.5
 20
91.5
 30
0.0
 11
190.5
 21
103.9999999999999
 31
0.0
  0
LINE
  5
100
  8
0
 10
190.5
 20
116.5
 30
0.0
 11
190.5
 21
128.99999999999989
 31
0.0
  0
LINE
  5
101
  8
0
 10
202.5
 20
116.5
 30
0.0
 11
202.5
 21
103.9999999999999
 31
0.0
  0
TEXT
  5
256
  8
0
 62
     3
 10
0.0
 20
0.0
 30
0.0
 40
10.0
  1
FTH5050HC
  7
STANDARD1
  0
ENDSEC
  0
EOF
