  0
SECTION
  2
HEADER
  9
$ACADVER
  1
AC1009
  9
$INSBASE
 10
0.0
 20
0.0
 30
0.0
  9
$EXTMIN
 10
0.0
 20
-2.960436562073669
 30
0.0
  9
$EXTMAX
 10
259.0
 20
174.0
 30
0.0
  9
$LIMMIN
 10
0.0
 20
0.0
  9
$LIMMAX
 10
375.0
 20
270.0
  9
$ORTHOMODE
 70
     0
  9
$REGENMODE
 70
     1
  9
$FILLMODE
 70
     1
  9
$QTEXTMODE
 70
     0
  9
$MIRRTEXT
 70
     0
  9
$DRAGMODE
 70
     2
  9
$LTSCALE
 40
10.0
  9
$OSMODE
 70
    37
  9
$ATTMODE
 70
     1
  9
$TEXTSIZE
 40
0.2
  9
$TRACEWID
 40
0.05
  9
$TEXTSTYLE
  7
STANDARD
  9
$CLAYER
  8
0
  9
$CELTYPE
  6
BYLAYER
  9
$CECOLOR
 62
   256
  9
$DIMSCALE
 40
1.0
  9
$DIMASZ
 40
3.0
  9
$DIMEXO
 40
2.0
  9
$DIMDLI
 40
0.38
  9
$DIMRND
 40
0.0
  9
$DIMDLE
 40
0.0
  9
$DIMEXE
 40
2.0
  9
$DIMTP
 40
0.0
  9
$DIMTM
 40
0.0
  9
$DIMTXT
 40
3.2000000000000002
  9
$DIMCEN
 40
0.0
  9
$DIMTSZ
 40
0.0
  9
$DIMTOL
 70
     0
  9
$DIMLIM
 70
     0
  9
$DIMTIH
 70
     0
  9
$DIMTOH
 70
     0
  9
$DIMSE1
 70
     0
  9
$DIMSE2
 70
     0
  9
$DIMTAD
 70
     1
  9
$DIMZIN
 70
     0
  9
$DIMBLK
  1

  9
$DIMASO
 70
     1
  9
$DIMSHO
 70
     0
  9
$DIMPOST
  1

  9
$DIMAPOST
  1

  9
$DIMALT
 70
     0
  9
$DIMALTD
 70
     2
  9
$DIMALTF
 40
25.399999999999999
  9
$DIMLFAC
 40
1.0
  9
$DIMTOFL
 70
     1
  9
$DIMTVP
 40
1.6000000000000001
  9
$DIMTIX
 70
     1
  9
$DIMSOXD
 70
     0
  9
$DIMSAH
 70
     0
  9
$DIMBLK1
  1

  9
$DIMBLK2
  1

  9
$DIMSTYLE
  2
STANDARD
  9
$DIMCLRD
 70
     0
  9
$DIMCLRE
 70
     0
  9
$DIMCLRT
 70
     0
  9
$DIMTFAC
 40
1.0
  9
$DIMGAP
 40
0.09
  9
$LUNITS
 70
     2
  9
$LUPREC
 70
     4
  9
$SKETCHINC
 40
0.1
  9
$FILLETRAD
 40
0.0
  9
$AUNITS
 70
     0
  9
$AUPREC
 70
     4
  9
$MENU
  1
E:\r13\win\SUPPORT\ACAD
  9
$ELEVATION
 40
0.0
  9
$PELEVATION
 40
0.0
  9
$THICKNESS
 40
0.0
  9
$LIMCHECK
 70
     0
  9
$BLIPMODE
 70
     0
  9
$CHAMFERA
 40
0.0
  9
$CHAMFERB
 40
0.0
  9
$SKPOLY
 70
     0
  9
$TDCREATE
 40
2448436.5623123841
  9
$TDUPDATE
 40
2456840.5448106951
  9
$TDINDWG
 40
0.0944737384
  9
$TDUSRTIMER
 40
0.0944737384
  9
$USRTIMER
 70
     1
  9
$ANGBASE
 50
0.0
  9
$ANGDIR
 70
     0
  9
$PDMODE
 70
     0
  9
$PDSIZE
 40
0.0
  9
$PLINEWID
 40
0.0
  9
$COORDS
 70
     1
  9
$SPLFRAME
 70
     0
  9
$SPLINETYPE
 70
     6
  9
$SPLINESEGS
 70
     8
  9
$ATTDIA
 70
     0
  9
$ATTREQ
 70
     1
  9
$HANDLING
 70
     1
  9
$HANDSEED
  5
4B4
  9
$SURFTAB1
 70
     6
  9
$SURFTAB2
 70
     6
  9
$SURFTYPE
 70
     6
  9
$SURFU
 70
     6
  9
$SURFV
 70
     6
  9
$UCSNAME
  2

  9
$UCSORG
 10
0.0
 20
0.0
 30
0.0
  9
$UCSXDIR
 10
1.0
 20
0.0
 30
0.0
  9
$UCSYDIR
 10
0.0
 20
1.0
 30
0.0
  9
$PUCSNAME
  2

  9
$PUCSORG
 10
0.0
 20
0.0
 30
0.0
  9
$PUCSXDIR
 10
1.0
 20
0.0
 30
0.0
  9
$PUCSYDIR
 10
0.0
 20
1.0
 30
0.0
  9
$USERI1
 70
     0
  9
$USERI2
 70
     1
  9
$USERI3
 70
     1
  9
$USERI4
 70
     0
  9
$USERI5
 70
     0
  9
$USERR1
 40
0.0
  9
$USERR2
 40
0.0
  9
$USERR3
 40
0.0
  9
$USERR4
 40
0.0
  9
$USERR5
 40
0.0
  9
$WORLDVIEW
 70
     1
  9
$SHADEDGE
 70
     3
  9
$SHADEDIF
 70
    70
  9
$TILEMODE
 70
     1
  9
$MAXACTVP
 70
    16
  9
$PLIMCHECK
 70
     0
  9
$PEXTMIN
 10
1.0000000000000000E+020
 20
1.0000000000000000E+020
 30
1.0000000000000000E+020
  9
$PEXTMAX
 10
-1.0000000000000000E+020
 20
-1.0000000000000000E+020
 30
-1.0000000000000000E+020
  9
$PLIMMIN
 10
0.0
 20
0.0
  9
$PLIMMAX
 10
12.0
 20
9.0
  9
$UNITMODE
 70
     0
  9
$VISRETAIN
 70
     0
  9
$PLINEGEN
 70
     1
  9
$PSLTSCALE
 70
     0
  0
ENDSEC
  0
SECTION
  2
TABLES
  0
TABLE
  2
VPORT
 70
     1
  0
VPORT
  2
*ACTIVE
 70
     0
 10
0.0
 20
0.0
 11
1.0
 21
1.0
 12
174.547983310153
 22
100.0
 13
0.0
 23
0.0
 14
10.0
 24
10.0
 15
10.0
 25
10.0
 16
0.0
 26
0.0
 36
1.0
 17
0.0
 27
0.0
 37
0.0
 40
200.0
 41
1.7454798331015291
 42
50.0
 43
0.0
 44
0.0
 50
0.0
 51
0.0
 71
     0
 72
   500
 73
     1
 74
     0
 75
     0
 76
     0
 77
     0
 78
     2
  0
ENDTAB
  0
TABLE
  2
LTYPE
 70
     4
  0
LTYPE
  2
CONTINUOUS
 70
     0
  3
Solid Line
 72
    65
 73
     0
 40
0.0
  0
LTYPE
  2
CENTER
 70
     0
  3
____ _ ____ _ ____ _ ____ _ ____ _ ____ _ ____
 72
    65
 73
     4
 40
2.0
 49
1.25
 49
-0.25
 49
0.25
 49
-0.25
  0
LTYPE
  2
HIDDEN
 70
     0
  3
_ _ _ _ _ _ _ _ _ _ _ _ _ _ _ _ _ _ _ _ _ _ _
 72
    65
 73
     2
 40
0.375
 49
0.25
 49
-0.125
  0
LTYPE
  2
PHANTOM2
 70
     0
  3
___ _ _ ___ _ _ ___ _ _ ___ _ _
 72
    65
 73
     6
 40
1.25
 49
0.625
 49
-0.125
 49
0.125
 49
-0.125
 49
0.125
 49
-0.125
  0
ENDTAB
  0
TABLE
  2
LAYER
 70
     4
  0
LAYER
  2
0
 70
     0
 62
     7
  6
CONTINUOUS
  0
LAYER
  2
1
 70
     0
 62
     1
  6
CENTER
  0
LAYER
  2
2
 70
     0
 62
     2
  6
HIDDEN
  0
LAYER
  2
3
 70
     0
 62
     3
  6
CONTINUOUS
  0
ENDTAB
  0
TABLE
  2
STYLE
 70
     2
  0
STYLE
  2
STANDARD
 70
     0
 40
0.0
 41
1.0
 50
0.0
 71
     0
 42
0.2
  3
TXT
  4
BIGFONT
  0
STYLE
  2
STANDARD1
 70
     0
 40
0.0
 41
1.0
 50
0.0
 71
     0
 42
3.0
  3
txt
  4

  0
ENDTAB
  0
TABLE
  2
VIEW
 70
     1
  0
VIEW
  2
ALL
 70
     0
 40
270.0
 10
220.99159663865549
 20
135.0
 41
0.0
 11
0.0
 21
0.0
 31
1.0
 12
0.0
 22
0.0
 32
0.0
 42
0.0
 43
0.0
 44
0.0
 50
0.0
 71
     0
  0
ENDTAB
  0
TABLE
  2
UCS
 70
     0
  0
ENDTAB
  0
TABLE
  2
APPID
 70
     4
  0
APPID
  2
ACAD
 70
     0
  0
APPID
  2
ACAD_MLEADERVER
 70
     0
  0
APPID
  2
ACAD_NAV_VCDISPLAY
 70
     0
  0
APPID
  2
ACAD_EXEMPT_FROM_CAD_STANDARDS
 70
     0
  0
ENDTAB
  0
TABLE
  2
DIMSTYLE
 70
     1
  0
DIMSTYLE
  2
STANDARD
 70
     0
  3

  4

  5

  6

  7

 40
1.0
 41
0.18
 42
0.0625
 43
0.38
 44
0.18
 45
0.0
 46
0.0
 47
0.0
 48
0.0
140
0.18
141
0.09
142
0.0
143
25.399999999999999
144
1.0
145
0.0
146
1.0
147
0.09
 71
     0
 72
     0
 73
     1
 74
     1
 75
     0
 76
     0
 77
     0
 78
     0
170
     0
171
     2
172
     0
173
     0
174
     0
175
     0
176
     0
177
     0
178
     0
  0
ENDTAB
  0
ENDSEC
  0
SECTION
  2
BLOCKS
  0
BLOCK
  8
0
  2
$MODEL_SPACE
 70
     0
 10
0.0
 20
0.0
 30
0.0
  3
$MODEL_SPACE
  1

  0
ENDBLK
  5
1D9
  8
0
  0
BLOCK
 67
     1
  8
0
  2
$PAPER_SPACE
 70
     0
 10
0.0
 20
0.0
 30
0.0
  3
$PAPER_SPACE
  1

  0
ENDBLK
  5
1D7
 67
     1
  8
0
  0
ENDSEC
  0
SECTION
  2
ENTITIES
  0
LINE
  5
38
  8
0
 10
72.5
 20
109.0
 30
0.0
 11
72.500000000000028
 21
169.0
 31
0.0
  0
LINE
  5
39
  8
0
 10
76.5
 20
109.0
 30
0.0
 11
76.500000000000028
 21
169.0
 31
0.0
  0
LINE
  5
3A
  8
0
 10
71.5
 20
124.0
 30
0.0
 11
71.5
 21
139.0
 31
0.0
  0
LINE
  5
3B
  8
0
 10
71.5
 20
154.0
 30
0.0
 11
71.500000000000028
 21
169.0
 31
0.0
  0
LINE
  5
3C
  8
0
 10
88.499999999999986
 20
123.9999999999999
 30
0.0
 11
88.499999999999986
 21
109.0
 31
0.0
  0
LINE
  5
3D
  8
0
 10
88.499999999999986
 20
153.99999999999989
 30
0.0
 11
88.499999999999986
 21
139.0
 31
0.0
  0
LINE
  5
3E
  8
0
 10
88.499999999999986
 20
153.99999999999989
 30
0.0
 11
71.5
 21
153.99999999999989
 31
0.0
  0
LINE
  5
3F
  8
0
 10
88.499999999999986
 20
138.99999999999989
 30
0.0
 11
71.5
 21
138.99999999999989
 31
0.0
  0
LINE
  5
40
  8
0
 10
88.499999999999986
 20
123.9999999999999
 30
0.0
 11
71.5
 21
123.9999999999999
 31
0.0
  0
LINE
  5
41
  8
0
 10
83.500000000000028
 20
168.99999999999989
 30
0.0
 11
83.499999999999986
 21
109.0
 31
0.0
  0
LINE
  5
42
  8
0
 10
88.499999999999986
 20
65.0
 30
0.0
 11
75.968871125850683
 21
65.0
 31
0.0
  0
LINE
  5
43
  8
0
 10
75.968871125850683
 20
65.0
 30
0.0
 11
75.968871125850683
 21
64.0
 31
0.0
  0
LINE
  5
44
  8
0
 10
75.968871125850683
 20
64.0
 30
0.0
 11
50.0
 21
64.0
 31
0.0
  0
LINE
  5
45
  8
0
 10
50.0
 20
64.0
 30
0.0
 11
50.0
 21
68.0
 31
0.0
  0
LINE
  5
46
  8
0
 10
53.999999999999993
 20
72.0
 30
0.0
 11
50.0
 21
68.0
 31
0.0
  0
LINE
  5
47
  8
0
 10
53.999999999999993
 20
72.0
 30
0.0
 11
72.5
 21
72.0
 31
0.0
  0
LINE
  5
48
  8
0
 10
72.5
 20
72.0
 30
0.0
 11
72.5
 21
75.0
 31
0.0
  0
LINE
  5
49
  8
0
 10
76.5
 20
79.0
 30
0.0
 11
72.5
 21
75.0
 31
0.0
  0
LINE
  5
4A
  8
0
 10
88.499999999999986
 20
64.0
 30
0.0
 11
110.0
 21
64.0
 31
0.0
  0
ARC
  5
4B
  8
0
 10
80.0
 20
72.5
 30
0.0
 40
7.4999999999999849
 50
270.0
 51
0.0
  0
LINE
  5
4C
  8
0
 10
106.0
 20
72.0
 30
0.0
 11
110.0
 21
68.0
 31
0.0
  0
LINE
  5
4D
  8
0
 10
83.499999999999986
 20
79.0
 30
0.0
 11
87.5
 21
75.0
 31
0.0
  0
CIRCLE
  5
4E
  8
0
 10
80.0
 20
72.5
 30
0.0
 40
4.0
  0
LINE
  5
4F
  8
0
 10
83.499999999999986
 20
79.0
 30
0.0
 11
76.5
 21
79.0
 31
0.0
  0
LINE
  5
50
  8
0
 10
87.5
 20
72.0
 30
0.0
 11
87.5
 21
75.0
 31
0.0
  0
LINE
  5
51
  8
0
 10
106.0
 20
72.0
 30
0.0
 11
87.5
 21
72.0
 31
0.0
  0
LINE
  5
52
  8
0
 10
110.0
 20
64.0
 30
0.0
 11
110.0
 21
68.0
 31
0.0
  0
LINE
  5
53
  8
0
 10
87.500000000000028
 20
168.99999999999989
 30
0.0
 11
87.5
 21
109.0
 31
0.0
  0
LINE
  5
54
  8
0
 10
106.0
 20
168.99999999999989
 30
0.0
 11
106.0
 21
109.0
 31
0.0
  0
LINE
  5
55
  8
0
 10
110.0
 20
109.0
 30
0.0
 11
88.499999999999986
 21
109.0
 31
0.0
  0
LINE
  5
56
  8
0
 10
50.0
 20
109.0
 30
0.0
 11
50.000000000000021
 21
169.0
 31
0.0
  0
LINE
  5
57
  8
0
 10
50.000000000000021
 20
169.0
 30
0.0
 11
71.500000000000028
 21
168.99999999999989
 31
0.0
  0
LINE
  5
58
  8
0
 10
110.0
 20
168.99999999999989
 30
0.0
 11
110.0
 21
109.0
 31
0.0
  0
LINE
  5
59
  8
0
 10
259.0
 20
108.9999999999999
 30
0.0
 11
259.0
 21
168.99999999999989
 31
0.0
  0
LINE
  5
5A
  8
0
 10
199.0
 20
109.0
 30
0.0
 11
220.5
 21
109.0
 31
0.0
  0
LINE
  5
5B
  8
0
 10
199.0
 20
169.0
 30
0.0
 11
199.0
 21
109.0
 31
0.0
  0
LINE
  5
5C
  8
0
 10
259.0
 20
168.99999999999989
 30
0.0
 11
237.5
 21
169.0
 31
0.0
  0
LINE
  5
5D
  8
0
 10
237.5
 20
154.0
 30
0.0
 11
220.5
 21
154.0
 31
0.0
  0
LINE
  5
5E
  8
0
 10
237.5
 20
139.0
 30
0.0
 11
220.5
 21
139.0
 31
0.0
  0
LINE
  5
5F
  8
0
 10
237.5
 20
124.0
 30
0.0
 11
220.5
 21
124.0
 31
0.0
  0
CIRCLE
  5
60
  8
0
 10
211.0
 20
157.00000000000011
 30
0.0
 40
6.0
  0
LINE
  5
61
  8
0
 10
233.03112887414929
 20
154.0
 30
0.0
 11
233.03112887414929
 21
139.0
 31
0.0
  0
LINE
  5
62
  8
0
 10
224.9688711258508
 20
169.0
 30
0.0
 11
224.96887112585071
 21
154.00000000000011
 31
0.0
  0
LINE
  5
63
  8
0
 10
54.000000000000021
 20
169.0
 30
0.0
 11
54.000000000000007
 21
109.0
 31
0.0
  0
LINE
  5
64
  8
1
 10
80.000000000000057
 20
174.0
 30
0.0
 11
80.000000000000028
 21
104.0
 31
0.0
  0
LINE
  5
76
  8
1
 10
229.0
 20
174.0
 30
0.0
 11
229.0
 21
104.0
 31
0.0
  0
ARC
  5
77
  8
0
 10
211.0
 20
157.00000000000011
 30
0.0
 40
7.5
 50
101.5369590328164
 51
164.533990046577
  0
LINE
  5
78
  8
1
 10
211.0
 20
150.0
 30
0.0
 11
211.0
 21
164.0
 31
0.0
  0
LINE
  5
79
  8
1
 10
217.99999999999989
 20
157.00000000000011
 30
0.0
 11
204.0
 21
157.00000000000011
 31
0.0
  0
LINE
  5
7A
  8
1
 10
217.99999999999989
 20
121.0
 30
0.0
 11
204.0
 21
121.0
 31
0.0
  0
LINE
  5
7B
  8
1
 10
211.0
 20
113.9999999999999
 30
0.0
 11
211.0
 21
127.9999999999999
 31
0.0
  0
LINE
  5
7C
  8
0
 10
202.0
 20
166.0
 30
0.0
 11
202.0
 21
159.00000000000011
 31
0.0
  0
LINE
  5
7D
  8
0
 10
220.5
 20
166.0
 30
0.0
 11
212.5
 21
166.0
 31
0.0
  0
LINE
  5
7E
  8
0
 10
209.5
 20
166.0
 30
0.0
 11
209.5
 21
164.34846922834859
 31
0.0
  0
LINE
  5
7F
  8
0
 10
212.5
 20
166.0
 30
0.0
 11
212.5
 21
164.34846922834959
 31
0.0
  0
LINE
  5
80
  8
0
 10
220.5
 20
159.00000000000011
 30
0.0
 11
218.22841614740111
 21
159.00000000000011
 31
0.0
  0
LINE
  5
81
  8
0
 10
203.77158385260091
 20
155.00000000000011
 30
0.0
 11
202.0
 21
155.00000000000011
 31
0.0
  0
LINE
  5
82
  8
0
 10
203.77158385259889
 20
159.00000000000011
 30
0.0
 11
202.0
 21
159.00000000000011
 31
0.0
  0
ARC
  5
83
  8
0
 10
211.0
 20
157.00000000000011
 30
0.0
 40
7.5
 50
195.46600995342649
 51
321.00442900359178
  0
ARC
  5
84
  8
0
 10
211.0
 20
157.00000000000011
 30
0.0
 40
7.5
 50
15.46600995341986
 51
78.463040967185179
  0
LINE
  5
85
  8
0
 10
202.0
 20
155.00000000000011
 30
0.0
 11
202.0
 21
122.9999999999999
 31
0.0
  0
LINE
  5
86
  8
0
 10
209.5
 20
166.0
 30
0.0
 11
202.0
 21
166.0
 31
0.0
  0
LINE
  5
87
  8
0
 10
209.5
 20
112.0
 30
0.0
 11
202.0
 21
112.0
 31
0.0
  0
ARC
  5
88
  8
0
 10
211.0
 20
120.9999999999999
 30
0.0
 40
7.5
 50
41.810314895780763
 51
164.53399004657331
  0
LINE
  5
89
  8
0
 10
203.77158385259889
 20
118.9999999999999
 30
0.0
 11
202.0
 21
118.9999999999999
 31
0.0
  0
LINE
  5
8A
  8
0
 10
203.77158385260091
 20
122.9999999999999
 30
0.0
 11
202.0
 21
122.9999999999999
 31
0.0
  0
LINE
  5
8B
  8
0
 10
209.5
 20
112.0
 30
0.0
 11
209.5
 21
113.6515307716513
 31
0.0
  0
LINE
  5
8C
  8
0
 10
202.0
 20
112.0
 30
0.0
 11
202.0
 21
118.9999999999999
 31
0.0
  0
ARC
  5
8D
  8
0
 10
211.0
 20
120.9999999999999
 30
0.0
 40
7.5
 50
195.466009953423
 51
258.46304096718347
  0
ARC
  5
8E
  8
0
 10
247.0
 20
120.9999999999999
 30
0.0
 40
7.5
 50
281.53695903281653
 51
344.53399004657689
  0
LINE
  5
8F
  8
0
 10
256.0
 20
111.9999999999999
 30
0.0
 11
256.0
 21
118.9999999999998
 31
0.0
  0
LINE
  5
90
  8
0
 10
237.5
 20
112.0
 30
0.0
 11
245.5
 21
112.0
 31
0.0
  0
LINE
  5
91
  8
0
 10
248.5
 20
112.0
 30
0.0
 11
248.5
 21
113.6515307716513
 31
0.0
  0
LINE
  5
92
  8
0
 10
245.5
 20
112.0
 30
0.0
 11
245.5
 21
113.6515307716503
 31
0.0
  0
LINE
  5
93
  8
0
 10
237.5
 20
118.9999999999999
 30
0.0
 11
239.77158385259889
 21
118.9999999999999
 31
0.0
  0
LINE
  5
94
  8
0
 10
254.22841614739909
 20
122.9999999999998
 30
0.0
 11
256.0
 21
122.9999999999998
 31
0.0
  0
LINE
  5
95
  8
0
 10
254.22841614740111
 20
118.9999999999998
 30
0.0
 11
256.0
 21
118.9999999999998
 31
0.0
  0
ARC
  5
96
  8
0
 10
247.0
 20
120.9999999999999
 30
0.0
 40
7.5
 50
15.46600995342663
 51
141.00442900359181
  0
ARC
  5
97
  8
0
 10
247.0
 20
120.9999999999999
 30
0.0
 40
7.5
 50
195.46600995341981
 51
258.46304096718518
  0
LINE
  5
98
  8
0
 10
248.5
 20
112.0
 30
0.0
 11
256.0
 21
111.9999999999999
 31
0.0
  0
LINE
  5
99
  8
0
 10
248.5
 20
166.0
 30
0.0
 11
256.0
 21
165.99999999999989
 31
0.0
  0
LINE
  5
9A
  8
0
 10
256.0
 20
155.0
 30
0.0
 11
256.0
 21
122.9999999999998
 31
0.0
  0
ARC
  5
9B
  8
0
 10
247.0
 20
157.00000000000011
 30
0.0
 40
7.5
 50
221.81031489578081
 51
344.53399004657342
  0
LINE
  5
9C
  8
0
 10
254.22841614740111
 20
159.0
 30
0.0
 11
256.0
 21
159.0
 31
0.0
  0
LINE
  5
9D
  8
0
 10
254.22841614739909
 20
155.0
 30
0.0
 11
256.0
 21
155.0
 31
0.0
  0
LINE
  5
9E
  8
0
 10
248.5
 20
166.0
 30
0.0
 11
248.5
 21
164.34846922834859
 31
0.0
  0
LINE
  5
9F
  8
0
 10
256.0
 20
165.99999999999989
 30
0.0
 11
256.0
 21
159.0
 31
0.0
  0
LINE
  5
A0
  8
1
 10
247.0
 20
114.0
 30
0.0
 11
247.0
 21
128.0
 31
0.0
  0
LINE
  5
A1
  8
1
 10
239.99999999999989
 20
121.0
 30
0.0
 11
253.99999999999989
 21
120.9999999999999
 31
0.0
  0
LINE
  5
A2
  8
1
 10
239.99999999999989
 20
157.00000000000011
 30
0.0
 11
253.99999999999989
 21
157.0
 31
0.0
  0
LINE
  5
A3
  8
1
 10
247.0
 20
150.0
 30
0.0
 11
247.0
 21
164.0
 31
0.0
  0
ARC
  5
A4
  8
0
 10
247.0
 20
157.00000000000011
 30
0.0
 40
7.5
 50
15.46600995342302
 51
78.463040967183517
  0
LINE
  5
A5
  8
1
 10
80.000000000000028
 20
83.999999999999957
 30
0.0
 11
80.000000000000028
 21
60.0
 31
0.0
  0
LINE
  5
A6
  8
1
 10
87.0
 20
72.5
 30
0.0
 11
72.999999999999972
 21
72.5
 31
0.0
  0
LINE
  5
DA
  8
2
 10
153.0
 20
114.9999999999999
 30
0.0
 11
155.0
 21
114.9999999999999
 31
0.0
  0
LINE
  5
DB
  8
2
 10
153.0
 20
126.9999999999998
 30
0.0
 11
155.0
 21
126.9999999999998
 31
0.0
  0
LINE
  5
DC
  8
2
 10
153.0
 20
126.9999999999998
 30
0.0
 11
153.0
 21
114.9999999999999
 31
0.0
  0
LINE
  5
DD
  8
2
 10
153.0
 20
124.9999999999998
 30
0.0
 11
155.0
 21
124.9999999999998
 31
0.0
  0
LINE
  5
DE
  8
2
 10
153.0
 20
116.9999999999999
 30
0.0
 11
155.0
 21
116.9999999999999
 31
0.0
  0
LINE
  5
DF
  8
1
 10
150.0
 20
120.9999999999999
 30
0.0
 11
172.0
 21
120.9999999999999
 31
0.0
  0
LINE
  5
E0
  8
1
 10
150.0
 20
156.99999999999989
 30
0.0
 11
172.0
 21
156.99999999999989
 31
0.0
  0
LINE
  5
E1
  8
2
 10
153.0
 20
152.99999999999989
 30
0.0
 11
155.0
 21
152.99999999999989
 31
0.0
  0
LINE
  5
E2
  8
2
 10
153.0
 20
160.99999999999989
 30
0.0
 11
155.0
 21
160.99999999999989
 31
0.0
  0
LINE
  5
E3
  8
2
 10
153.0
 20
162.99999999999989
 30
0.0
 11
153.0
 21
150.99999999999989
 31
0.0
  0
LINE
  5
E4
  8
2
 10
153.0
 20
162.99999999999989
 30
0.0
 11
155.0
 21
162.99999999999989
 31
0.0
  0
LINE
  5
E5
  8
2
 10
153.0
 20
150.99999999999989
 30
0.0
 11
155.0
 21
150.99999999999989
 31
0.0
  0
LINE
  5
E6
  8
0
 10
155.0
 20
124.9999999999998
 30
0.0
 11
167.80000000000001
 21
124.9999999999998
 31
0.0
  0
LINE
  5
E7
  8
0
 10
167.80000000000001
 20
124.9999999999998
 30
0.0
 11
169.0
 21
123.7999999999998
 31
0.0
  0
LINE
  5
E8
  8
0
 10
169.0
 20
123.7999999999998
 30
0.0
 11
169.0
 21
118.1999999999999
 31
0.0
  0
LINE
  5
E9
  8
0
 10
155.0
 20
116.9999999999998
 30
0.0
 11
167.80000000000001
 21
116.9999999999998
 31
0.0
  0
LINE
  5
EA
  8
0
 10
169.0
 20
118.1999999999999
 30
0.0
 11
167.80000000000001
 21
116.9999999999998
 31
0.0
  0
LINE
  5
EB
  8
0
 10
167.80000000000001
 20
116.9999999999998
 30
0.0
 11
167.80000000000001
 21
124.9999999999998
 31
0.0
  0
LINE
  5
EC
  8
3
 10
155.0
 20
117.67649999999961
 30
0.0
 11
168.47649999999979
 21
117.67649999999961
 31
0.0
  0
LINE
  5
ED
  8
3
 10
155.0
 20
124.3235
 30
0.0
 11
168.47649999999979
 21
124.3235
 31
0.0
  0
LINE
  5
EE
  8
3
 10
155.0
 20
153.67649999999969
 30
0.0
 11
168.47649999999979
 21
153.67649999999969
 31
0.0
  0
LINE
  5
EF
  8
0
 10
167.80000000000001
 20
160.99999999999989
 30
0.0
 11
167.80000000000001
 21
152.99999999999989
 31
0.0
  0
LINE
  5
F0
  8
3
 10
155.0
 20
160.32350000000011
 30
0.0
 11
168.47649999999979
 21
160.32350000000011
 31
0.0
  0
LINE
  5
F1
  8
0
 10
169.0
 20
159.79999999999981
 30
0.0
 11
167.80000000000001
 21
160.99999999999989
 31
0.0
  0
LINE
  5
F2
  8
0
 10
167.80000000000001
 20
152.99999999999989
 30
0.0
 11
169.0
 21
154.1999999999999
 31
0.0
  0
LINE
  5
F3
  8
0
 10
169.0
 20
154.1999999999999
 30
0.0
 11
169.0
 21
159.79999999999981
 31
0.0
  0
LINE
  5
F4
  8
0
 10
155.0
 20
152.99999999999989
 30
0.0
 11
167.80000000000001
 21
152.99999999999989
 31
0.0
  0
LINE
  5
F5
  8
0
 10
155.0
 20
160.99999999999989
 30
0.0
 11
167.80000000000001
 21
160.99999999999989
 31
0.0
  0
LINE
  5
F6
  8
0
 10
155.0
 20
168.9999999999998
 30
0.0
 11
155.0
 21
108.9999999999998
 31
0.0
  0
LINE
  5
F7
  8
0
 10
151.0
 20
168.9999999999998
 30
0.0
 11
151.0
 21
108.9999999999998
 31
0.0
  0
LINE
  5
F8
  8
0
 10
147.0
 20
168.99999999999989
 30
0.0
 11
147.0
 21
108.9999999999998
 31
0.0
  0
LINE
  5
F9
  8
0
 10
144.0
 20
168.99999999999989
 30
0.0
 11
144.0
 21
108.9999999999998
 31
0.0
  0
LINE
  5
FA
  8
0
 10
140.0
 20
168.99999999999989
 30
0.0
 11
140.0
 21
108.9999999999998
 31
0.0
  0
LINE
  5
FB
  8
0
 10
140.0
 20
108.9999999999998
 30
0.0
 11
155.0
 21
108.9999999999998
 31
0.0
  0
LINE
  5
FC
  8
0
 10
147.0
 20
138.99999999999989
 30
0.0
 11
140.0
 21
138.99999999999989
 31
0.0
  0
LINE
  5
FD
  8
0
 10
147.0
 20
123.9999999999998
 30
0.0
 11
140.0
 21
123.9999999999998
 31
0.0
  0
LINE
  5
FE
  8
0
 10
140.0
 20
168.99999999999989
 30
0.0
 11
155.0
 21
168.9999999999998
 31
0.0
  0
LINE
  5
FF
  8
0
 10
147.0
 20
153.99999999999989
 30
0.0
 11
140.0
 21
153.99999999999989
 31
0.0
  0
LINE
  5
100
  8
2
 10
150.99999999999989
 20
149.49999999999901
 30
0.0
 11
155.0
 21
149.49999999999901
 31
0.0
  0
LINE
  5
101
  8
2
 10
150.99999999999989
 20
128.4999999999998
 30
0.0
 11
155.0
 21
128.49999999999969
 31
0.0
  0
LINE
  5
102
  8
2
 10
151.0
 20
149.49999999999901
 30
0.0
 11
151.0
 21
128.4999999999998
 31
0.0
  0
LINE
  5
11F
  8
1
 10
98.000000000000057
 20
69.0
 30
0.0
 11
98.000000000000043
 21
47.0
 31
0.0
  0
LINE
  5
120
  8
2
 10
102.0
 20
66.0
 30
0.0
 11
102.0
 21
64.0
 31
0.0
  0
LINE
  5
121
  8
2
 10
94.000000000000085
 20
66.0
 30
0.0
 11
94.000000000000085
 21
64.0
 31
0.0
  0
LINE
  5
122
  8
2
 10
92.000000000000085
 20
66.0
 30
0.0
 11
104.0
 21
66.0
 31
0.0
  0
LINE
  5
123
  8
2
 10
92.000000000000085
 20
66.0
 30
0.0
 11
92.000000000000085
 21
64.0
 31
0.0
  0
LINE
  5
124
  8
2
 10
104.0
 20
66.0
 30
0.0
 11
104.0
 21
64.0
 31
0.0
  0
LINE
  5
125
  8
3
 10
101.32350000000019
 20
64.0
 30
0.0
 11
101.32350000000019
 21
50.523500000000119
 31
0.0
  0
LINE
  5
126
  8
0
 10
94.000000000000028
 20
51.199999999999989
 30
0.0
 11
102.0
 21
51.199999999999989
 31
0.0
  0
LINE
  5
127
  8
3
 10
94.676499999999862
 20
64.0
 30
0.0
 11
94.676499999999834
 21
50.523500000000119
 31
0.0
  0
LINE
  5
128
  8
0
 10
95.200000000000074
 20
50.0
 30
0.0
 11
94.000000000000028
 21
51.199999999999989
 31
0.0
  0
LINE
  5
129
  8
0
 10
102.0
 20
51.199999999999989
 30
0.0
 11
100.8
 21
50.0
 31
0.0
  0
LINE
  5
12A
  8
0
 10
100.8
 20
50.0
 30
0.0
 11
95.200000000000074
 21
50.0
 31
0.0
  0
LINE
  5
12B
  8
0
 10
102.0
 20
64.0
 30
0.0
 11
102.0
 21
51.199999999999989
 31
0.0
  0
LINE
  5
12C
  8
0
 10
94.000000000000057
 20
64.0
 30
0.0
 11
94.000000000000028
 21
51.199999999999989
 31
0.0
  0
LINE
  5
12D
  8
1
 10
61.999999999999979
 20
69.0
 30
0.0
 11
61.999999999999979
 21
47.0
 31
0.0
  0
LINE
  5
12E
  8
2
 10
65.999999999999972
 20
66.0
 30
0.0
 11
65.999999999999972
 21
64.0
 31
0.0
  0
LINE
  5
12F
  8
2
 10
57.999999999999993
 20
66.0
 30
0.0
 11
57.999999999999993
 21
64.0
 31
0.0
  0
LINE
  5
130
  8
2
 10
55.999999999999993
 20
66.0
 30
0.0
 11
67.999999999999972
 21
66.0
 31
0.0
  0
LINE
  5
131
  8
2
 10
55.999999999999993
 20
66.0
 30
0.0
 11
55.999999999999993
 21
64.0
 31
0.0
  0
LINE
  5
132
  8
2
 10
67.999999999999972
 20
66.0
 30
0.0
 11
67.999999999999972
 21
64.0
 31
0.0
  0
LINE
  5
133
  8
3
 10
65.323500000000166
 20
64.0
 30
0.0
 11
65.323500000000166
 21
50.523500000000119
 31
0.0
  0
LINE
  5
134
  8
0
 10
57.999999999999979
 20
51.199999999999989
 30
0.0
 11
65.999999999999972
 21
51.199999999999989
 31
0.0
  0
LINE
  5
135
  8
3
 10
58.676499999999777
 20
64.0
 30
0.0
 11
58.676499999999777
 21
50.523500000000119
 31
0.0
  0
LINE
  5
136
  8
0
 10
59.200000000000017
 20
50.0
 30
0.0
 11
57.999999999999979
 21
51.199999999999989
 31
0.0
  0
LINE
  5
137
  8
0
 10
65.999999999999972
 20
51.199999999999989
 30
0.0
 11
64.799999999999926
 21
50.0
 31
0.0
  0
LINE
  5
138
  8
0
 10
64.799999999999926
 20
50.0
 30
0.0
 11
59.200000000000017
 21
50.0
 31
0.0
  0
LINE
  5
139
  8
0
 10
65.999999999999972
 20
64.0
 30
0.0
 11
65.999999999999972
 21
51.199999999999989
 31
0.0
  0
LINE
  5
13A
  8
0
 10
57.999999999999979
 20
64.0
 30
0.0
 11
57.999999999999979
 21
51.199999999999989
 31
0.0
  0
CIRCLE
  5
13B
  8
3
 10
210.99999999999989
 20
120.9999999999999
 30
0.0
 40
3.3235000000000001
  0
CIRCLE
  5
13C
  8
0
 10
210.99999999999989
 20
120.9999999999999
 30
0.0
 40
4.0
  0
CIRCLE
  5
13F
  8
0
 10
210.99999999999989
 20
157.0
 30
0.0
 40
4.0
  0
CIRCLE
  5
140
  8
3
 10
210.99999999999989
 20
157.0
 30
0.0
 40
3.3235000000000001
  0
CIRCLE
  5
142
  8
0
 10
246.99999999999989
 20
121.0
 30
0.0
 40
4.0
  0
CIRCLE
  5
143
  8
3
 10
246.99999999999989
 20
121.0
 30
0.0
 40
3.3235000000000001
  0
CIRCLE
  5
144
  8
3
 10
246.99999999999989
 20
157.0
 30
0.0
 40
3.3235000000000001
  0
CIRCLE
  5
145
  8
0
 10
246.99999999999989
 20
157.0
 30
0.0
 40
4.0
  0
CIRCLE
  5
147
  8
0
 10
247.0
 20
157.00000000000011
 30
0.0
 40
6.0
  0
CIRCLE
  5
148
  8
0
 10
211.0
 20
121.0000000000001
 30
0.0
 40
6.0
  0
CIRCLE
  5
149
  8
0
 10
247.0
 20
121.0000000000001
 30
0.0
 40
6.0
  0
LINE
  5
154
  8
0
 10
72.500000000000028
 20
169.0
 30
0.0
 11
110.0
 21
168.99999999999989
 31
0.0
  0
LINE
  5
155
  8
0
 10
87.5
 20
109.0
 30
0.0
 11
50.0
 21
109.0
 31
0.0
  0
LINE
  5
156
  8
0
 10
88.499999999999986
 20
72.0
 30
0.0
 11
88.499999999999986
 21
64.0
 31
0.0
  0
LINE
  5
157
  8
0
 10
237.5
 20
169.0
 30
0.0
 11
237.5
 21
154.0
 31
0.0
  0
LINE
  5
158
  8
0
 10
237.5
 20
155.00000000000011
 30
0.0
 11
237.5
 21
154.0
 31
0.0
  0
ARC
  5
159
  8
0
 10
239.77158385259949
 20
126.8525308697515
 30
0.0
 40
1.75
 50
321.00442900359178
 51
90.0
  0
LINE
  5
15A
  8
0
 10
239.77158385259949
 20
128.60253086975149
 30
0.0
 11
239.77158385259949
 21
140.99999999999989
 31
0.0
  0
LINE
  5
15B
  8
0
 10
241.13167441316739
 20
125.7513253180701
 30
0.0
 11
241.17104045470899
 21
125.7194523643491
 31
0.0
  0
LINE
  5
15C
  8
0
 10
236.5
 20
169.0
 30
0.0
 11
199.0
 21
169.0
 31
0.0
  0
LINE
  5
15D
  8
0
 10
221.5
 20
109.0
 30
0.0
 11
259.0
 21
108.9999999999999
 31
0.0
  0
LINE
  5
15E
  8
0
 10
218.22841614740051
 20
149.39746913024851
 30
0.0
 11
218.22841614740051
 21
137.00000000000011
 31
0.0
  0
ARC
  5
15F
  8
0
 10
218.22841614740051
 20
151.14746913024851
 30
0.0
 40
1.75
 50
141.00442900359181
 51
270.0
  0
LINE
  5
160
  8
0
 10
216.86832558683261
 20
152.24867468193
 30
0.0
 11
216.82895954529101
 21
152.28054763565089
 31
0.0
  0
LINE
  5
161
  8
0
 10
236.5
 20
169.0
 30
0.0
 11
236.5
 21
154.00000000000011
 31
0.0
  0
LINE
  5
162
  8
0
 10
221.5
 20
109.0
 30
0.0
 11
221.5
 21
124.0
 31
0.0
  0
LINE
  5
163
  8
0
 10
233.03112887414929
 20
124.0
 30
0.0
 11
233.03112887414929
 21
109.0
 31
0.0
  0
LINE
  5
164
  8
0
 10
221.5
 20
139.0
 30
0.0
 11
221.5
 21
154.0
 31
0.0
  0
LINE
  5
165
  8
0
 10
236.5
 20
139.00000000000011
 30
0.0
 11
236.5
 21
124.0
 31
0.0
  0
LINE
  5
166
  8
0
 10
224.96887112585071
 20
139.00000000000011
 30
0.0
 11
224.96887112585071
 21
124.0
 31
0.0
  0
LINE
  5
167
  8
0
 10
237.5
 20
118.9999999999999
 30
0.0
 11
237.5
 21
112.0
 31
0.0
  0
LINE
  5
168
  8
0
 10
237.5
 20
144.00000000000011
 30
0.0
 11
237.5
 21
151.99999999999989
 31
0.0
  0
LINE
  5
169
  8
0
 10
237.5
 20
140.99999999999989
 30
0.0
 11
239.77158385259949
 21
140.9999999999998
 31
0.0
  0
LINE
  5
16A
  8
0
 10
237.5
 20
151.99999999999989
 30
0.0
 11
241.40983005625071
 21
151.99999999999989
 31
0.0
  0
LINE
  5
16B
  8
0
 10
237.5
 20
154.0
 30
0.0
 11
237.5
 21
155.00000000000011
 31
0.0
  0
LINE
  5
16C
  8
0
 10
237.5
 20
139.00000000000011
 30
0.0
 11
237.5
 21
124.0
 31
0.0
  0
LINE
  5
16D
  8
0
 10
237.5
 20
151.99999999999989
 30
0.0
 11
237.5
 21
140.99999999999989
 31
0.0
  0
LINE
  5
16E
  8
0
 10
220.5
 20
137.00000000000011
 30
0.0
 11
218.22841614740051
 21
137.00000000000011
 31
0.0
  0
LINE
  5
16F
  8
0
 10
220.5
 20
126.0000000000001
 30
0.0
 11
216.59016994374929
 21
126.0000000000001
 31
0.0
  0
LINE
  5
170
  8
0
 10
220.5
 20
166.0
 30
0.0
 11
220.5
 21
159.00000000000011
 31
0.0
  0
LINE
  5
171
  8
0
 10
220.5
 20
154.0
 30
0.0
 11
220.5
 21
139.0
 31
0.0
  0
LINE
  5
172
  8
0
 10
220.5
 20
137.00000000000011
 30
0.0
 11
220.5
 21
126.0000000000001
 31
0.0
  0
LINE
  5
173
  8
0
 10
220.5
 20
124.0
 30
0.0
 11
220.5
 21
109.0
 31
0.0
  0
LINE
  5
174
  8
0
 10
237.5
 20
151.99999999999989
 30
0.0
 11
237.5
 21
144.00000000000011
 31
0.0
  0
TEXT
  5
2CD
  8
0
 62
     3
 10
0.0
 20
0.0
 30
0.0
 40
10.0
  1
FTH6060T
  7
STANDARD1
  0
LINE
  5
413
  8
1
 10
62.000000000000021
 20
150.0
 30
0.0
 11
62.000000000000021
 21
164.0
 31
0.0
  0
LINE
  5
414
  8
1
 10
68.999999999999972
 20
157.00000000000011
 30
0.0
 11
54.999999999999972
 21
157.00000000000011
 31
0.0
  0
LINE
  5
415
  8
1
 10
68.999999999999972
 20
121.0
 30
0.0
 11
54.999999999999972
 21
121.0
 31
0.0
  0
LINE
  5
416
  8
1
 10
62.000000000000057
 20
113.9999999999999
 30
0.0
 11
62.000000000000021
 21
127.9999999999999
 31
0.0
  0
LINE
  5
417
  8
1
 10
98.0
 20
114.0
 30
0.0
 11
98.0
 21
128.0
 31
0.0
  0
LINE
  5
418
  8
1
 10
90.999999999999943
 20
121.0
 30
0.0
 11
104.9999999999999
 21
120.9999999999999
 31
0.0
  0
LINE
  5
419
  8
1
 10
90.999999999999943
 20
157.00000000000011
 30
0.0
 11
104.9999999999999
 21
157.0
 31
0.0
  0
LINE
  5
41A
  8
1
 10
98.000000000000057
 20
150.0
 30
0.0
 11
98.0
 21
164.0
 31
0.0
  0
ENDSEC
  0
EOF
