  0
SECTION
  2
HEADER
  9
$ACADVER
  1
AC1009
  9
$INSBASE
 10
0.0
 20
0.0
 30
0.0
  9
$EXTMIN
 10
0.0
 20
-2.960436562073669
 30
0.0
  9
$EXTMAX
 10
273.5
 20
146.49999999999989
 30
0.0
  9
$LIMMIN
 10
0.0
 20
0.0
  9
$LIMMAX
 10
187.5
 20
135.0
  9
$ORTHOMODE
 70
     1
  9
$REGENMODE
 70
     1
  9
$FILLMODE
 70
     1
  9
$QTEXTMODE
 70
     0
  9
$MIRRTEXT
 70
     0
  9
$DRAGMODE
 70
     2
  9
$LTSCALE
 40
5.0
  9
$OSMODE
 70
    37
  9
$ATTMODE
 70
     1
  9
$TEXTSIZE
 40
0.2
  9
$TRACEWID
 40
0.05
  9
$TEXTSTYLE
  7
STANDARD
  9
$CLAYER
  8
0
  9
$CELTYPE
  6
BYLAYER
  9
$CECOLOR
 62
   256
  9
$DIMSCALE
 40
0.5
  9
$DIMASZ
 40
3.0
  9
$DIMEXO
 40
2.0
  9
$DIMDLI
 40
0.38
  9
$DIMRND
 40
0.0
  9
$DIMDLE
 40
0.0
  9
$DIMEXE
 40
2.0
  9
$DIMTP
 40
0.0
  9
$DIMTM
 40
0.0
  9
$DIMTXT
 40
3.0
  9
$DIMCEN
 40
0.0
  9
$DIMTSZ
 40
0.0
  9
$DIMTOL
 70
     0
  9
$DIMLIM
 70
     0
  9
$DIMTIH
 70
     0
  9
$DIMTOH
 70
     0
  9
$DIMSE1
 70
     0
  9
$DIMSE2
 70
     0
  9
$DIMTAD
 70
     1
  9
$DIMZIN
 70
     0
  9
$DIMBLK
  1

  9
$DIMASO
 70
     0
  9
$DIMSHO
 70
     0
  9
$DIMPOST
  1

  9
$DIMAPOST
  1

  9
$DIMALT
 70
     0
  9
$DIMALTD
 70
     2
  9
$DIMALTF
 40
25.399999999999999
  9
$DIMLFAC
 40
1.0
  9
$DIMTOFL
 70
     1
  9
$DIMTVP
 40
1.6000000000000001
  9
$DIMTIX
 70
     1
  9
$DIMSOXD
 70
     0
  9
$DIMSAH
 70
     0
  9
$DIMBLK1
  1

  9
$DIMBLK2
  1

  9
$DIMSTYLE
  2
STANDARD
  9
$DIMCLRD
 70
     0
  9
$DIMCLRE
 70
     0
  9
$DIMCLRT
 70
     0
  9
$DIMTFAC
 40
1.0
  9
$DIMGAP
 40
0.09
  9
$LUNITS
 70
     2
  9
$LUPREC
 70
     4
  9
$SKETCHINC
 40
0.1
  9
$FILLETRAD
 40
0.0
  9
$AUNITS
 70
     0
  9
$AUPREC
 70
     4
  9
$MENU
  1
E:\r13\win\SUPPORT\ACAD
  9
$ELEVATION
 40
0.0
  9
$PELEVATION
 40
0.0
  9
$THICKNESS
 40
0.0
  9
$LIMCHECK
 70
     0
  9
$BLIPMODE
 70
     0
  9
$CHAMFERA
 40
0.0
  9
$CHAMFERB
 40
0.0
  9
$SKPOLY
 70
     0
  9
$TDCREATE
 40
2449839.7979513891
  9
$TDUPDATE
 40
2456840.5448442819
  9
$TDINDWG
 40
0.0602888194
  9
$TDUSRTIMER
 40
0.0602888194
  9
$USRTIMER
 70
     1
  9
$ANGBASE
 50
0.0
  9
$ANGDIR
 70
     0
  9
$PDMODE
 70
     0
  9
$PDSIZE
 40
0.0
  9
$PLINEWID
 40
0.0
  9
$COORDS
 70
     1
  9
$SPLFRAME
 70
     0
  9
$SPLINETYPE
 70
     6
  9
$SPLINESEGS
 70
     8
  9
$ATTDIA
 70
     0
  9
$ATTREQ
 70
     1
  9
$HANDLING
 70
     1
  9
$HANDSEED
  5
AFB
  9
$SURFTAB1
 70
     6
  9
$SURFTAB2
 70
     6
  9
$SURFTYPE
 70
     6
  9
$SURFU
 70
     6
  9
$SURFV
 70
     6
  9
$UCSNAME
  2

  9
$UCSORG
 10
0.0
 20
0.0
 30
0.0
  9
$UCSXDIR
 10
1.0
 20
0.0
 30
0.0
  9
$UCSYDIR
 10
0.0
 20
1.0
 30
0.0
  9
$PUCSNAME
  2

  9
$PUCSORG
 10
0.0
 20
0.0
 30
0.0
  9
$PUCSXDIR
 10
1.0
 20
0.0
 30
0.0
  9
$PUCSYDIR
 10
0.0
 20
1.0
 30
0.0
  9
$USERI1
 70
     0
  9
$USERI2
 70
     1
  9
$USERI3
 70
     1
  9
$USERI4
 70
     0
  9
$USERI5
 70
     0
  9
$USERR1
 40
0.0
  9
$USERR2
 40
0.0
  9
$USERR3
 40
0.0
  9
$USERR4
 40
0.0
  9
$USERR5
 40
0.0
  9
$WORLDVIEW
 70
     1
  9
$SHADEDGE
 70
     3
  9
$SHADEDIF
 70
    70
  9
$TILEMODE
 70
     1
  9
$MAXACTVP
 70
    16
  9
$PLIMCHECK
 70
     0
  9
$PEXTMIN
 10
1.0000000000000000E+020
 20
1.0000000000000000E+020
 30
1.0000000000000000E+020
  9
$PEXTMAX
 10
-1.0000000000000000E+020
 20
-1.0000000000000000E+020
 30
-1.0000000000000000E+020
  9
$PLIMMIN
 10
0.0
 20
0.0
  9
$PLIMMAX
 10
12.0
 20
9.0
  9
$UNITMODE
 70
     0
  9
$VISRETAIN
 70
     0
  9
$PLINEGEN
 70
     0
  9
$PSLTSCALE
 70
     0
  0
ENDSEC
  0
SECTION
  2
TABLES
  0
TABLE
  2
VPORT
 70
     1
  0
VPORT
  2
*ACTIVE
 70
     0
 10
0.0
 20
0.0
 11
1.0
 21
1.0
 12
174.547983310153
 22
100.0
 13
0.0
 23
0.0
 14
5.0
 24
5.0
 15
5.0
 25
5.0
 16
0.0
 26
0.0
 36
1.0
 17
0.0
 27
0.0
 37
0.0
 40
200.0
 41
1.7454798331015291
 42
50.0
 43
0.0
 44
0.0
 50
0.0
 51
0.0
 71
     0
 72
   500
 73
     1
 74
     0
 75
     0
 76
     0
 77
     0
 78
     2
  0
ENDTAB
  0
TABLE
  2
LTYPE
 70
     4
  0
LTYPE
  2
CONTINUOUS
 70
     0
  3
Solid Line
 72
    65
 73
     0
 40
0.0
  0
LTYPE
  2
CENTER
 70
     0
  3
____ _ ____ _ ____ _ ____ _ ____ _ ____ _ ____
 72
    65
 73
     4
 40
2.0
 49
1.25
 49
-0.25
 49
0.25
 49
-0.25
  0
LTYPE
  2
HIDDEN
 70
     0
  3
_ _ _ _ _ _ _ _ _ _ _ _ _ _ _ _ _ _ _ _ _ _ _
 72
    65
 73
     2
 40
0.375
 49
0.25
 49
-0.125
  0
LTYPE
  2
PHANTOM2
 70
     0
  3
___ _ _ ___ _ _ ___ _ _ ___ _ _
 72
    65
 73
     6
 40
1.25
 49
0.625
 49
-0.125
 49
0.125
 49
-0.125
 49
0.125
 49
-0.125
  0
ENDTAB
  0
TABLE
  2
LAYER
 70
     3
  0
LAYER
  2
0
 70
     0
 62
     7
  6
CONTINUOUS
  0
LAYER
  2
1
 70
     0
 62
     1
  6
CENTER
  0
LAYER
  2
2
 70
     0
 62
     2
  6
HIDDEN
  0
ENDTAB
  0
TABLE
  2
STYLE
 70
     2
  0
STYLE
  2
STANDARD
 70
     0
 40
0.0
 41
1.0
 50
0.0
 71
     0
 42
0.2
  3
TXT
  4
BIGFONT
  0
STYLE
  2
STANDARD1
 70
     0
 40
0.0
 41
1.0
 50
0.0
 71
     0
 42
3.0
  3
txt
  4

  0
ENDTAB
  0
TABLE
  2
VIEW
 70
     1
  0
VIEW
  2
ALL
 70
     0
 40
135.0
 10
110.4957983193277
 20
67.5
 41
0.0
 11
0.0
 21
0.0
 31
1.0
 12
0.0
 22
0.0
 32
0.0
 42
0.0
 43
0.0
 44
0.0
 50
0.0
 71
     0
  0
ENDTAB
  0
TABLE
  2
UCS
 70
     0
  0
ENDTAB
  0
TABLE
  2
APPID
 70
     4
  0
APPID
  2
ACAD
 70
     0
  0
APPID
  2
ACAD_MLEADERVER
 70
     0
  0
APPID
  2
ACAD_NAV_VCDISPLAY
 70
     0
  0
APPID
  2
ACAD_EXEMPT_FROM_CAD_STANDARDS
 70
     0
  0
ENDTAB
  0
TABLE
  2
DIMSTYLE
 70
     1
  0
DIMSTYLE
  2
STANDARD
 70
     0
  3

  4

  5

  6

  7

 40
1.0
 41
0.18
 42
0.0625
 43
0.38
 44
0.18
 45
0.0
 46
0.0
 47
0.0
 48
0.0
140
0.18
141
0.09
142
0.0
143
25.399999999999999
144
1.0
145
0.0
146
1.0
147
0.09
 71
     0
 72
     0
 73
     1
 74
     1
 75
     0
 76
     0
 77
     0
 78
     0
170
     0
171
     2
172
     0
173
     0
174
     0
175
     0
176
     0
177
     0
178
     0
  0
ENDTAB
  0
ENDSEC
  0
SECTION
  2
BLOCKS
  0
BLOCK
  8
0
  2
$MODEL_SPACE
 70
     0
 10
0.0
 20
0.0
 30
0.0
  3
$MODEL_SPACE
  1

  0
ENDBLK
  5
13C
  8
0
  0
BLOCK
 67
     1
  8
0
  2
$PAPER_SPACE
 70
     0
 10
0.0
 20
0.0
 30
0.0
  3
$PAPER_SPACE
  1

  0
ENDBLK
  5
13A
 67
     1
  8
0
  0
ENDSEC
  0
SECTION
  2
ENTITIES
  0
LINE
  5
4B
  8
2
 10
164.54999999999961
 20
98.349999999999966
 30
0.0
 11
167.5
 21
98.349999999999966
 31
0.0
  0
LINE
  5
4C
  8
2
 10
161.49999999999989
 20
95.299999999999983
 30
0.0
 11
164.54999999999961
 21
98.349999999999966
 31
0.0
  0
LINE
  5
4D
  8
2
 10
161.49999999999989
 20
107.6999999999999
 30
0.0
 11
164.54999999999961
 21
104.64999999999991
 31
0.0
  0
LINE
  5
4E
  8
2
 10
164.54999999999961
 20
104.64999999999991
 30
0.0
 11
167.5
 21
104.64999999999991
 31
0.0
  0
LINE
  5
4F
  8
2
 10
164.54999999999961
 20
104.64999999999991
 30
0.0
 11
164.54999999999961
 21
98.349999999999966
 31
0.0
  0
LINE
  5
50
  8
2
 10
164.54999999999961
 20
134.65000000000001
 30
0.0
 11
164.54999999999961
 21
128.34999999999991
 31
0.0
  0
LINE
  5
51
  8
2
 10
164.54999999999961
 20
134.65000000000001
 30
0.0
 11
167.5
 21
134.65000000000001
 31
0.0
  0
LINE
  5
52
  8
2
 10
161.49999999999989
 20
137.6999999999999
 30
0.0
 11
164.54999999999961
 21
134.65000000000001
 31
0.0
  0
CIRCLE
  5
53
  8
0
 10
116.0
 20
131.49999999999989
 30
0.0
 40
6.2000000000000002
  0
CIRCLE
  5
54
  8
0
 10
116.0
 20
131.49999999999989
 30
0.0
 40
3.149999999999999
  0
LINE
  5
55
  8
1
 10
125.2
 20
131.49999999999989
 30
0.0
 11
106.8
 21
131.49999999999989
 31
0.0
  0
LINE
  5
56
  8
1
 10
116.0
 20
140.6999999999999
 30
0.0
 11
116.0
 21
122.2999999999999
 31
0.0
  0
CIRCLE
  5
57
  8
0
 10
116.0
 20
101.4999999999999
 30
0.0
 40
6.2000000000000002
  0
CIRCLE
  5
58
  8
0
 10
116.0
 20
101.4999999999999
 30
0.0
 40
3.149999999999999
  0
LINE
  5
59
  8
1
 10
125.2
 20
101.4999999999999
 30
0.0
 11
106.8
 21
101.4999999999999
 31
0.0
  0
LINE
  5
5A
  8
1
 10
116.0
 20
110.6999999999999
 30
0.0
 11
116.0
 21
92.299999999999955
 31
0.0
  0
CIRCLE
  5
5B
  8
0
 10
60.0
 20
131.49999999999989
 30
0.0
 40
6.2000000000000002
  0
CIRCLE
  5
5C
  8
0
 10
60.0
 20
131.49999999999989
 30
0.0
 40
3.149999999999999
  0
LINE
  5
5D
  8
1
 10
69.200000000000003
 20
131.49999999999989
 30
0.0
 11
50.799999999999997
 21
131.49999999999989
 31
0.0
  0
LINE
  5
5E
  8
1
 10
60.0
 20
140.6999999999999
 30
0.0
 11
60.0
 21
122.2999999999999
 31
0.0
  0
LINE
  5
5F
  8
1
 10
60.0
 20
110.6999999999999
 30
0.0
 11
60.0
 21
92.299999999999955
 31
0.0
  0
LINE
  5
60
  8
1
 10
69.200000000000003
 20
101.4999999999999
 30
0.0
 11
50.799999999999997
 21
101.4999999999999
 31
0.0
  0
LINE
  5
80
  8
1
 10
158.5
 20
101.4999999999999
 30
0.0
 11
170.5
 21
101.4999999999999
 31
0.0
  0
LINE
  5
81
  8
1
 10
158.5
 20
131.49999999999989
 30
0.0
 11
170.5
 21
131.49999999999989
 31
0.0
  0
LINE
  5
82
  8
2
 10
161.49999999999989
 20
125.3
 30
0.0
 11
164.54999999999961
 21
128.34999999999991
 31
0.0
  0
LINE
  5
83
  8
2
 10
164.54999999999961
 20
128.34999999999991
 30
0.0
 11
167.5
 21
128.34999999999991
 31
0.0
  0
CIRCLE
  5
84
  8
0
 10
60.0
 20
101.4999999999999
 30
0.0
 40
3.149999999999999
  0
CIRCLE
  5
85
  8
0
 10
60.0
 20
101.4999999999999
 30
0.0
 40
6.2000000000000002
  0
LINE
  5
A1
  8
0
 10
50.0
 20
91.499999999999957
 30
0.0
 11
50.0
 21
141.49999999999989
 31
0.0
  0
LINE
  5
A2
  8
0
 10
126.0
 20
91.499999999999957
 30
0.0
 11
94.0
 21
91.499999999999929
 31
0.0
  0
LINE
  5
A3
  8
0
 10
126.0
 20
141.49999999999989
 30
0.0
 11
126.0
 21
91.499999999999957
 31
0.0
  0
LINE
  5
A4
  8
0
 10
126.0
 20
141.49999999999989
 30
0.0
 11
83.0
 21
141.49999999999989
 31
0.0
  0
LINE
  5
A5
  8
0
 10
83.0
 20
91.499999999999929
 30
0.0
 11
83.0
 21
141.49999999999989
 31
0.0
  0
LINE
  5
A6
  8
0
 10
93.0
 20
91.499999999999929
 30
0.0
 11
93.0
 21
141.49999999999989
 31
0.0
  0
LINE
  5
A7
  8
0
 10
85.0
 20
91.499999999999929
 30
0.0
 11
85.0
 21
141.49999999999989
 31
0.0
  0
LINE
  5
A8
  8
0
 10
91.0
 20
91.499999999999929
 30
0.0
 11
91.0
 21
141.49999999999989
 31
0.0
  0
LINE
  5
A9
  8
0
 10
82.0
 20
141.49999999999989
 30
0.0
 11
82.0
 21
128.99999999999989
 31
0.0
  0
LINE
  5
AA
  8
0
 10
82.0
 20
128.99999999999989
 30
0.0
 11
94.0
 21
128.99999999999989
 31
0.0
  0
LINE
  5
AB
  8
0
 10
94.0
 20
128.99999999999989
 30
0.0
 11
94.0
 21
116.4999999999999
 31
0.0
  0
LINE
  5
AC
  8
0
 10
94.0
 20
116.4999999999999
 30
0.0
 11
82.0
 21
116.4999999999999
 31
0.0
  0
LINE
  5
AD
  8
0
 10
82.0
 20
116.4999999999999
 30
0.0
 11
82.0
 21
103.9999999999999
 31
0.0
  0
LINE
  5
AE
  8
0
 10
82.0
 20
103.9999999999999
 30
0.0
 11
94.0
 21
103.9999999999999
 31
0.0
  0
LINE
  5
AF
  8
0
 10
94.0
 20
103.9999999999999
 30
0.0
 11
94.0
 21
91.499999999999929
 31
0.0
  0
LINE
  5
B0
  8
1
 10
88.0
 20
86.499999999999929
 30
0.0
 11
88.0
 21
146.49999999999989
 31
0.0
  0
LINE
  5
C5
  8
0
 10
161.5
 20
91.499999999999957
 30
0.0
 11
161.5
 21
141.49999999999989
 31
0.0
  0
LINE
  5
C6
  8
0
 10
167.5
 20
141.49999999999989
 30
0.0
 11
167.5
 21
91.499999999999957
 31
0.0
  0
LINE
  5
C7
  8
0
 10
156.0
 20
141.49999999999989
 30
0.0
 11
167.5
 21
141.49999999999989
 31
0.0
  0
LINE
  5
C8
  8
0
 10
164.5
 20
141.49999999999989
 30
0.0
 11
164.5
 21
91.499999999999957
 31
0.0
  0
LINE
  5
C9
  8
0
 10
156.0
 20
91.499999999999957
 30
0.0
 11
167.5
 21
91.499999999999957
 31
0.0
  0
LINE
  5
CA
  8
0
 10
156.0
 20
141.49999999999989
 30
0.0
 11
156.0
 21
91.499999999999957
 31
0.0
  0
LINE
  5
CB
  8
0
 10
158.0
 20
141.49999999999989
 30
0.0
 11
158.0
 21
91.499999999999957
 31
0.0
  0
LINE
  5
CC
  8
0
 10
156.0
 20
116.5
 30
0.0
 11
161.5
 21
116.5
 31
0.0
  0
LINE
  5
CD
  8
0
 10
156.0
 20
128.99999999999989
 30
0.0
 11
161.5
 21
128.99999999999989
 31
0.0
  0
LINE
  5
CE
  8
0
 10
156.0
 20
104.0
 30
0.0
 11
161.5
 21
104.0
 31
0.0
  0
LINE
  5
CF
  8
0
 10
82.0
 20
141.49999999999989
 30
0.0
 11
50.0
 21
141.49999999999989
 31
0.0
  0
LINE
  5
D0
  8
0
 10
93.0
 20
91.499999999999929
 30
0.0
 11
50.0
 21
91.499999999999957
 31
0.0
  0
LINE
  5
3F9
  8
0
 10
123.0
 20
55.999999999999993
 30
0.0
 11
93.0
 21
55.999999999999993
 31
0.0
  0
LINE
  5
3FA
  8
2
 10
122.2
 20
56.000000000000163
 30
0.0
 11
119.15000000000011
 21
52.950000000000443
 31
0.0
  0
LINE
  5
3FB
  8
2
 10
98.0
 20
52.999999999999993
 30
0.0
 11
121.0
 21
52.999999999999993
 31
0.0
  0
LINE
  5
3FC
  8
0
 10
94.0
 20
50.0
 30
0.0
 11
126.0
 21
50.0
 31
0.0
  0
LINE
  5
3FD
  8
0
 10
83.0
 20
55.999999999999993
 30
0.0
 11
53.0
 21
55.999999999999993
 31
0.0
  0
LINE
  5
3FE
  8
2
 10
78.0
 20
52.999999999999993
 30
0.0
 11
55.0
 21
52.999999999999993
 31
0.0
  0
LINE
  5
3FF
  8
0
 10
50.0
 20
50.0
 30
0.0
 11
82.0
 21
50.0
 31
0.0
  0
LINE
  5
400
  8
0
 10
53.0
 20
55.999999999999993
 30
0.0
 11
50.0
 21
52.999999999999993
 31
0.0
  0
LINE
  5
401
  8
2
 10
53.800000000000061
 20
56.000000000000163
 30
0.0
 11
56.850000000000023
 21
52.950000000000443
 31
0.0
  0
LINE
  5
402
  8
2
 10
66.200000000000045
 20
56.000000000000163
 30
0.0
 11
63.150000000000091
 21
52.950000000000443
 31
0.0
  0
LINE
  5
403
  8
1
 10
60.0
 20
58.999999999999993
 30
0.0
 11
60.0
 21
46.999999999999993
 31
0.0
  0
LINE
  5
404
  8
0
 10
50.0
 20
52.999999999999993
 30
0.0
 11
50.0
 21
50.0
 31
0.0
  0
LINE
  5
405
  8
2
 10
56.850000000000023
 20
52.950000000000443
 30
0.0
 11
63.150000000000091
 21
52.950000000000443
 31
0.0
  0
LINE
  5
406
  8
2
 10
56.850000000000023
 20
52.950000000000443
 30
0.0
 11
56.850000000000023
 21
50.00000000000005
 31
0.0
  0
LINE
  5
407
  8
2
 10
55.0
 20
52.999999999999993
 30
0.0
 11
55.0
 21
50.0
 31
0.0
  0
LINE
  5
408
  8
2
 10
63.150000000000091
 20
52.950000000000443
 30
0.0
 11
63.150000000000091
 21
50.00000000000005
 31
0.0
  0
LINE
  5
409
  8
0
 10
83.0
 20
52.999999999999993
 30
0.0
 11
83.0
 21
59.499999999999957
 31
0.0
  0
LINE
  5
40A
  8
0
 10
82.0
 20
50.0
 30
0.0
 11
82.000000000000114
 21
55.999999999999993
 31
0.0
  0
LINE
  5
40B
  8
1
 10
116.0
 20
58.999999999999993
 30
0.0
 11
116.0
 21
46.999999999999993
 31
0.0
  0
LINE
  5
40C
  8
2
 10
109.8
 20
56.000000000000163
 30
0.0
 11
112.84999999999999
 21
52.950000000000443
 31
0.0
  0
CIRCLE
  5
40D
  8
0
 10
88.0
 20
56.499999999999993
 30
0.0
 40
3.0
  0
LINE
  5
40E
  8
1
 10
88.0
 20
66.499999999999972
 30
0.0
 11
88.0
 21
45.999999999999993
 31
0.0
  0
LINE
  5
40F
  8
0
 10
85.0
 20
61.499999999999957
 30
0.0
 11
91.0
 21
61.499999999999957
 31
0.0
  0
CIRCLE
  5
410
  8
0
 10
88.0
 20
56.499999999999993
 30
0.0
 40
2.0
  0
LINE
  5
411
  8
1
 10
82.0
 20
56.499999999999993
 30
0.0
 11
94.0
 21
56.499999999999993
 31
0.0
  0
LINE
  5
412
  8
0
 10
85.0
 20
61.499999999999957
 30
0.0
 11
83.0
 21
59.499999999999957
 31
0.0
  0
LINE
  5
413
  8
0
 10
93.0
 20
55.999999999999993
 30
0.0
 11
93.0
 21
59.499999999999957
 31
0.0
  0
LINE
  5
414
  8
0
 10
91.0
 20
61.499999999999957
 30
0.0
 11
93.0
 21
59.499999999999957
 31
0.0
  0
LINE
  5
415
  8
0
 10
82.0
 20
50.999999999999993
 30
0.0
 11
94.0
 21
50.999999999999993
 31
0.0
  0
LINE
  5
416
  8
2
 10
78.0
 20
52.999999999999993
 30
0.0
 11
78.0
 21
50.0
 31
0.0
  0
LINE
  5
417
  8
0
 10
85.0
 20
50.999999999999993
 30
0.0
 11
83.0
 21
52.999999999999993
 31
0.0
  0
LINE
  5
418
  8
0
 10
94.0
 20
50.999999999999993
 30
0.0
 11
94.0
 21
50.0
 31
0.0
  0
LINE
  5
419
  8
2
 10
98.0
 20
52.999999999999993
 30
0.0
 11
98.0
 21
50.0
 31
0.0
  0
LINE
  5
41A
  8
2
 10
112.84999999999999
 20
52.950000000000443
 30
0.0
 11
119.15000000000011
 21
52.950000000000443
 31
0.0
  0
LINE
  5
41B
  8
2
 10
112.84999999999999
 20
52.950000000000443
 30
0.0
 11
112.84999999999999
 21
50.00000000000005
 31
0.0
  0
LINE
  5
41C
  8
2
 10
119.15000000000011
 20
52.950000000000443
 30
0.0
 11
119.15000000000011
 21
50.00000000000005
 31
0.0
  0
LINE
  5
41D
  8
0
 10
126.0
 20
52.999999999999993
 30
0.0
 11
123.0
 21
55.999999999999993
 31
0.0
  0
LINE
  5
41E
  8
2
 10
121.0
 20
52.999999999999993
 30
0.0
 11
121.0
 21
50.0
 31
0.0
  0
LINE
  5
41F
  8
0
 10
126.0
 20
50.0
 30
0.0
 11
126.0
 21
52.999999999999993
 31
0.0
  0
LINE
  5
449
  8
0
 10
207.5
 20
124.4999999999999
 30
0.0
 11
202.5
 21
124.4999999999999
 31
0.0
  0
LINE
  5
44A
  8
1
 10
201.34999999999999
 20
131.49999999999989
 30
0.0
 11
213.65000000000001
 21
131.49999999999989
 31
0.0
  0
LINE
  5
44C
  8
0
 10
207.5
 20
108.4999999999999
 30
0.0
 11
202.5
 21
108.4999999999999
 31
0.0
  0
LINE
  5
44D
  8
1
 10
201.34999999999999
 20
101.4999999999999
 30
0.0
 11
213.65000000000001
 21
101.4999999999999
 31
0.0
  0
LINE
  5
44F
  8
0
 10
197.5
 20
141.49999999999989
 30
0.0
 11
240.5
 21
141.49999999999989
 31
0.0
  0
LINE
  5
450
  8
0
 10
197.5
 20
91.499999999999957
 30
0.0
 11
229.5
 21
91.499999999999943
 31
0.0
  0
LINE
  5
451
  8
0
 10
214.5
 20
101.4999999999999
 30
0.0
 11
214.5
 21
96.499999999999943
 31
0.0
  0
LINE
  5
452
  8
1
 10
207.5
 20
107.65000000000001
 30
0.0
 11
207.5
 21
95.349999999999966
 31
0.0
  0
CIRCLE
  5
453
  8
0
 10
207.5
 20
101.4999999999999
 30
0.0
 40
3.149999999999999
  0
LINE
  5
454
  8
0
 10
229.5
 20
104.0
 30
0.0
 11
229.5
 21
91.499999999999943
 31
0.0
  0
LINE
  5
455
  8
0
 10
256.5
 20
101.4999999999999
 30
0.0
 11
256.5
 21
96.499999999999943
 31
0.0
  0
LINE
  5
456
  8
1
 10
263.5
 20
107.65000000000001
 30
0.0
 11
263.5
 21
95.349999999999966
 31
0.0
  0
CIRCLE
  5
458
  8
0
 10
263.5
 20
101.4999999999999
 30
0.0
 40
3.149999999999999
  0
LINE
  5
459
  8
0
 10
225.5
 20
136.5
 30
0.0
 11
225.5
 21
96.499999999999943
 31
0.0
  0
LINE
  5
45A
  8
0
 10
245.5
 20
136.5
 30
0.0
 11
245.5
 21
96.499999999999943
 31
0.0
  0
LINE
  5
45B
  8
1
 10
235.5
 20
86.500000000000057
 30
0.0
 11
235.5
 21
146.49999999999989
 31
0.0
  0
LINE
  5
45C
  8
0
 10
232.5
 20
91.499999999999943
 30
0.0
 11
232.5
 21
141.49999999999989
 31
0.0
  0
LINE
  5
45D
  8
0
 10
238.5
 20
91.499999999999943
 30
0.0
 11
238.5
 21
141.49999999999989
 31
0.0
  0
LINE
  5
45E
  8
0
 10
230.5
 20
91.499999999999943
 30
0.0
 11
230.5
 21
141.49999999999989
 31
0.0
  0
LINE
  5
45F
  8
0
 10
240.5
 20
91.499999999999943
 30
0.0
 11
240.5
 21
141.49999999999989
 31
0.0
  0
LINE
  5
460
  8
0
 10
273.5
 20
91.499999999999957
 30
0.0
 11
273.5
 21
141.49999999999989
 31
0.0
  0
LINE
  5
461
  8
0
 10
230.5
 20
91.499999999999943
 30
0.0
 11
273.5
 21
91.499999999999957
 31
0.0
  0
LINE
  5
462
  8
0
 10
245.5
 20
96.499999999999943
 30
0.0
 11
256.5
 21
96.499999999999943
 31
0.0
  0
LINE
  5
463
  8
0
 10
225.5
 20
96.499999999999943
 30
0.0
 11
214.5
 21
96.499999999999943
 31
0.0
  0
LINE
  5
464
  8
0
 10
241.5
 20
141.49999999999989
 30
0.0
 11
273.5
 21
141.49999999999989
 31
0.0
  0
LINE
  5
465
  8
0
 10
245.5
 20
136.5
 30
0.0
 11
256.5
 21
136.5
 31
0.0
  0
LINE
  5
466
  8
0
 10
268.5
 20
124.4999999999999
 30
0.0
 11
268.5
 21
108.4999999999999
 31
0.0
  0
LINE
  5
467
  8
1
 10
257.35000000000002
 20
101.4999999999999
 30
0.0
 11
269.64999999999998
 21
101.4999999999999
 31
0.0
  0
ARC
  5
468
  8
0
 10
263.5
 20
101.4999999999999
 30
0.0
 40
7.0
 50
90.0
 51
180.0
  0
LINE
  5
469
  8
0
 10
263.5
 20
108.4999999999999
 30
0.0
 11
268.5
 21
108.4999999999999
 31
0.0
  0
LINE
  5
46A
  8
1
 10
257.35000000000002
 20
131.49999999999989
 30
0.0
 11
269.64999999999998
 21
131.49999999999989
 31
0.0
  0
ARC
  5
46B
  8
0
 10
263.5
 20
131.49999999999989
 30
0.0
 40
7.0
 50
180.0
 51
270.0
  0
CIRCLE
  5
46C
  8
0
 10
263.5
 20
131.49999999999989
 30
0.0
 40
3.149999999999999
  0
LINE
  5
46D
  8
1
 10
263.5
 20
137.64999999999989
 30
0.0
 11
263.5
 21
125.34999999999989
 31
0.0
  0
LINE
  5
46F
  8
0
 10
263.5
 20
124.4999999999999
 30
0.0
 11
268.5
 21
124.4999999999999
 31
0.0
  0
LINE
  5
470
  8
0
 10
256.5
 20
131.49999999999989
 30
0.0
 11
256.5
 21
136.5
 31
0.0
  0
LINE
  5
471
  8
0
 10
229.5
 20
128.99999999999989
 30
0.0
 11
229.5
 21
116.4999999999999
 31
0.0
  0
LINE
  5
472
  8
0
 10
241.5
 20
116.4999999999999
 30
0.0
 11
241.5
 21
104.0
 31
0.0
  0
LINE
  5
473
  8
0
 10
241.5
 20
104.0
 30
0.0
 11
229.5
 21
104.0
 31
0.0
  0
LINE
  5
474
  8
0
 10
229.5
 20
116.4999999999999
 30
0.0
 11
241.5
 21
116.4999999999999
 31
0.0
  0
ARC
  5
475
  8
0
 10
207.5
 20
101.4999999999999
 30
0.0
 40
7.0
 50
0.0
 51
90.0
  0
LINE
  5
476
  8
0
 10
225.5
 20
136.5
 30
0.0
 11
214.5
 21
136.5
 31
0.0
  0
LINE
  5
477
  8
0
 10
241.5
 20
141.49999999999989
 30
0.0
 11
241.5
 21
128.99999999999989
 31
0.0
  0
LINE
  5
478
  8
0
 10
241.5
 20
128.99999999999989
 30
0.0
 11
229.5
 21
128.99999999999989
 31
0.0
  0
CIRCLE
  5
479
  8
0
 10
207.5
 20
131.49999999999989
 30
0.0
 40
3.149999999999999
  0
ARC
  5
47A
  8
0
 10
207.5
 20
131.49999999999989
 30
0.0
 40
7.0
 50
270.0
 51
0.0
  0
LINE
  5
47B
  8
1
 10
207.5
 20
137.64999999999989
 30
0.0
 11
207.5
 21
125.34999999999989
 31
0.0
  0
LINE
  5
47C
  8
0
 10
214.5
 20
131.49999999999989
 30
0.0
 11
214.5
 21
136.5
 31
0.0
  0
LINE
  5
47D
  8
0
 10
197.5
 20
141.49999999999989
 30
0.0
 11
197.5
 21
91.499999999999957
 31
0.0
  0
LINE
  5
47E
  8
0
 10
202.5
 20
124.4999999999999
 30
0.0
 11
202.5
 21
108.4999999999999
 31
0.0
  0
TEXT
  5
574
  8
0
 62
     3
 10
0.0
 20
0.0
 30
0.0
 40
10.0
  1
FTH7650H
  7
STANDARD1
  0
LINE
  5
93D
  8
0
 10
53.0
 20
91.499999999999957
 30
0.0
 11
53.0
 21
141.49999999999989
 31
0.0
  0
LINE
  5
93E
  8
0
 10
123.0
 20
91.499999999999957
 30
0.0
 11
123.0
 21
141.49999999999989
 31
0.0
  0
LINE
  5
A50
  8
2
 10
164.5
 20
136.5
 30
0.0
 11
167.5
 21
136.5
 31
0.0
  0
LINE
  5
A51
  8
2
 10
164.5
 20
124.4999999999999
 30
0.0
 11
167.5
 21
124.4999999999999
 31
0.0
  0
LINE
  5
A52
  8
2
 10
164.5
 20
108.4999999999999
 30
0.0
 11
167.5
 21
108.4999999999999
 31
0.0
  0
LINE
  5
A53
  8
2
 10
164.5
 20
96.499999999999943
 30
0.0
 11
167.5
 21
96.499999999999943
 31
0.0
  0
LINE
  5
A5E
  8
2
 10
164.5
 20
136.5
 30
0.0
 11
164.5
 21
96.499999999999943
 31
0.0
  0
ENDSEC
  0
EOF
