  0
SECTION
  2
HEADER
  9
$ACADVER
  1
AC1009
  9
$INSBASE
 10
0.0
 20
0.0
 30
0.0
  9
$EXTMIN
 10
0.0
 20
-2.960436562073669
 30
0.0
  9
$EXTMAX
 10
145.3222430552345088
 20
117.8699189591827974
 30
0.0
  9
$LIMMIN
 10
0.0
 20
0.0
  9
$LIMMAX
 10
187.5
 20
135.0
  9
$ORTHOMODE
 70
     1
  9
$REGENMODE
 70
     1
  9
$FILLMODE
 70
     1
  9
$QTEXTMODE
 70
     0
  9
$MIRRTEXT
 70
     0
  9
$DRAGMODE
 70
     2
  9
$LTSCALE
 40
5.0
  9
$OSMODE
 70
    37
  9
$ATTMODE
 70
     1
  9
$TEXTSIZE
 40
4.000000000000048
  9
$TRACEWID
 40
0.05
  9
$TEXTSTYLE
  7
STANDARD
  9
$CLAYER
  8
0
  9
$CELTYPE
  6
BYLAYER
  9
$CECOLOR
 62
   256
  9
$DIMSCALE
 40
0.5
  9
$DIMASZ
 40
3.0
  9
$DIMEXO
 40
2.0
  9
$DIMDLI
 40
0.38
  9
$DIMRND
 40
0.0
  9
$DIMDLE
 40
0.0
  9
$DIMEXE
 40
2.0
  9
$DIMTP
 40
0.0
  9
$DIMTM
 40
0.0
  9
$DIMTXT
 40
3.2000000000000002
  9
$DIMCEN
 40
0.09
  9
$DIMTSZ
 40
0.0
  9
$DIMTOL
 70
     0
  9
$DIMLIM
 70
     0
  9
$DIMTIH
 70
     0
  9
$DIMTOH
 70
     0
  9
$DIMSE1
 70
     0
  9
$DIMSE2
 70
     0
  9
$DIMTAD
 70
     1
  9
$DIMZIN
 70
     0
  9
$DIMBLK
  1

  9
$DIMASO
 70
     1
  9
$DIMSHO
 70
     0
  9
$DIMPOST
  1

  9
$DIMAPOST
  1

  9
$DIMALT
 70
     0
  9
$DIMALTD
 70
     2
  9
$DIMALTF
 40
25.3999999999999986
  9
$DIMLFAC
 40
1.0
  9
$DIMTOFL
 70
     0
  9
$DIMTVP
 40
1.6000000000000001
  9
$DIMTIX
 70
     1
  9
$DIMSOXD
 70
     0
  9
$DIMSAH
 70
     0
  9
$DIMBLK1
  1

  9
$DIMBLK2
  1

  9
$DIMSTYLE
  2
STANDARD
  9
$DIMCLRD
 70
     0
  9
$DIMCLRE
 70
     0
  9
$DIMCLRT
 70
     0
  9
$DIMTFAC
 40
1.0
  9
$DIMGAP
 40
0.09
  9
$LUNITS
 70
     2
  9
$LUPREC
 70
     1
  9
$SKETCHINC
 40
0.1
  9
$FILLETRAD
 40
1.8999999999999999
  9
$AUNITS
 70
     0
  9
$AUPREC
 70
     1
  9
$MENU
  1
E:\r13\win\SUPPORT\ACAD
  9
$ELEVATION
 40
0.0
  9
$PELEVATION
 40
0.0
  9
$THICKNESS
 40
0.0
  9
$LIMCHECK
 70
     0
  9
$BLIPMODE
 70
     0
  9
$CHAMFERA
 40
0.0
  9
$CHAMFERB
 40
0.0
  9
$SKPOLY
 70
     0
  9
$TDCREATE
 40
2449839.7834490737877786
  9
$TDUPDATE
 40
2460235.5674305548891425
  9
$TDINDWG
 40
0.0124488426
  9
$TDUSRTIMER
 40
0.0124488426
  9
$USRTIMER
 70
     1
  9
$ANGBASE
 50
0.0
  9
$ANGDIR
 70
     0
  9
$PDMODE
 70
     0
  9
$PDSIZE
 40
0.0
  9
$PLINEWID
 40
0.0
  9
$COORDS
 70
     1
  9
$SPLFRAME
 70
     0
  9
$SPLINETYPE
 70
     6
  9
$SPLINESEGS
 70
     8
  9
$ATTDIA
 70
     1
  9
$ATTREQ
 70
     1
  9
$HANDLING
 70
     1
  9
$HANDSEED
  5
5F2
  9
$SURFTAB1
 70
     6
  9
$SURFTAB2
 70
     6
  9
$SURFTYPE
 70
     6
  9
$SURFU
 70
     6
  9
$SURFV
 70
     6
  9
$UCSNAME
  2

  9
$UCSORG
 10
0.0
 20
0.0
 30
0.0
  9
$UCSXDIR
 10
1.0
 20
0.0
 30
0.0
  9
$UCSYDIR
 10
0.0
 20
1.0
 30
0.0
  9
$PUCSNAME
  2

  9
$PUCSORG
 10
0.0
 20
0.0
 30
0.0
  9
$PUCSXDIR
 10
1.0
 20
0.0
 30
0.0
  9
$PUCSYDIR
 10
0.0
 20
1.0
 30
0.0
  9
$USERI1
 70
     0
  9
$USERI2
 70
     1
  9
$USERI3
 70
     1
  9
$USERI4
 70
     0
  9
$USERI5
 70
     0
  9
$USERR1
 40
0.0
  9
$USERR2
 40
0.0
  9
$USERR3
 40
0.0
  9
$USERR4
 40
0.0
  9
$USERR5
 40
0.0
  9
$WORLDVIEW
 70
     1
  9
$SHADEDGE
 70
     3
  9
$SHADEDIF
 70
    70
  9
$TILEMODE
 70
     1
  9
$MAXACTVP
 70
    16
  9
$PLIMCHECK
 70
     0
  9
$PEXTMIN
 10
1.0000000000000000E+20
 20
1.0000000000000000E+20
 30
1.0000000000000000E+20
  9
$PEXTMAX
 10
-1.0000000000000000E+20
 20
-1.0000000000000000E+20
 30
-1.0000000000000000E+20
  9
$PLIMMIN
 10
0.0
 20
0.0
  9
$PLIMMAX
 10
12.0
 20
9.0
  9
$UNITMODE
 70
     0
  9
$VISRETAIN
 70
     0
  9
$PLINEGEN
 70
     0
  9
$PSLTSCALE
 70
     0
  0
ENDSEC
  0
SECTION
  2
TABLES
  0
TABLE
  2
VPORT
 70
     1
  0
VPORT
  2
*ACTIVE
 70
     0
 10
0.0
 20
0.0
 11
1.0
 21
1.0
 12
234.8522167487685124
 22
100.0
 13
0.0
 23
0.0
 14
5.0
 24
5.0
 15
5.0
 25
5.0
 16
0.0
 26
0.0
 36
1.0
 17
0.0
 27
0.0
 37
0.0
 40
200.0
 41
2.3485221674876842
 42
50.0
 43
0.0
 44
0.0
 50
0.0
 51
0.0
 71
     0
 72
   500
 73
     1
 74
     0
 75
     0
 76
     0
 77
     0
 78
     2
  0
ENDTAB
  0
TABLE
  2
LTYPE
 70
     3
  0
LTYPE
  2
CONTINUOUS
 70
     0
  3
Solid Line
 72
    65
 73
     0
 40
0.0
  0
LTYPE
  2
CENTER
 70
     0
  3
____ _ ____ _ ____ _ ____ _ ____ _ ____ _ ____
 72
    65
 73
     4
 40
2.0
 49
1.25
 49
-0.25
 49
0.25
 49
-0.25
  0
LTYPE
  2
HIDDEN
 70
     0
  3
_ _ _ _ _ _ _ _ _ _ _ _ _ _ _ _ _ _ _ _ _ _ _
 72
    65
 73
     2
 40
0.375
 49
0.25
 49
-0.125
  0
ENDTAB
  0
TABLE
  2
LAYER
 70
     4
  0
LAYER
  2
0
 70
     0
 62
     7
  6
CONTINUOUS
  0
LAYER
  2
1
 70
     0
 62
     1
  6
CENTER
  0
LAYER
  2
3
 70
     0
 62
     3
  6
CONTINUOUS
  0
LAYER
  2
2
 70
     0
 62
     2
  6
HIDDEN
  0
ENDTAB
  0
TABLE
  2
STYLE
 70
     2
  0
STYLE
  2
STANDARD
 70
     0
 40
0.0
 41
1.0
 50
0.0
 71
     0
 42
4.000000000000048
  3
TXT
  4
BIGFONT
  0
STYLE
  2
STANDARD1
 70
     0
 40
0.0
 41
1.0
 50
0.0
 71
     0
 42
3.0
  3
txt
  4

  0
ENDTAB
  0
TABLE
  2
VIEW
 70
     1
  0
VIEW
  2
ALL
 70
     0
 40
135.0
 10
110.4957983193277045
 20
67.5
 41
0.0
 11
0.0
 21
0.0
 31
1.0
 12
0.0
 22
0.0
 32
0.0
 42
0.0
 43
0.0
 44
0.0
 50
0.0
 71
     0
  0
ENDTAB
  0
TABLE
  2
UCS
 70
     0
  0
ENDTAB
  0
TABLE
  2
APPID
 70
     5
  0
APPID
  2
ACAD
 70
     0
  0
APPID
  2
ACAD_MLEADERVER
 70
     0
  0
APPID
  2
ACAD_DSTYLE_DIMJAG
 70
     0
  0
APPID
  2
ACAD_DSTYLE_DIMTALN
 70
     0
  0
APPID
  2
ACAD_NAV_VCDISPLAY
 70
     0
  0
ENDTAB
  0
TABLE
  2
DIMSTYLE
 70
     1
  0
DIMSTYLE
  2
STANDARD
 70
     0
  3

  4

  5

  6

  7

 40
1.0
 41
0.18
 42
0.0625
 43
0.38
 44
0.18
 45
0.0
 46
0.0
 47
0.0
 48
0.0
140
0.18
141
0.09
142
0.0
143
25.3999999999999986
144
1.0
145
0.0
146
1.0
147
0.09
 71
     0
 72
     0
 73
     1
 74
     1
 75
     0
 76
     0
 77
     0
 78
     0
170
     0
171
     2
172
     0
173
     0
174
     0
175
     0
176
     0
177
     0
178
     0
  0
ENDTAB
  0
ENDSEC
  0
SECTION
  2
BLOCKS
  0
BLOCK
  8
0
  2
$MODEL_SPACE
 70
     0
 10
0.0
 20
0.0
 30
0.0
  3
$MODEL_SPACE
  1

  0
ENDBLK
  5
3DB
  8
0
  0
BLOCK
 67
     1
  8
0
  2
$PAPER_SPACE
 70
     0
 10
0.0
 20
0.0
 30
0.0
  3
$PAPER_SPACE
  1

  0
ENDBLK
  5
3D9
 67
     1
  8
0
  0
ENDSEC
  0
SECTION
  2
ENTITIES
  0
LINE
  5
36
  8
1
 10
93.8993536284511947
 20
71.8699189591828116
 30
0.0
 11
72.8993536284512231
 21
71.8699189591828258
 31
0.0
  0
LINE
  5
37
  8
1
 10
32.8222430552346012
 20
59.3699189591828187
 30
0.0
 11
32.8222430552346012
 21
84.3699189591827974
 31
0.0
  0
LINE
  5
38
  8
1
 10
20.3222430552346509
 20
71.86991895918284
 30
0.0
 11
45.3222430552345088
 21
71.8699189591828116
 31
0.0
  0
LINE
  5
39
  8
0
 10
77.2493536284512174
 20
81.8699189591828258
 30
0.0
 11
84.549353628451243
 21
81.8699189591827974
 31
0.0
  0
LINE
  5
3A
  8
0
 10
85.3993536284512373
 20
81.0199189591828031
 30
0.0
 11
85.3993536284511947
 21
62.7199189591828201
 31
0.0
  0
LINE
  5
3B
  8
0
 10
85.3993536284512231
 20
77.6199189591828116
 30
0.0
 11
90.2493536284512174
 21
77.6199189591828116
 31
0.0
  0
LINE
  5
3C
  8
0
 10
91.099353628451226
 20
76.7699189591828031
 30
0.0
 11
91.099353628451226
 21
66.9699189591828201
 31
0.0
  0
LINE
  5
3D
  8
0
 10
91.099353628451226
 20
75.3699189591828116
 30
0.0
 11
91.3993536284512231
 21
75.3699189591828116
 31
0.0
  0
LINE
  5
3E
  8
0
 10
91.3993536284512231
 20
75.3699189591828116
 30
0.0
 11
91.3993536284511947
 21
68.3699189591827974
 31
0.0
  0
LINE
  5
3F
  8
0
 10
85.3993536284511947
 20
66.1199189591827832
 30
0.0
 11
90.2493536284512317
 21
66.1199189591828258
 31
0.0
  0
LINE
  5
40
  8
0
 10
84.5493536284512146
 20
61.8699189591827903
 30
0.0
 11
85.3993536284511947
 21
62.7199189591827917
 31
0.0
  0
LINE
  5
41
  8
0
 10
90.2493536284512317
 20
66.1199189591828258
 30
0.0
 11
91.099353628451226
 21
66.9699189591828201
 31
0.0
  0
LINE
  5
42
  8
0
 10
91.099353628451226
 20
76.7699189591828031
 30
0.0
 11
90.2493536284512174
 21
77.6199189591828116
 31
0.0
  0
LINE
  5
43
  8
0
 10
85.3993536284512373
 20
81.0199189591828031
 30
0.0
 11
84.549353628451243
 21
81.8699189591827974
 31
0.0
  0
LINE
  5
44
  8
0
 10
76.3993536284512231
 20
81.0199189591828315
 30
0.0
 11
76.8840021564972744
 21
81.5045674872288828
 31
0.0
  0
LINE
  5
45
  8
0
 10
90.2493536284512317
 20
77.6199189591828116
 30
0.0
 11
90.2493536284512317
 21
66.11991895918284
 31
0.0
  0
LINE
  5
46
  8
0
 10
84.5493536284512288
 20
81.86991895918284
 30
0.0
 11
84.549353628451243
 21
61.8699189591828187
 31
0.0
  0
LINE
  5
47
  8
2
 10
81.3993536284511947
 20
69.3699189591827832
 30
0.0
 11
81.3993536284512373
 21
74.3699189591828826
 31
0.0
  0
LINE
  5
48
  8
2
 10
91.099353628451226
 20
68.3699189591827974
 30
0.0
 11
82.3993536284512089
 21
68.3699189591827974
 31
0.0
  0
LINE
  5
49
  8
2
 10
82.3993536284512089
 20
68.3699189591827974
 30
0.0
 11
81.3993536284511947
 21
69.3699189591827832
 31
0.0
  0
LINE
  5
4A
  8
2
 10
79.4993536284512459
 20
77.3699189591828116
 30
0.0
 11
79.4993536284512317
 21
66.3699189591828258
 31
0.0
  0
LINE
  5
4B
  8
2
 10
79.4993536284512317
 20
66.3699189591828258
 30
0.0
 11
78.9993536284512317
 21
66.3699189591828258
 31
0.0
  0
LINE
  5
4C
  8
2
 10
78.9993536284512317
 20
66.3699189591828258
 30
0.0
 11
78.9993536284512317
 21
77.3699189591828116
 31
0.0
  0
LINE
  5
4D
  8
2
 10
76.3993536284512231
 20
63.8699189591828187
 30
0.0
 11
78.9993536284512317
 21
66.3699189591828258
 31
0.0
  0
CIRCLE
  5
4E
  8
0
 10
32.8222430552346012
 20
71.8699189591828116
 30
0.0
 40
10.0
  0
CIRCLE
  5
4F
  8
0
 10
32.8222430552346012
 20
71.8699189591828116
 30
0.0
 40
8.0
  0
ARC
  5
51
  8
0
 10
21.87224305523333
 20
71.86991895918284
 30
0.0
 40
1.25
 50
321.6384009709926772
 51
38.3615990290073015
  0
ARC
  5
52
  8
0
 10
22.9566339517019813
 20
67.1188920158450202
 30
0.0
 40
1.25
 50
347.3526866852785133
 51
64.0758847432930168
  0
ARC
  5
53
  8
0
 10
25.9950297248806805
 20
63.3088642261569134
 30
0.0
 40
1.25
 50
13.0669723995641505
 51
89.7901704575787249
  0
ARC
  5
54
  8
0
 10
30.3856388284126808
 20
61.1944583207906305
 30
0.0
 40
1.25
 50
38.7812581138498587
 51
115.5044561718644047
  0
ARC
  5
55
  8
0
 10
35.2588472820565428
 20
61.1944583207906021
 30
0.0
 40
1.25
 50
64.4955438281355811
 51
141.2187418861500987
  0
ARC
  5
56
  8
0
 10
39.6494563855885076
 20
63.3088642261568779
 30
0.0
 40
1.25
 50
90.2098295424213035
 51
166.9330276004359064
  0
ARC
  5
57
  8
0
 10
42.6878521587672068
 20
67.1188920158449918
 30
0.0
 40
1.25
 50
115.9241152567069975
 51
192.6473133147214867
  0
ARC
  5
58
  8
0
 10
43.7722430552358333
 20
71.8699189591828116
 30
0.0
 40
1.25
 50
141.6384009709927057
 51
218.3615990290072091
  0
ARC
  5
59
  8
0
 10
42.68785215876715
 20
76.6209459025206314
 30
0.0
 40
1.25
 50
167.3526866852783996
 51
244.0758847432929883
  0
ARC
  5
5A
  8
0
 10
39.6494563855885076
 20
80.4309736922087239
 30
0.0
 40
1.25
 50
193.0669723995642073
 51
269.7901704575787107
  0
ARC
  5
5B
  8
0
 10
35.2588472820565428
 20
82.5453795975750069
 30
0.0
 40
1.25
 50
218.7812581138497876
 51
295.5044561718643763
  0
ARC
  5
5C
  8
0
 10
30.3856388284127092
 20
82.5453795975750069
 30
0.0
 40
1.25
 50
244.4955438281355953
 51
321.2187418861500987
  0
ARC
  5
5D
  8
0
 10
25.9950297248806805
 20
80.4309736922087239
 30
0.0
 40
1.25
 50
270.2098295424212893
 51
346.9330276004358211
  0
ARC
  5
5E
  8
0
 10
22.9566339517019813
 20
76.6209459025206598
 30
0.0
 40
1.25
 50
295.9241152567070117
 51
12.6473133147215293
  0
CIRCLE
  5
5F
  8
0
 10
32.8222430552346012
 20
71.8699189591828116
 30
0.0
 40
9.1500000000000004
  0
LINE
  5
60
  8
0
 10
76.3993536284512373
 20
62.7199189591828201
 30
0.0
 11
76.3993536284512231
 21
81.0199189591828315
 31
0.0
  0
LINE
  5
61
  8
2
 10
90.9323536284510539
 20
69.369918959182769
 30
0.0
 11
85.3993536284515216
 21
69.3699189591827547
 31
0.0
  0
LINE
  5
62
  8
2
 10
90.4993536284512174
 20
69.8029189591825627
 30
0.0
 11
83.3993536284512231
 21
69.8029189591825627
 31
0.0
  0
LINE
  5
63
  8
2
 10
83.3993536284511663
 20
69.8029189591825627
 30
0.0
 11
82.1573747289210985
 21
71.8699189591828258
 31
0.0
  0
LINE
  5
64
  8
2
 10
83.3993536284512231
 20
69.8029189591825627
 30
0.0
 11
83.3993536284512231
 21
73.9369189591830747
 31
0.0
  0
LINE
  5
65
  8
2
 10
85.3993536284511947
 20
69.3699189591829395
 30
0.0
 11
84.649375628774294
 21
69.8029189591827333
 31
0.0
  0
LINE
  5
66
  8
2
 10
91.3993536284512516
 20
68.9029189591825144
 30
0.0
 11
90.4993536284512174
 21
69.8029189591825627
 31
0.0
  0
LINE
  5
67
  8
2
 10
90.4993536284512174
 20
69.8029189591825627
 30
0.0
 11
90.4993536284511748
 21
73.9369189591830747
 31
0.0
  0
LINE
  5
68
  8
2
 10
85.3993536284515073
 20
69.3699189591827547
 30
0.0
 11
85.3993536284515073
 21
74.3699189591828542
 31
0.0
  0
LINE
  5
72
  8
0
 10
91.099353628451226
 20
68.3699189591827832
 30
0.0
 11
91.3993536284511947
 21
68.369918959182769
 31
0.0
  0
LINE
  5
73
  8
2
 10
76.3993536284512231
 20
79.8699189591828258
 30
0.0
 11
78.9993536284512317
 21
77.3699189591828258
 31
0.0
  0
LINE
  5
74
  8
2
 10
79.4993536284512317
 20
77.3699189591828258
 30
0.0
 11
78.9993536284512317
 21
77.3699189591828258
 31
0.0
  0
LINE
  5
75
  8
2
 10
82.3993536284512089
 20
75.3699189591828542
 30
0.0
 11
81.3993536284511947
 21
74.3699189591828542
 31
0.0
  0
LINE
  5
76
  8
2
 10
91.099353628451226
 20
75.3699189591828258
 30
0.0
 11
82.3993536284512089
 21
75.3699189591828542
 31
0.0
  0
LINE
  5
77
  8
2
 10
90.4993536284512174
 20
73.9369189591830605
 30
0.0
 11
83.3993536284512231
 21
73.9369189591830605
 31
0.0
  0
LINE
  5
78
  8
2
 10
83.3993536284511663
 20
73.9369189591830605
 30
0.0
 11
82.1573747289210985
 21
71.8699189591828258
 31
0.0
  0
LINE
  5
79
  8
2
 10
85.3993536284511947
 20
74.3699189591826837
 30
0.0
 11
84.649375628774294
 21
73.9369189591828899
 31
0.0
  0
LINE
  5
7A
  8
2
 10
90.9323536284510539
 20
74.3699189591828542
 30
0.0
 11
85.3993536284515216
 21
74.3699189591828542
 31
0.0
  0
LINE
  5
7B
  8
2
 10
91.3993536284512516
 20
74.8369189591830946
 30
0.0
 11
90.4993536284512174
 21
73.9369189591830605
 31
0.0
  0
LINE
  5
7C
  8
0
 10
77.2493536284512743
 20
34.4077433450055565
 30
0.0
 11
77.2493536284512601
 21
37.332094573360088
 31
0.0
  0
LINE
  5
7D
  8
0
 10
84.0993536284509275
 20
25.8699189591828294
 30
0.0
 11
84.5493536284512714
 21
25.8699189591828294
 31
0.0
  0
LINE
  5
7E
  8
0
 10
76.3993536284512516
 20
26.7199189591828201
 30
0.0
 11
76.8493536284513539
 21
26.2699189591827214
 31
0.0
  0
LINE
  5
7F
  8
0
 10
77.2493536284512601
 20
25.9000559454840698
 30
0.0
 11
77.2493536284512601
 21
26.5507853120338311
 31
0.0
  0
LINE
  5
80
  8
0
 10
77.2120071088937294
 20
34.4077433450055494
 30
0.0
 11
83.7367001480324262
 21
34.4077433450055494
 31
0.0
  0
LINE
  5
81
  8
0
 10
77.2493536284512317
 20
32.8950881149105783
 30
0.0
 11
83.6993545821254656
 21
32.8950881149105783
 31
0.0
  0
LINE
  5
82
  8
0
 10
77.2059707888980569
 20
30.2603386993509496
 30
0.0
 11
83.7427364679451784
 21
30.2603386993509496
 31
0.0
  0
LINE
  5
83
  8
0
 10
77.2493536284512601
 20
29.0472833890752185
 30
0.0
 11
83.6993536284511208
 21
29.0472833890752291
 31
0.0
  0
LINE
  5
84
  8
0
 10
77.183322666943937
 20
27.2239802211431403
 30
0.0
 11
83.7653845900011191
 21
27.223980221143119
 31
0.0
  0
LINE
  5
85
  8
0
 10
77.2493536284512601
 20
26.5507853120338204
 30
0.0
 11
83.6993543028006854
 21
26.5507853120338311
 31
0.0
  0
LINE
  5
86
  8
0
 10
77.2493536284512601
 20
25.9000559454840804
 30
0.0
 11
83.6993533491277049
 21
25.9000559454840804
 31
0.0
  0
POLYLINE
  5
87
  8
0
 66
     1
 10
0.0
 20
0.0
 30
0.0
  0
VERTEX
  5
88
  8
0
 10
76.8493536284513539
 20
33.7114658998062922
 30
0.0
 42
-0.0584700367089559
 50
89.9999999999999858
  0
VERTEX
  5
89
  8
0
 10
76.8821684220382622
 20
33.9911186074987413
 30
0.0
 42
-0.0720824478963223
 50
89.9999999999999858
  0
VERTEX
  5
8A
  8
0
 10
76.9665109159767269
 20
34.2038084028939409
 30
0.0
 42
-0.1065647653260566
 70
     2
 50
60.1233372943620665
  0
VERTEX
  5
8B
  8
0
 10
77.1185896872943459
 20
34.3724591816777334
 30
0.0
 42
-0.182558189136383
 50
89.9999999999999858
  0
VERTEX
  5
8C
  8
0
 10
77.2493536284512743
 20
34.4077433450055565
 30
0.0
 42
-0.1574556497505599
 50
89.9999999999999858
  0
SEQEND
  5
8D
  8
0
  0
POLYLINE
  5
8E
  8
0
 66
     1
 10
0.0
 20
0.0
 30
0.0
  0
VERTEX
  5
8F
  8
0
 10
77.2493536284512317
 20
32.8950881149105712
 30
0.0
 42
-0.1772752497286819
 50
89.9999999999999858
  0
VERTEX
  5
90
  8
0
 10
77.1144610671743038
 20
32.9444661184108867
 30
0.0
 42
-0.1037184546977616
 50
89.9999999999999858
  0
VERTEX
  5
91
  8
0
 10
76.9665109159766843
 20
33.1341996320964682
 30
0.0
 42
-0.0639265016304787
 70
     2
 50
116.1034326419478049
  0
VERTEX
  5
92
  8
0
 10
76.8825489396743507
 20
33.3810064570976692
 30
0.0
 42
-0.0500999315019023
 50
89.9999999999999858
  0
VERTEX
  5
93
  8
0
 10
76.8493536284513539
 20
33.7114658998062922
 30
0.0
 42
-0.0500999315019139
 50
89.9999999999999858
  0
SEQEND
  5
94
  8
0
  0
POLYLINE
  5
95
  8
0
 66
     1
 10
0.0
 20
0.0
 30
0.0
  0
VERTEX
  5
96
  8
0
 10
76.8493536284513539
 20
29.8220678811523499
 30
0.0
 42
-0.0906057889765221
 50
89.9999999999999858
  0
VERTEX
  5
97
  8
0
 10
76.8803283090754519
 20
29.9915956627066507
 30
0.0
 42
-0.0948678514357048
 50
89.9999999999999858
  0
VERTEX
  5
98
  8
0
 10
76.9665109159766985
 20
30.1319721486967609
 30
0.0
 42
-0.1015910306527909
 70
     2
 50
47.6139938777279568
  0
VERTEX
  5
99
  8
0
 10
77.1088980318702113
 20
30.2354692393517901
 30
0.0
 42
-0.1260613613634058
 50
89.9999999999999858
  0
VERTEX
  5
9A
  8
0
 10
77.2493536284512601
 20
30.2603386993492904
 30
0.0
 42
-0.106916177055327
 50
89.9999999999999858
  0
SEQEND
  5
9B
  8
0
  0
POLYLINE
  5
9C
  8
0
 66
     1
 10
0.0
 20
0.0
 30
0.0
  0
VERTEX
  5
9D
  8
0
 10
77.2493536284512601
 20
29.0472833890752185
 30
0.0
 42
-0.1706664605526735
 50
89.9999999999999858
  0
VERTEX
  5
9E
  8
0
 10
77.1128920942602605
 20
29.095259608456459
 30
0.0
 42
-0.10489829538605
 50
89.9999999999999858
  0
VERTEX
  5
9F
  8
0
 10
76.9665109159781338
 20
29.2742125128464288
 30
0.0
 42
-0.066574804167348
 70
     2
 50
117.3060670838679016
  0
VERTEX
  5
A0
  8
0
 10
76.8824350229688207
 20
29.5091772881235102
 30
0.0
 42
-0.0527172412625307
 50
89.9999999999999858
  0
VERTEX
  5
A1
  8
0
 10
76.849353628453386
 20
29.8220678811523499
 30
0.0
 42
-0.0527172412625443
 50
89.9999999999999858
  0
SEQEND
  5
A2
  8
0
  0
POLYLINE
  5
A3
  8
0
 66
     1
 10
0.0
 20
0.0
 30
0.0
  0
VERTEX
  5
A4
  8
0
 10
76.8493536284513397
 20
27.1305209405282284
 30
0.0
 50
89.9999999999999858
  0
VERTEX
  5
A5
  8
0
 10
76.8648045833849238
 20
27.1569760336989106
 30
0.0
 42
-0.0711335724020575
 50
89.9999999999999858
  0
VERTEX
  5
A6
  8
0
 10
76.9665109159766985
 20
27.1966066316158503
 30
0.0
 42
-0.033274958700216
 70
     2
 50
13.1511302364020999
  0
VERTEX
  5
A7
  8
0
 10
77.1022655238066505
 20
27.2189334292149887
 30
0.0
 42
-0.0311009623782723
 50
89.9999999999999858
  0
VERTEX
  5
A8
  8
0
 10
77.2493536284512601
 20
27.223980221143151
 30
0.0
 42
-0.02412462334816
 50
89.9999999999999858
  0
SEQEND
  5
A9
  8
0
  0
POLYLINE
  5
AA
  8
0
 66
     1
 10
0.0
 20
0.0
 30
0.0
  0
VERTEX
  5
AB
  8
0
 10
77.2493536284512601
 20
26.5507853120338098
 30
0.0
 42
-0.1359958379716637
 50
89.9999999999999858
  0
VERTEX
  5
AC
  8
0
 10
77.1047103011378141
 20
26.5908684249235598
 30
0.0
 42
-0.1069468256299952
 50
89.9999999999999858
  0
VERTEX
  5
AD
  8
0
 10
76.9665109159766985
 20
26.7205859463243804
 30
0.0
 42
-0.0815773277484804
 70
     2
 50
124.604498237590704
  0
VERTEX
  5
AE
  8
0
 10
76.8815880321375715
 20
26.9004278674590296
 30
0.0
 42
-0.069706093800654
 50
89.9999999999999858
  0
VERTEX
  5
AF
  8
0
 10
76.8493536284513397
 20
27.1305209405282284
 30
0.0
 42
-0.0697060938006716
 50
89.9999999999999858
  0
SEQEND
  5
B0
  8
0
  0
POLYLINE
  5
B1
  8
0
 66
     1
 10
0.0
 20
0.0
 30
0.0
  0
VERTEX
  5
B2
  8
0
 10
76.8493536284513539
 20
26.2699189591827
 30
0.0
 42
-0.0916984344567795
 50
89.9999999999999858
  0
VERTEX
  5
B3
  8
0
 10
77.0038526744349241
 20
26.2413440427747311
 30
0.0
 42
-0.0954133203087169
 50
89.9999999999999858
  0
VERTEX
  5
B4
  8
0
 10
77.1321963409259013
 20
26.161588590580461
 30
0.0
 42
-0.1011842983975874
 70
     2
 50
317.2417506631915103
  0
VERTEX
  5
B5
  8
0
 10
77.226620375576104
 20
26.0301168959102789
 30
0.0
 42
-0.1246996945258645
 50
89.9999999999999858
  0
VERTEX
  5
B6
  8
0
 10
77.249353628442222
 20
25.9000559454840804
 30
0.0
 42
-0.1056807497133024
 50
89.9999999999999858
  0
SEQEND
  5
B7
  8
0
  0
LINE
  5
B8
  8
0
 10
77.2493536284512601
 20
30.2603386993509709
 30
0.0
 11
77.2493536284512601
 21
32.8950881149105712
 31
0.0
  0
LINE
  5
B9
  8
0
 10
77.2493536284512601
 20
27.2239802211431403
 30
0.0
 11
77.2493536284512601
 21
29.0472833890752185
 31
0.0
  0
POLYLINE
  5
BA
  8
0
 66
     1
 10
0.0
 20
0.0
 30
0.0
  0
VERTEX
  5
BB
  8
0
 10
83.6993536284511208
 20
26.5507853120338098
 30
0.0
 42
0.1359958379716637
 50
89.9999999999999858
  0
VERTEX
  5
BC
  8
0
 10
83.8439969557645526
 20
26.5908684249235598
 30
0.0
 42
0.1069468256299952
 50
89.9999999999999858
  0
VERTEX
  5
BD
  8
0
 10
83.9821963409256682
 20
26.7205859463243804
 30
0.0
 42
0.0815773277484804
 70
     2
 50
55.3955017624092818
  0
VERTEX
  5
BE
  8
0
 10
84.0671192247647951
 20
26.9004278674590296
 30
0.0
 42
0.069706093800654
 50
89.9999999999999858
  0
VERTEX
  5
BF
  8
0
 10
84.0993536284510412
 20
27.1305209405282284
 30
0.0
 42
0.0697060938006716
 50
89.9999999999999858
  0
SEQEND
  5
C0
  8
0
  0
POLYLINE
  5
C1
  8
0
 66
     1
 10
0.0
 20
0.0
 30
0.0
  0
VERTEX
  5
C2
  8
0
 10
84.099353628451027
 20
27.1305209405282284
 30
0.0
 50
89.9999999999999858
  0
VERTEX
  5
C3
  8
0
 10
84.0839026735174571
 20
27.1569760336989106
 30
0.0
 42
0.0711335724020575
 50
89.9999999999999858
  0
VERTEX
  5
C4
  8
0
 10
83.9821963409256682
 20
27.1966066316158503
 30
0.0
 42
0.033274958700216
 70
     2
 50
166.8488697635978895
  0
VERTEX
  5
C5
  8
0
 10
83.8464417330957161
 20
27.2189334292149887
 30
0.0
 42
0.0311009623782723
 50
89.9999999999999858
  0
VERTEX
  5
C6
  8
0
 10
83.6993536284511208
 20
27.223980221143151
 30
0.0
 42
0.02412462334816
 50
89.9999999999999858
  0
SEQEND
  5
C7
  8
0
  0
POLYLINE
  5
C8
  8
0
 66
     1
 10
0.0
 20
0.0
 30
0.0
  0
VERTEX
  5
C9
  8
0
 10
83.6993536284511208
 20
29.0472833890752185
 30
0.0
 42
0.1706664605526735
 50
89.9999999999999858
  0
VERTEX
  5
CA
  8
0
 10
83.8358151626421062
 20
29.095259608456459
 30
0.0
 42
0.10489829538605
 50
89.9999999999999858
  0
VERTEX
  5
CB
  8
0
 10
83.9821963409242329
 20
29.2742125128464288
 30
0.0
 42
0.066574804167348
 70
     2
 50
62.693932916132141
  0
VERTEX
  5
CC
  8
0
 10
84.066272233933546
 20
29.5091772881235102
 30
0.0
 42
0.0527172412625307
 50
89.9999999999999858
  0
VERTEX
  5
CD
  8
0
 10
84.0993536284489949
 20
29.8220678811523499
 30
0.0
 42
0.0527172412625443
 50
89.9999999999999858
  0
SEQEND
  5
CE
  8
0
  0
POLYLINE
  5
CF
  8
0
 66
     1
 10
0.0
 20
0.0
 30
0.0
  0
VERTEX
  5
D0
  8
0
 10
84.099353628451027
 20
29.8220678811523499
 30
0.0
 42
0.0906057889765221
 50
89.9999999999999858
  0
VERTEX
  5
D1
  8
0
 10
84.068378947826929
 20
29.9915956627066507
 30
0.0
 42
0.0948678514357048
 50
89.9999999999999858
  0
VERTEX
  5
D2
  8
0
 10
83.9821963409256682
 20
30.1319721486967609
 30
0.0
 42
0.1015910306527909
 70
     2
 50
132.3860061222721072
  0
VERTEX
  5
D3
  8
0
 10
83.8398092250321554
 20
30.2354692393517901
 30
0.0
 42
0.1260613613634058
 50
89.9999999999999858
  0
VERTEX
  5
D4
  8
0
 10
83.6993536284511208
 20
30.2603386993492904
 30
0.0
 42
0.106916177055327
 50
89.9999999999999858
  0
SEQEND
  5
D5
  8
0
  0
POLYLINE
  5
D6
  8
0
 66
     1
 10
0.0
 20
0.0
 30
0.0
  0
VERTEX
  5
D7
  8
0
 10
83.6993536284511492
 20
32.8950881149105712
 30
0.0
 42
0.1772752497286819
 50
89.9999999999999858
  0
VERTEX
  5
D8
  8
0
 10
83.8342461897280486
 20
32.9444661184108867
 30
0.0
 42
0.1037184546977616
 50
89.9999999999999858
  0
VERTEX
  5
D9
  8
0
 10
83.9821963409256682
 20
33.1341996320964682
 30
0.0
 42
0.0639265016304787
 70
     2
 50
63.8965673580522591
  0
VERTEX
  5
DA
  8
0
 10
84.0661583172280302
 20
33.3810064570976692
 30
0.0
 42
0.0500999315019023
 50
89.9999999999999858
  0
VERTEX
  5
DB
  8
0
 10
84.099353628451027
 20
33.7114658998062922
 30
0.0
 42
0.0500999315019139
 50
89.9999999999999858
  0
SEQEND
  5
DC
  8
0
  0
POLYLINE
  5
DD
  8
0
 66
     1
 10
0.0
 20
0.0
 30
0.0
  0
VERTEX
  5
DE
  8
0
 10
84.099353628451027
 20
33.7114658998062922
 30
0.0
 42
0.0584700367089559
 50
89.9999999999999858
  0
VERTEX
  5
DF
  8
0
 10
84.0665388348641045
 20
33.9911186074987413
 30
0.0
 42
0.0720824478963223
 50
89.9999999999999858
  0
VERTEX
  5
E0
  8
0
 10
83.982196340925654
 20
34.2038084028939409
 30
0.0
 42
0.1065647653260566
 70
     2
 50
119.8766627056378979
  0
VERTEX
  5
E1
  8
0
 10
83.830117569608035
 20
34.3724591816777334
 30
0.0
 42
0.182558189136383
 50
89.9999999999999858
  0
VERTEX
  5
E2
  8
0
 10
83.6993536284511066
 20
34.4077433450055565
 30
0.0
 42
0.1574556497505599
 50
89.9999999999999858
  0
SEQEND
  5
E3
  8
0
  0
POLYLINE
  5
E4
  8
0
 66
     1
 10
0.0
 20
0.0
 30
0.0
  0
VERTEX
  5
E5
  8
0
 10
83.6993543028006854
 20
25.9000559454840698
 30
0.0
 42
-0.0077996076981731
 50
89.9999999999999858
  0
VERTEX
  5
E6
  8
0
 10
83.8649422736566663
 20
25.8974727459136282
 30
0.0
 42
-0.0110011230913692
 50
89.9999999999999858
  0
VERTEX
  5
E7
  8
0
 10
83.9821965384380746
 20
25.8912290265610388
 30
0.0
 42
-0.0261873620692712
 70
     2
 50
355.6913278469841089
  0
VERTEX
  5
E8
  8
0
 10
84.0954138643138833
 20
25.8767078034471503
 30
0.0
 50
89.9999999999999858
  0
VERTEX
  5
E9
  8
0
 10
84.099353628450956
 20
25.8699189591828294
 30
0.0
 50
89.9999999999999858
  0
SEQEND
  5
EA
  8
0
  0
POLYLINE
  5
EB
  8
0
 66
     1
 10
0.0
 20
0.0
 30
0.0
  0
VERTEX
  5
EC
  8
0
 10
83.6993543028006854
 20
45.8397819728815819
 30
0.0
 42
0.0077996076981731
 50
89.9999999999999858
  0
VERTEX
  5
ED
  8
0
 10
83.8649422736566805
 20
45.8423651724520127
 30
0.0
 42
0.0110011230913692
 50
89.9999999999999858
  0
VERTEX
  5
EE
  8
0
 10
83.9821965384381031
 20
45.8486088918046093
 30
0.0
 42
0.0261873620692712
 70
     2
 50
4.3086721530160412
  0
VERTEX
  5
EF
  8
0
 10
84.0954138643138975
 20
45.8631301149184978
 30
0.0
 50
4.3086721530160412
  0
VERTEX
  5
F0
  8
0
 10
84.099353628450956
 20
45.8699189591828187
 30
0.0
 50
89.9999999999999858
  0
SEQEND
  5
F1
  8
0
  0
POLYLINE
  5
F2
  8
0
 66
     1
 10
0.0
 20
0.0
 30
0.0
  0
VERTEX
  5
F3
  8
0
 10
84.099353628451027
 20
38.0283720185593666
 30
0.0
 42
-0.0584700367089559
 50
89.9999999999999858
  0
VERTEX
  5
F4
  8
0
 10
84.0665388348641045
 20
37.7487193108669175
 30
0.0
 42
-0.0720824478963223
 50
89.9999999999999858
  0
VERTEX
  5
F5
  8
0
 10
83.982196340925654
 20
37.5360295154717107
 30
0.0
 42
-0.1065647653260566
 70
     2
 50
240.1233372943621021
  0
VERTEX
  5
F6
  8
0
 10
83.830117569608035
 20
37.3673787366879324
 30
0.0
 42
-0.182558189136383
 50
89.9999999999999858
  0
VERTEX
  5
F7
  8
0
 10
83.6993536284511066
 20
37.332094573360088
 30
0.0
 42
-0.1574556497505599
 50
89.9999999999999858
  0
SEQEND
  5
F8
  8
0
  0
POLYLINE
  5
F9
  8
0
 66
     1
 10
0.0
 20
0.0
 30
0.0
  0
VERTEX
  5
FA
  8
0
 10
83.6993536284511492
 20
38.8447498034550875
 30
0.0
 42
-0.1772752497286819
 50
89.9999999999999858
  0
VERTEX
  5
FB
  8
0
 10
83.8342461897280486
 20
38.795371799954772
 30
0.0
 42
-0.1037184546977616
 50
89.9999999999999858
  0
VERTEX
  5
FC
  8
0
 10
83.9821963409256682
 20
38.6056382862691905
 30
0.0
 42
-0.0639265016304787
 70
     2
 50
296.103432641947677
  0
VERTEX
  5
FD
  8
0
 10
84.0661583172280302
 20
38.3588314612679824
 30
0.0
 42
-0.0500999315019023
 50
89.9999999999999858
  0
VERTEX
  5
FE
  8
0
 10
84.099353628451027
 20
38.0283720185593666
 30
0.0
 42
-0.0500999315019139
 50
89.9999999999999858
  0
SEQEND
  5
FF
  8
0
  0
POLYLINE
  5
100
  8
0
 66
     1
 10
0.0
 20
0.0
 30
0.0
  0
VERTEX
  5
101
  8
0
 10
84.099353628451027
 20
41.9177700372132875
 30
0.0
 42
-0.0906057889765221
 50
89.9999999999999858
  0
VERTEX
  5
102
  8
0
 10
84.068378947826929
 20
41.7482422556589867
 30
0.0
 42
-0.0948678514357048
 50
89.9999999999999858
  0
VERTEX
  5
103
  8
0
 10
83.9821963409256682
 20
41.6078657696688694
 30
0.0
 42
-0.1015910306527909
 70
     2
 50
227.6139938777278928
  0
VERTEX
  5
104
  8
0
 10
83.8398092250321554
 20
41.5043686790138509
 30
0.0
 42
-0.1260613613634058
 50
89.9999999999999858
  0
VERTEX
  5
105
  8
0
 10
83.6993536284511208
 20
41.4794992190163612
 30
0.0
 42
-0.106916177055327
 50
89.9999999999999858
  0
SEQEND
  5
106
  8
0
  0
POLYLINE
  5
107
  8
0
 66
     1
 10
0.0
 20
0.0
 30
0.0
  0
VERTEX
  5
108
  8
0
 10
83.6993536284511208
 20
42.6925545292904189
 30
0.0
 42
-0.1706664605526735
 50
89.9999999999999858
  0
VERTEX
  5
109
  8
0
 10
83.8358151626421346
 20
42.6445783099091784
 30
0.0
 42
-0.10489829538605
 50
89.9999999999999858
  0
VERTEX
  5
10A
  8
0
 10
83.9821963409242329
 20
42.465625405519198
 30
0.0
 42
-0.066574804167348
 70
     2
 50
297.3060670838679016
  0
VERTEX
  5
10B
  8
0
 10
84.066272233933546
 20
42.2306606302421415
 30
0.0
 42
-0.0527172412625307
 50
89.9999999999999858
  0
VERTEX
  5
10C
  8
0
 10
84.0993536284489949
 20
41.9177700372132875
 30
0.0
 42
-0.0527172412625443
 50
89.9999999999999858
  0
SEQEND
  5
10D
  8
0
  0
POLYLINE
  5
10E
  8
0
 66
     1
 10
0.0
 20
0.0
 30
0.0
  0
VERTEX
  5
10F
  8
0
 10
84.0993536284510412
 20
44.609316977837409
 30
0.0
 50
89.9999999999999858
  0
VERTEX
  5
110
  8
0
 10
84.0839026735174571
 20
44.5828618846667197
 30
0.0
 42
-0.0711335724020575
 50
89.9999999999999858
  0
VERTEX
  5
111
  8
0
 10
83.9821963409256682
 20
44.5432312867498013
 30
0.0
 42
-0.033274958700216
 70
     2
 50
193.1511302364021105
  0
VERTEX
  5
112
  8
0
 10
83.8464417330957161
 20
44.5209044891506664
 30
0.0
 42
-0.0311009623782723
 50
89.9999999999999858
  0
VERTEX
  5
113
  8
0
 10
83.6993536284511208
 20
44.5158576972224935
 30
0.0
 42
-0.02412462334816
 50
89.9999999999999858
  0
SEQEND
  5
114
  8
0
  0
POLYLINE
  5
115
  8
0
 66
     1
 10
0.0
 20
0.0
 30
0.0
  0
VERTEX
  5
116
  8
0
 10
83.6993536284511208
 20
45.1890526063318418
 30
0.0
 42
-0.1359958379716637
 50
89.9999999999999858
  0
VERTEX
  5
117
  8
0
 10
83.8439969557645668
 20
45.1489694934420669
 30
0.0
 42
-0.1069468256299952
 50
89.9999999999999858
  0
VERTEX
  5
118
  8
0
 10
83.9821963409256682
 20
45.0192519720412676
 30
0.0
 42
-0.0815773277484804
 70
     2
 50
304.6044982375906898
  0
VERTEX
  5
119
  8
0
 10
84.0671192247647951
 20
44.839410050906622
 30
0.0
 42
-0.069706093800654
 50
89.9999999999999858
  0
VERTEX
  5
11A
  8
0
 10
84.0993536284510412
 20
44.609316977837409
 30
0.0
 42
-0.0697060938006716
 50
89.9999999999999858
  0
SEQEND
  5
11B
  8
0
  0
LINE
  5
11C
  8
0
 10
77.2493536284512601
 20
44.5158576972225077
 30
0.0
 11
77.2493536284512601
 21
42.6925545292904189
 31
0.0
  0
LINE
  5
11D
  8
0
 10
77.2493536284512601
 20
41.4794992190146772
 30
0.0
 11
77.2493536284512601
 21
38.8447498034550875
 31
0.0
  0
POLYLINE
  5
11E
  8
0
 66
     1
 10
0.0
 20
0.0
 30
0.0
  0
VERTEX
  5
11F
  8
0
 10
76.8493536284513539
 20
45.4699189591829267
 30
0.0
 42
0.0916984344567795
 50
89.9999999999999858
  0
VERTEX
  5
120
  8
0
 10
77.0038526744349241
 20
45.498493875590917
 30
0.0
 42
0.0954133203087169
 50
89.9999999999999858
  0
VERTEX
  5
121
  8
0
 10
77.1321963409259013
 20
45.5782493277851799
 30
0.0
 42
0.1011842983975874
 70
     2
 50
42.7582493368085821
  0
VERTEX
  5
122
  8
0
 10
77.226620375576104
 20
45.7097210224553621
 30
0.0
 42
0.1246996945258645
 50
42.7582493368085821
  0
VERTEX
  5
123
  8
0
 10
77.249353628442222
 20
45.8397819728815534
 30
0.0
 42
0.1056807497133024
 50
89.9999999999999858
  0
SEQEND
  5
124
  8
0
  0
POLYLINE
  5
125
  8
0
 66
     1
 10
0.0
 20
0.0
 30
0.0
  0
VERTEX
  5
126
  8
0
 10
77.2493536284512601
 20
45.1890526063318418
 30
0.0
 42
0.1359958379716637
 50
89.9999999999999858
  0
VERTEX
  5
127
  8
0
 10
77.1047103011378141
 20
45.1489694934420669
 30
0.0
 42
0.1069468256299952
 50
89.9999999999999858
  0
VERTEX
  5
128
  8
0
 10
76.9665109159766985
 20
45.0192519720412676
 30
0.0
 42
0.0815773277484804
 70
     2
 50
235.3955017624093102
  0
VERTEX
  5
129
  8
0
 10
76.8815880321375715
 20
44.839410050906622
 30
0.0
 42
0.069706093800654
 50
235.3955017624093102
  0
VERTEX
  5
12A
  8
0
 10
76.8493536284513397
 20
44.609316977837409
 30
0.0
 42
0.0697060938006716
 50
89.9999999999999858
  0
SEQEND
  5
12B
  8
0
  0
POLYLINE
  5
12C
  8
0
 66
     1
 10
0.0
 20
0.0
 30
0.0
  0
VERTEX
  5
12D
  8
0
 10
76.8493536284513397
 20
44.609316977837409
 30
0.0
 50
89.9999999999999858
  0
VERTEX
  5
12E
  8
0
 10
76.8648045833849238
 20
44.5828618846667197
 30
0.0
 42
0.0711335724020575
 50
89.9999999999999858
  0
VERTEX
  5
12F
  8
0
 10
76.9665109159766985
 20
44.5432312867498013
 30
0.0
 42
0.033274958700216
 70
     2
 50
346.8488697635979179
  0
VERTEX
  5
130
  8
0
 10
77.1022655238066505
 20
44.5209044891506664
 30
0.0
 42
0.0311009623782723
 50
346.8488697635979179
  0
VERTEX
  5
131
  8
0
 10
77.2493536284512601
 20
44.5158576972224935
 30
0.0
 42
0.02412462334816
 50
89.9999999999999858
  0
SEQEND
  5
132
  8
0
  0
POLYLINE
  5
133
  8
0
 66
     1
 10
0.0
 20
0.0
 30
0.0
  0
VERTEX
  5
134
  8
0
 10
77.2493536284512601
 20
42.6925545292904189
 30
0.0
 42
0.1706664605526735
 50
89.9999999999999858
  0
VERTEX
  5
135
  8
0
 10
77.1128920942602605
 20
42.6445783099091784
 30
0.0
 42
0.10489829538605
 50
89.9999999999999858
  0
VERTEX
  5
136
  8
0
 10
76.9665109159781338
 20
42.465625405519198
 30
0.0
 42
0.066574804167348
 70
     2
 50
242.6939329161322121
  0
VERTEX
  5
137
  8
0
 10
76.8824350229688207
 20
42.2306606302421415
 30
0.0
 42
0.0527172412625307
 50
242.6939329161322121
  0
VERTEX
  5
138
  8
0
 10
76.849353628453386
 20
41.9177700372132875
 30
0.0
 42
0.0527172412625443
 50
89.9999999999999858
  0
SEQEND
  5
139
  8
0
  0
POLYLINE
  5
13A
  8
0
 66
     1
 10
0.0
 20
0.0
 30
0.0
  0
VERTEX
  5
13B
  8
0
 10
76.8493536284513539
 20
41.9177700372132875
 30
0.0
 42
0.0906057889765221
 50
89.9999999999999858
  0
VERTEX
  5
13C
  8
0
 10
76.8803283090754519
 20
41.7482422556589867
 30
0.0
 42
0.0948678514357048
 50
89.9999999999999858
  0
VERTEX
  5
13D
  8
0
 10
76.9665109159766985
 20
41.6078657696688694
 30
0.0
 42
0.1015910306527909
 70
     2
 50
312.3860061222721924
  0
VERTEX
  5
13E
  8
0
 10
77.1088980318702113
 20
41.5043686790138509
 30
0.0
 42
0.1260613613634058
 50
312.3860061222721924
  0
VERTEX
  5
13F
  8
0
 10
77.2493536284512601
 20
41.4794992190163612
 30
0.0
 42
0.106916177055327
 50
89.9999999999999858
  0
SEQEND
  5
140
  8
0
  0
POLYLINE
  5
141
  8
0
 66
     1
 10
0.0
 20
0.0
 30
0.0
  0
VERTEX
  5
142
  8
0
 10
77.2493536284512317
 20
38.8447498034550875
 30
0.0
 42
0.1772752497286819
 50
89.9999999999999858
  0
VERTEX
  5
143
  8
0
 10
77.1144610671743038
 20
38.795371799954772
 30
0.0
 42
0.1037184546977616
 50
89.9999999999999858
  0
VERTEX
  5
144
  8
0
 10
76.9665109159766843
 20
38.6056382862691905
 30
0.0
 42
0.0639265016304787
 70
     2
 50
243.8965673580522093
  0
VERTEX
  5
145
  8
0
 10
76.8825489396743507
 20
38.3588314612679824
 30
0.0
 42
0.0500999315019023
 50
243.8965673580522093
  0
VERTEX
  5
146
  8
0
 10
76.8493536284513539
 20
38.0283720185593666
 30
0.0
 42
0.0500999315019139
 50
89.9999999999999858
  0
SEQEND
  5
147
  8
0
  0
POLYLINE
  5
148
  8
0
 66
     1
 10
0.0
 20
0.0
 30
0.0
  0
VERTEX
  5
149
  8
0
 10
76.8493536284513539
 20
38.0283720185593666
 30
0.0
 42
0.0584700367089559
 50
89.9999999999999858
  0
VERTEX
  5
14A
  8
0
 10
76.8821684220382622
 20
37.7487193108669175
 30
0.0
 42
0.0720824478963223
 50
89.9999999999999858
  0
VERTEX
  5
14B
  8
0
 10
76.9665109159767269
 20
37.5360295154717107
 30
0.0
 42
0.1065647653260566
 70
     2
 50
299.8766627056378979
  0
VERTEX
  5
14C
  8
0
 10
77.1185896872943459
 20
37.3673787366879324
 30
0.0
 42
0.182558189136383
 50
299.8766627056378979
  0
VERTEX
  5
14D
  8
0
 10
77.2493536284512743
 20
37.332094573360088
 30
0.0
 42
0.1574556497505599
 50
89.9999999999999858
  0
SEQEND
  5
14E
  8
0
  0
LINE
  5
14F
  8
0
 10
77.249353628442222
 20
45.8397819728815392
 30
0.0
 11
83.6993533491277049
 21
45.8397819728815534
 31
0.0
  0
LINE
  5
150
  8
0
 10
77.2493536284512885
 20
45.1890526063318418
 30
0.0
 11
83.6993543028006854
 21
45.1890526063318134
 31
0.0
  0
LINE
  5
151
  8
0
 10
77.1833226669436812
 20
44.5158576972225077
 30
0.0
 11
83.7653845900011191
 21
44.5158576972225077
 31
0.0
  0
LINE
  5
152
  8
0
 10
77.2493536284512601
 20
42.6925545292904189
 30
0.0
 11
83.6993536284511208
 21
42.6925545292904189
 31
0.0
  0
LINE
  5
153
  8
0
 10
77.2059707888981421
 20
41.4794992190146772
 30
0.0
 11
83.7427364679451784
 21
41.4794992190146772
 31
0.0
  0
LINE
  5
154
  8
0
 10
77.2493536284512601
 20
38.8447498034550733
 30
0.0
 11
83.6993545821254656
 21
38.8447498034550733
 31
0.0
  0
LINE
  5
155
  8
0
 10
77.2120071088937294
 20
37.3320945733601022
 30
0.0
 11
83.7367001480324262
 21
37.3320945733601093
 31
0.0
  0
LINE
  5
156
  8
0
 10
77.2493536284512601
 20
45.8397819728815819
 30
0.0
 11
77.2493536284512601
 21
45.1890526063318134
 31
0.0
  0
LINE
  5
15C
  8
2
 10
91.0993536284512544
 20
39.3699189591828187
 30
0.0
 11
82.3993536284512231
 21
39.3699189591828613
 31
0.0
  0
LINE
  5
15D
  8
2
 10
82.3993536284512231
 20
39.3699189591828613
 30
0.0
 11
81.3993536284512373
 21
38.3699189591828613
 31
0.0
  0
LINE
  5
160
  8
0
 10
91.0993536284512544
 20
32.3699189591827974
 30
0.0
 11
91.3993536284512231
 21
32.369918959182769
 31
0.0
  0
LINE
  5
169
  8
0
 10
76.3993536284512658
 20
26.7199189591828201
 30
0.0
 11
76.3993536284512516
 21
45.0199189591828173
 31
0.0
  0
LINE
  5
16E
  8
2
 10
82.3993536284512231
 20
32.3699189591827974
 30
0.0
 11
81.3993536284512373
 21
33.3699189591827974
 31
0.0
  0
LINE
  5
16F
  8
2
 10
91.0993536284512544
 20
32.3699189591827974
 30
0.0
 11
82.3993536284512231
 21
32.3699189591827974
 31
0.0
  0
LINE
  5
170
  8
2
 10
81.3993536284512373
 20
33.3699189591827974
 30
0.0
 11
81.3993536284512658
 21
38.3699189591828826
 31
0.0
  0
LINE
  5
171
  8
0
 10
84.5493536284512714
 20
45.8699189591828471
 30
0.0
 11
84.5493536284512714
 21
25.8699189591828294
 31
0.0
  0
LINE
  5
173
  8
0
 10
76.3993536284512516
 20
45.0199189591828173
 30
0.0
 11
76.8493536284513539
 21
45.4699189591829267
 31
0.0
  0
LINE
  5
174
  8
0
 10
85.3993536284512658
 20
45.0199189591828173
 30
0.0
 11
84.5493536284512857
 21
45.8699189591828187
 31
0.0
  0
LINE
  5
177
  8
0
 10
84.549353628451243
 20
25.8699189591828116
 30
0.0
 11
85.3993536284512373
 21
26.7199189591828095
 31
0.0
  0
LINE
  5
179
  8
0
 10
91.3993536284512516
 20
39.3699189591828116
 30
0.0
 11
91.3993536284512231
 21
32.3699189591827974
 31
0.0
  0
LINE
  5
17A
  8
0
 10
91.0993536284512544
 20
39.3699189591828187
 30
0.0
 11
91.3993536284512516
 21
39.3699189591828116
 31
0.0
  0
LINE
  5
17D
  8
0
 10
85.3993536284512658
 20
45.0199189591828173
 30
0.0
 11
85.3993536284512373
 21
26.7199189591828201
 31
0.0
  0
LINE
  5
17E
  8
0
 10
84.0993536284509275
 20
45.8699189591828187
 30
0.0
 11
84.5493536284512857
 21
45.8699189591828187
 31
0.0
  0
LINE
  5
17F
  8
1
 10
93.8993536284512373
 20
35.8699189591828116
 30
0.0
 11
72.8993536284512516
 21
35.8699189591828329
 31
0.0
  0
LINE
  5
180
  8
0
 10
77.2493536284512032
 20
81.8699189591827974
 30
0.0
 11
77.249353628451189
 21
81.762443534502566
 31
0.0
  0
LINE
  5
181
  8
0
 10
77.2127119073785337
 20
71.0941409702698905
 30
0.0
 11
83.7359953494538871
 21
71.0941409702698763
 31
0.0
  0
LINE
  5
183
  8
0
 10
77.2102184243730392
 20
75.4967285856417334
 30
0.0
 11
83.7384888324442329
 21
75.4967285856417476
 31
0.0
  0
LINE
  5
184
  8
0
 10
77.2493536284512174
 20
76.8946322184708748
 30
0.0
 11
83.6993536284511066
 21
76.8946322184708322
 31
0.0
  0
LINE
  5
185
  8
0
 10
77.2493536284512032
 20
79.1809820745923929
 30
0.0
 11
83.6993536284511066
 21
79.1809820745923645
 31
0.0
  0
LINE
  5
188
  8
0
 10
77.249353628451189
 20
81.762443534502566
 30
0.0
 11
83.742838692188144
 21
81.762443534502566
 31
0.0
  0
POLYLINE
  5
189
  8
0
 66
     1
 10
0.0
 20
0.0
 30
0.0
  0
VERTEX
  5
18A
  8
0
 10
76.8493536284513254
 20
71.8699189591828258
 30
0.0
 42
0.0526515843117979
 50
90.0
  0
VERTEX
  5
18B
  8
0
 10
76.8824379382628393
 20
71.5566084076382225
 30
0.0
 42
0.0665094502244707
 50
90.0
  0
VERTEX
  5
18C
  8
0
 10
76.96651091597667
 20
71.3213610825272326
 30
0.0
 42
0.1048721553586362
 70
     2
 50
297.2761492777672743
  0
VERTEX
  5
18D
  8
0
 10
77.1214268487998709
 20
71.1317524028533512
 30
0.0
 42
0.1979393846974964
 50
297.2761492777672743
  0
VERTEX
  5
18E
  8
0
 10
77.249353628451189
 20
71.0941409702698905
 30
0.0
 42
0.1708274168693134
 50
90.0
  0
SEQEND
  5
18F
  8
0
  0
POLYLINE
  5
190
  8
0
 66
     1
 10
0.0
 20
0.0
 30
0.0
  0
VERTEX
  5
191
  8
0
 10
77.249353628451189
 20
72.6456969480957611
 30
0.0
 42
0.1708274168693328
 50
90.0
  0
VERTEX
  5
192
  8
0
 10
77.1129303081362139
 20
72.5976862116597204
 30
0.0
 42
0.1048721553586743
 50
90.0
  0
VERTEX
  5
193
  8
0
 10
76.96651091597667
 20
72.4184768358384048
 30
0.0
 42
0.06650945022448
 70
     2
 50
242.723850722232811
  0
VERTEX
  5
194
  8
0
 10
76.8824379382628393
 20
72.1832295107274149
 30
0.0
 42
0.0526515843118002
 50
242.723850722232811
  0
VERTEX
  5
195
  8
0
 10
76.8493536284513254
 20
71.8699189591828258
 30
0.0
 42
0.0526515843117979
 50
90.0
  0
SEQEND
  5
196
  8
0
  0
POLYLINE
  5
197
  8
0
 66
     1
 10
0.0
 20
0.0
 30
0.0
  0
VERTEX
  5
198
  8
0
 10
77.2493536284512032
 20
76.8946322184708464
 30
0.0
 42
0.1772227935966885
 50
90.0
  0
VERTEX
  5
199
  8
0
 10
77.1144486160965243
 20
76.8452652174018311
 30
0.0
 42
0.1037286571386471
 50
90.0
  0
VERTEX
  5
19A
  8
0
 10
76.9665109159762153
 20
76.6556193462707967
 30
0.0
 42
0.0639472387608605
 70
     2
 50
243.8872248319651987
  0
VERTEX
  5
19B
  8
0
 10
76.8825480802979371
 20
76.4089085136761241
 30
0.0
 42
0.0501200937592137
 50
243.8872248319651987
  0
VERTEX
  5
19C
  8
0
 10
76.8493536284507002
 20
76.0785912286236794
 30
0.0
 42
0.0501200937592415
 50
90.0
  0
SEQEND
  5
19D
  8
0
  0
POLYLINE
  5
19E
  8
0
 66
     1
 10
0.0
 20
0.0
 30
0.0
  0
VERTEX
  5
19F
  8
0
 10
76.8493536284513254
 20
76.0785912286236652
 30
0.0
 42
0.0694633972576087
 50
90.0
  0
VERTEX
  5
1A0
  8
0
 10
76.8816013484887435
 20
75.8475910128205157
 30
0.0
 42
0.0813899294342794
 50
90.0
  0
VERTEX
  5
1A1
  8
0
 10
76.9665109159766843
 20
75.6671522080520162
 30
0.0
 42
0.1069704061773945
 70
     2
 50
304.5064790626817057
  0
VERTEX
  5
1A2
  8
0
 10
77.1142925076684946
 20
75.5279772607259048
 30
0.0
 42
0.1587731996791126
 50
304.5064790626817057
  0
VERTEX
  5
1A3
  8
0
 10
77.2493536284512174
 20
75.4967285856417476
 30
0.0
 42
0.1364077150153963
 50
90.0
  0
SEQEND
  5
1A4
  8
0
  0
POLYLINE
  5
1A5
  8
0
 66
     1
 10
0.0
 20
0.0
 30
0.0
  0
VERTEX
  5
1A6
  8
0
 10
77.2493536284512032
 20
80.1483614037797736
 30
0.0
 42
0.1571760863902413
 50
90.0
  0
VERTEX
  5
1A7
  8
0
 10
77.1096923320929193
 20
80.1033465093637744
 30
0.0
 42
0.1065892250953939
 50
90.0
  0
VERTEX
  5
1A8
  8
0
 10
76.96651091597667
 20
79.9448952022767685
 30
0.0
 42
0.072202003131666
 70
     2
 50
240.0663562572638909
  0
VERTEX
  5
1A9
  8
0
 10
76.8821621414692515
 20
79.7326583454153024
 30
0.0
 42
0.0586001715207345
 50
240.0663562572638909
  0
VERTEX
  5
1AA
  8
0
 10
76.8493536284513254
 20
79.4536843391236829
 30
0.0
 42
0.0586001715207382
 50
90.0
  0
SEQEND
  5
1AB
  8
0
  0
POLYLINE
  5
1AC
  8
0
 66
     1
 10
0.0
 20
0.0
 30
0.0
  0
VERTEX
  5
1AD
  8
0
 10
76.8493536284513254
 20
79.4536843391236971
 30
0.0
 42
0.1373455538095163
 50
90.0
  0
VERTEX
  5
1AE
  8
0
 10
76.8769020293878782
 20
79.3552875121803822
 30
0.0
 42
0.1070192326505333
 50
90.0
  0
VERTEX
  5
1AF
  8
0
 10
76.96651091597667
 20
79.2608547186286643
 30
0.0
 42
0.0809638122059214
 70
     2
 50
325.7155684614148754
  0
VERTEX
  5
1B0
  8
0
 10
77.0904557276659546
 20
79.2029875620466299
 30
0.0
 42
0.0689152481966574
 50
325.7155684614148754
  0
VERTEX
  5
1B1
  8
0
 10
77.249353628451189
 20
79.1809820745923645
 30
0.0
 42
0.0689152481966227
 50
90.0
  0
SEQEND
  5
1B2
  8
0
  0
LINE
  5
1B3
  8
0
 10
77.249353628451189
 20
79.1809820745923645
 30
0.0
 11
77.2493536284512174
 21
76.8946322184708464
 31
0.0
  0
LINE
  5
1B4
  8
0
 10
77.2493536284512174
 20
75.4967285856417476
 30
0.0
 11
77.2493536284512174
 21
72.6456969480957468
 31
0.0
  0
POLYLINE
  5
1B5
  8
0
 66
     1
 10
0.0
 20
0.0
 30
0.0
  0
VERTEX
  5
1B6
  8
0
 10
76.8493536284539687
 20
81.3267197073477206
 30
0.0
 42
0.0233573080821943
 50
90.0
  0
VERTEX
  5
1B7
  8
0
 10
77.0141786981037058
 20
81.3344236502081657
 30
0.0
 42
0.032266348829244
 50
90.0
  0
VERTEX
  5
1B8
  8
0
 10
77.1321963409277203
 20
81.353217798418811
 30
0.0
 42
0.0694517353260834
 70
     2
 50
12.7444652443133393
  0
VERTEX
  5
1B9
  8
0
 10
77.2381368436035132
 20
81.3932288594021145
 30
0.0
 50
12.7444652443133393
  0
VERTEX
  5
1BA
  8
0
 10
77.2493536284581523
 20
81.4171898492312636
 30
0.0
 50
90.0
  0
SEQEND
  5
1BB
  8
0
  0
LINE
  5
1BC
  8
0
 10
77.249353628451189
 20
81.4171898492312636
 30
0.0
 11
77.249353628451189
 21
80.1483614037797736
 31
0.0
  0
LINE
  5
1BD
  8
0
 10
77.1174179306776182
 20
81.7379832614092265
 30
0.0
 11
77.2493536284512174
 21
81.8699189591828258
 31
0.0
  0
POLYLINE
  5
1BE
  8
0
 66
     1
 10
0.0
 20
0.0
 30
0.0
  0
VERTEX
  5
1BF
  8
0
 10
84.0993536284509844
 20
79.4536843391236971
 30
0.0
 42
-0.1373455538095163
 50
90.0
  0
VERTEX
  5
1C0
  8
0
 10
84.0718052275144458
 20
79.3552875121803822
 30
0.0
 42
-0.1070192326505333
 50
90.0
  0
VERTEX
  5
1C1
  8
0
 10
83.9821963409256398
 20
79.2608547186286643
 30
0.0
 42
-0.0809638122059214
 70
     2
 50
214.2844315385850962
  0
VERTEX
  5
1C2
  8
0
 10
83.8582515292363553
 20
79.2029875620466299
 30
0.0
 42
-0.0689152481966574
 50
90.0
  0
VERTEX
  5
1C3
  8
0
 10
83.6993536284511208
 20
79.1809820745923645
 30
0.0
 42
-0.0689152481966227
 50
90.0
  0
SEQEND
  5
1C4
  8
0
  0
POLYLINE
  5
1C5
  8
0
 66
     1
 10
0.0
 20
0.0
 30
0.0
  0
VERTEX
  5
1C6
  8
0
 10
83.6993536284511066
 20
80.1483614037797736
 30
0.0
 42
-0.1571760863902413
 50
90.0
  0
VERTEX
  5
1C7
  8
0
 10
83.8390149248093905
 20
80.1033465093637744
 30
0.0
 42
-0.1065892250953939
 50
90.0
  0
VERTEX
  5
1C8
  8
0
 10
83.9821963409256398
 20
79.9448952022767685
 30
0.0
 42
-0.072202003131666
 70
     2
 50
299.9336437427360806
  0
VERTEX
  5
1C9
  8
0
 10
84.0665451154330583
 20
79.7326583454153024
 30
0.0
 42
-0.0586001715207345
 50
90.0
  0
VERTEX
  5
1CA
  8
0
 10
84.0993536284509844
 20
79.4536843391236829
 30
0.0
 42
-0.0586001715207382
 50
90.0
  0
SEQEND
  5
1CB
  8
0
  0
POLYLINE
  5
1CC
  8
0
 66
     1
 10
0.0
 20
0.0
 30
0.0
  0
VERTEX
  5
1CD
  8
0
 10
84.0993536284509844
 20
76.0785912286236652
 30
0.0
 42
-0.0694633972576087
 50
90.0
  0
VERTEX
  5
1CE
  8
0
 10
84.0671059084135379
 20
75.8475910128205157
 30
0.0
 42
-0.0813899294342794
 50
90.0
  0
VERTEX
  5
1CF
  8
0
 10
83.9821963409256256
 20
75.6671522080520162
 30
0.0
 42
-0.1069704061773945
 70
     2
 50
235.4935209373182943
  0
VERTEX
  5
1D0
  8
0
 10
83.8344147492338152
 20
75.5279772607259048
 30
0.0
 42
-0.1587731996791126
 50
90.0
  0
VERTEX
  5
1D1
  8
0
 10
83.6993536284511066
 20
75.4967285856417476
 30
0.0
 42
-0.1364077150153963
 50
90.0
  0
SEQEND
  5
1D2
  8
0
  0
POLYLINE
  5
1D3
  8
0
 66
     1
 10
0.0
 20
0.0
 30
0.0
  0
VERTEX
  5
1D4
  8
0
 10
83.6993536284511066
 20
76.8946322184708464
 30
0.0
 42
-0.1772227935966885
 50
90.0
  0
VERTEX
  5
1D5
  8
0
 10
83.8342586408057855
 20
76.8452652174018311
 30
0.0
 42
-0.1037286571386471
 50
90.0
  0
VERTEX
  5
1D6
  8
0
 10
83.9821963409260945
 20
76.6556193462707967
 30
0.0
 42
-0.0639472387608605
 70
     2
 50
296.1127751680348865
  0
VERTEX
  5
1D7
  8
0
 10
84.0661591766043585
 20
76.4089085136761241
 30
0.0
 42
-0.0501200937592137
 50
90.0
  0
VERTEX
  5
1D8
  8
0
 10
84.0993536284515955
 20
76.0785912286236794
 30
0.0
 42
-0.0501200937592415
 50
90.0
  0
SEQEND
  5
1D9
  8
0
  0
POLYLINE
  5
1DA
  8
0
 66
     1
 10
0.0
 20
0.0
 30
0.0
  0
VERTEX
  5
1DB
  8
0
 10
83.6993536284511208
 20
72.6456969480957611
 30
0.0
 42
-0.1708274168693328
 50
90.0
  0
VERTEX
  5
1DC
  8
0
 10
83.835776948766096
 20
72.5976862116597204
 30
0.0
 42
-0.1048721553586743
 50
90.0
  0
VERTEX
  5
1DD
  8
0
 10
83.9821963409256398
 20
72.4184768358384048
 30
0.0
 42
-0.06650945022448
 70
     2
 50
297.2761492777672743
  0
VERTEX
  5
1DE
  8
0
 10
84.0662693186394705
 20
72.1832295107274149
 30
0.0
 42
-0.0526515843118002
 50
90.0
  0
VERTEX
  5
1DF
  8
0
 10
84.0993536284509844
 20
71.8699189591828258
 30
0.0
 42
-0.0526515843117979
 50
90.0
  0
SEQEND
  5
1E0
  8
0
  0
POLYLINE
  5
1E1
  8
0
 66
     1
 10
0.0
 20
0.0
 30
0.0
  0
VERTEX
  5
1E2
  8
0
 10
84.0993536284509844
 20
71.8699189591828258
 30
0.0
 42
-0.0526515843117979
 50
90.0
  0
VERTEX
  5
1E3
  8
0
 10
84.0662693186394705
 20
71.5566084076382225
 30
0.0
 42
-0.0665094502244707
 50
90.0
  0
VERTEX
  5
1E4
  8
0
 10
83.9821963409256398
 20
71.3213610825272326
 30
0.0
 42
-0.1048721553586362
 70
     2
 50
242.723850722232811
  0
VERTEX
  5
1E5
  8
0
 10
83.827280408102439
 20
71.1317524028533512
 30
0.0
 42
-0.1979393846974964
 50
90.0
  0
VERTEX
  5
1E6
  8
0
 10
83.6993536284511208
 20
71.0941409702698905
 30
0.0
 42
-0.1708274168693134
 50
90.0
  0
SEQEND
  5
1E7
  8
0
  0
POLYLINE
  5
1E8
  8
0
 66
     1
 10
0.0
 20
0.0
 30
0.0
  0
VERTEX
  5
1E9
  8
0
 10
77.2493536284510043
 20
81.762443534502566
 30
0.0
 42
0.0919145692174513
 50
90.0
  0
VERTEX
  5
1EA
  8
0
 10
77.1174179306903511
 20
81.7379832614219737
 30
0.0
 42
0.1014107822488612
 50
90.0
  0
SEQEND
  5
1EB
  8
0
  0
POLYLINE
  5
1EC
  8
0
 66
     1
 10
0.0
 20
0.0
 30
0.0
  0
VERTEX
  5
1ED
  8
0
 10
76.8840021565004292
 20
81.5045674872320376
 30
0.0
 42
0.0058104252885607
 70
     2
 50
227.4476736903058907
  0
VERTEX
  5
1EE
  8
0
 10
76.8802965304968495
 20
81.4951531202847832
 30
0.0
 42
0.0910927959066583
 50
227.4476736903058907
  0
VERTEX
  5
1EF
  8
0
 10
76.8493536284513254
 20
81.3267197073475501
 30
0.0
 42
0.0910927959066884
 50
90.0
  0
SEQEND
  5
1F0
  8
0
  0
POLYLINE
  5
1F1
  8
0
 66
     1
 10
0.0
 20
0.0
 30
0.0
  0
VERTEX
  5
1F2
  8
0
 10
77.1174179307034251
 20
81.7379832614350192
 30
0.0
 42
-0.0143082046197332
 50
90.0
  0
VERTEX
  5
1F3
  8
0
 10
77.1093090105646581
 20
81.7185465742259396
 30
0.0
 42
-0.1014107822488612
 50
90.0
  0
VERTEX
  5
1F4
  8
0
 10
77.0142576495217384
 20
81.5870762467081647
 30
0.0
 42
-0.0892529791583595
 70
     2
 50
222.5523263096970084
  0
VERTEX
  5
1F5
  8
0
 10
76.8840021565120395
 20
81.5045674872436336
 30
0.0
 42
-0.0910927959066583
 50
90.0
  0
SEQEND
  5
1F6
  8
0
  0
POLYLINE
  5
1F7
  8
0
 66
     1
 10
0.0
 20
0.0
 30
0.0
  0
VERTEX
  5
1F8
  8
0
 10
84.0993536284483412
 20
81.3267197073477206
 30
0.0
 42
-0.0233573080821943
 50
90.0
  0
VERTEX
  5
1F9
  8
0
 10
83.9345285587986041
 20
81.3344236502081657
 30
0.0
 42
-0.032266348829244
 50
90.0
  0
VERTEX
  5
1FA
  8
0
 10
83.8165109159746038
 20
81.353217798418811
 30
0.0
 42
-0.0694517353260834
 70
     2
 50
167.2555347556865968
  0
VERTEX
  5
1FB
  8
0
 10
83.7105704132987967
 20
81.3932288594021145
 30
0.0
 50
90.0
  0
VERTEX
  5
1FC
  8
0
 10
83.6993536284441433
 20
81.4171898492312636
 30
0.0
 50
90.0
  0
SEQEND
  5
1FD
  8
0
  0
POLYLINE
  5
1FE
  8
0
 66
     1
 10
0.0
 20
0.0
 30
0.0
  0
VERTEX
  5
1FF
  8
0
 10
84.0993536284509844
 20
81.3267197073475501
 30
0.0
 42
0.0910927959066242
 50
90.0
  0
VERTEX
  5
200
  8
0
 10
84.0684107264054035
 20
81.4951531202848685
 30
0.0
 42
0.0951127297056047
 50
90.0
  0
VERTEX
  5
201
  8
0
 10
83.9821963409256966
 20
81.634822980253432
 30
0.0
 42
0.1014107822489876
 70
     2
 50
132.5523263096935978
  0
VERTEX
  5
202
  8
0
 10
83.8399004147822637
 20
81.7377011102935285
 30
0.0
 42
0.1254512433711584
 50
132.5523263096935978
  0
VERTEX
  5
203
  8
0
 10
83.6993536284512913
 20
81.7624435345025802
 30
0.0
 42
0.1063626548058063
 50
90.0
  0
SEQEND
  5
204
  8
0
  0
POLYLINE
  5
205
  8
0
 66
     1
 10
0.0
 20
0.0
 30
0.0
  0
VERTEX
  5
206
  8
0
 10
84.0993536284509844
 20
62.4131182110180873
 30
0.0
 42
-0.0910927959066242
 50
90.0
  0
VERTEX
  5
207
  8
0
 10
84.0684107264054035
 20
62.2446847980807476
 30
0.0
 42
-0.0951127297056047
 50
90.0
  0
VERTEX
  5
208
  8
0
 10
83.9821963409256966
 20
62.1050149381121912
 30
0.0
 42
-0.1014107822489876
 70
     2
 50
227.4476736903064022
  0
VERTEX
  5
209
  8
0
 10
83.8399004147822637
 20
62.0021368080720876
 30
0.0
 42
-0.1254512433711584
 50
90.0
  0
VERTEX
  5
20A
  8
0
 10
83.6993536284512913
 20
61.977394383863043
 30
0.0
 42
-0.1063626548058063
 50
90.0
  0
SEQEND
  5
20B
  8
0
  0
POLYLINE
  5
20C
  8
0
 66
     1
 10
0.0
 20
0.0
 30
0.0
  0
VERTEX
  5
20D
  8
0
 10
84.0993536284483412
 20
62.4131182110179168
 30
0.0
 42
0.0233573080821943
 50
90.0
  0
VERTEX
  5
20E
  8
0
 10
83.9345285587986041
 20
62.4054142681574433
 30
0.0
 42
0.032266348829244
 50
90.0
  0
VERTEX
  5
20F
  8
0
 10
83.8165109159746038
 20
62.3866201199468335
 30
0.0
 42
0.0694517353260834
 70
     2
 50
192.7444652443132895
  0
VERTEX
  5
210
  8
0
 10
83.7105704132987967
 20
62.3466090589635087
 30
0.0
 50
90.0
  0
VERTEX
  5
211
  8
0
 10
83.6993536284441433
 20
62.3226480691343809
 30
0.0
 50
90.0
  0
SEQEND
  5
212
  8
0
  0
POLYLINE
  5
213
  8
0
 66
     1
 10
0.0
 20
0.0
 30
0.0
  0
VERTEX
  5
214
  8
0
 10
77.1174179307034251
 20
62.0018546569305897
 30
0.0
 42
0.0143082046197332
 50
90.0
  0
VERTEX
  5
215
  8
0
 10
77.1093090105646581
 20
62.0212913441396907
 30
0.0
 42
0.1014107822488612
 50
90.0
  0
VERTEX
  5
216
  8
0
 10
77.0142576495217384
 20
62.1527616716574869
 30
0.0
 42
0.0892529791583595
 70
     2
 50
137.4476736903029916
  0
VERTEX
  5
217
  8
0
 10
76.8840021565120395
 20
62.2352704311219824
 30
0.0
 42
0.0910927959066583
 50
90.0
  0
SEQEND
  5
218
  8
0
  0
POLYLINE
  5
219
  8
0
 66
     1
 10
0.0
 20
0.0
 30
0.0
  0
VERTEX
  5
21A
  8
0
 10
76.8840021565004292
 20
62.2352704311335785
 30
0.0
 42
-0.0058104252885607
 70
     2
 50
132.5523263096941093
  0
VERTEX
  5
21B
  8
0
 10
76.8802965304968495
 20
62.24468479808084
 30
0.0
 42
-0.0910927959066583
 50
90.0
  0
VERTEX
  5
21C
  8
0
 10
76.8493536284513254
 20
62.4131182110180873
 30
0.0
 42
-0.0910927959066884
 50
90.0
  0
SEQEND
  5
21D
  8
0
  0
POLYLINE
  5
21E
  8
0
 66
     1
 10
0.0
 20
0.0
 30
0.0
  0
VERTEX
  5
21F
  8
0
 10
77.2493536284510043
 20
61.9773943838630714
 30
0.0
 42
-0.0919145692174513
 50
90.0
  0
VERTEX
  5
220
  8
0
 10
77.1174179306903511
 20
62.0018546569436566
 30
0.0
 42
-0.1014107822488612
 50
90.0
  0
SEQEND
  5
221
  8
0
  0
POLYLINE
  5
222
  8
0
 66
     1
 10
0.0
 20
0.0
 30
0.0
  0
VERTEX
  5
223
  8
0
 10
83.6993536284511066
 20
66.8452056998947768
 30
0.0
 42
0.1772227935966885
 50
90.0
  0
VERTEX
  5
224
  8
0
 10
83.8342586408057855
 20
66.894572700963792
 30
0.0
 42
0.1037286571386471
 50
90.0
  0
VERTEX
  5
225
  8
0
 10
83.9821963409260945
 20
67.0842185720948265
 30
0.0
 42
0.0639472387608605
 70
     2
 50
63.8872248319651703
  0
VERTEX
  5
226
  8
0
 10
84.0661591766043585
 20
67.3309294046894848
 30
0.0
 42
0.0501200937592137
 50
90.0
  0
VERTEX
  5
227
  8
0
 10
84.0993536284515955
 20
67.6612466897419438
 30
0.0
 42
0.0501200937592415
 50
90.0
  0
SEQEND
  5
228
  8
0
  0
POLYLINE
  5
229
  8
0
 66
     1
 10
0.0
 20
0.0
 30
0.0
  0
VERTEX
  5
22A
  8
0
 10
84.0993536284509844
 20
67.661246689741958
 30
0.0
 42
0.0694633972576087
 50
90.0
  0
VERTEX
  5
22B
  8
0
 10
84.0671059084135379
 20
67.8922469055451074
 30
0.0
 42
0.0813899294342794
 50
90.0
  0
VERTEX
  5
22C
  8
0
 10
83.9821963409256256
 20
68.0726857103136069
 30
0.0
 42
0.1069704061773945
 70
     2
 50
124.5064790626817057
  0
VERTEX
  5
22D
  8
0
 10
83.8344147492338152
 20
68.2118606576397184
 30
0.0
 42
0.1587731996791126
 50
90.0
  0
VERTEX
  5
22E
  8
0
 10
83.6993536284511066
 20
68.2431093327238756
 30
0.0
 42
0.1364077150153963
 50
90.0
  0
SEQEND
  5
22F
  8
0
  0
POLYLINE
  5
230
  8
0
 66
     1
 10
0.0
 20
0.0
 30
0.0
  0
VERTEX
  5
231
  8
0
 10
83.6993536284511066
 20
63.5914765145858425
 30
0.0
 42
0.1571760863902413
 50
90.0
  0
VERTEX
  5
232
  8
0
 10
83.8390149248093905
 20
63.6364914090018488
 30
0.0
 42
0.1065892250953939
 50
90.0
  0
VERTEX
  5
233
  8
0
 10
83.9821963409256398
 20
63.7949427160888476
 30
0.0
 42
0.072202003131666
 70
     2
 50
60.0663562572639265
  0
VERTEX
  5
234
  8
0
 10
84.0665451154330583
 20
64.0071795729503208
 30
0.0
 42
0.0586001715207345
 50
90.0
  0
VERTEX
  5
235
  8
0
 10
84.0993536284509844
 20
64.2861535792419403
 30
0.0
 42
0.0586001715207382
 50
90.0
  0
SEQEND
  5
236
  8
0
  0
POLYLINE
  5
237
  8
0
 66
     1
 10
0.0
 20
0.0
 30
0.0
  0
VERTEX
  5
238
  8
0
 10
84.0993536284509844
 20
64.2861535792419261
 30
0.0
 42
0.1373455538095163
 50
90.0
  0
VERTEX
  5
239
  8
0
 10
84.0718052275144458
 20
64.3845504061852409
 30
0.0
 42
0.1070192326505333
 50
90.0
  0
VERTEX
  5
23A
  8
0
 10
83.9821963409256398
 20
64.4789831997369447
 30
0.0
 42
0.0809638122059214
 70
     2
 50
145.7155684614149038
  0
VERTEX
  5
23B
  8
0
 10
83.8582515292363553
 20
64.5368503563189932
 30
0.0
 42
0.0689152481966574
 50
90.0
  0
VERTEX
  5
23C
  8
0
 10
83.6993536284511208
 20
64.5588558437732587
 30
0.0
 42
0.0689152481966227
 50
90.0
  0
SEQEND
  5
23D
  8
0
  0
LINE
  5
23E
  8
0
 10
77.1174179306776182
 20
62.0018546569563895
 30
0.0
 11
77.2493536284512174
 21
61.8699189591827903
 31
0.0
  0
LINE
  5
23F
  8
0
 10
77.249353628451189
 20
62.3226480691343809
 30
0.0
 11
77.249353628451189
 21
63.5914765145858425
 31
0.0
  0
POLYLINE
  5
240
  8
0
 66
     1
 10
0.0
 20
0.0
 30
0.0
  0
VERTEX
  5
241
  8
0
 10
76.8493536284539687
 20
62.4131182110179168
 30
0.0
 42
-0.0233573080821943
 50
90.0
  0
VERTEX
  5
242
  8
0
 10
77.0141786981037058
 20
62.4054142681574433
 30
0.0
 42
-0.032266348829244
 50
90.0
  0
VERTEX
  5
243
  8
0
 10
77.1321963409277203
 20
62.3866201199468335
 30
0.0
 42
-0.0694517353260834
 70
     2
 50
347.2555347556867105
  0
VERTEX
  5
244
  8
0
 10
77.2381368436035132
 20
62.3466090589635087
 30
0.0
 50
90.0
  0
VERTEX
  5
245
  8
0
 10
77.2493536284581523
 20
62.3226480691343809
 30
0.0
 50
90.0
  0
SEQEND
  5
246
  8
0
  0
LINE
  5
247
  8
0
 10
77.2493536284512174
 20
68.2431093327238756
 30
0.0
 11
77.2493536284512174
 21
71.0941409702698763
 31
0.0
  0
LINE
  5
248
  8
0
 10
77.249353628451189
 20
64.5588558437732587
 30
0.0
 11
77.2493536284512174
 21
66.8452056998947768
 31
0.0
  0
POLYLINE
  5
249
  8
0
 66
     1
 10
0.0
 20
0.0
 30
0.0
  0
VERTEX
  5
24A
  8
0
 10
76.8493536284513254
 20
64.2861535792419261
 30
0.0
 42
-0.1373455538095163
 50
90.0
  0
VERTEX
  5
24B
  8
0
 10
76.8769020293878782
 20
64.3845504061852409
 30
0.0
 42
-0.1070192326505333
 50
90.0
  0
VERTEX
  5
24C
  8
0
 10
76.96651091597667
 20
64.4789831997369447
 30
0.0
 42
-0.0809638122059214
 70
     2
 50
34.2844315385851388
  0
VERTEX
  5
24D
  8
0
 10
77.0904557276659546
 20
64.5368503563189932
 30
0.0
 42
-0.0689152481966574
 50
90.0
  0
VERTEX
  5
24E
  8
0
 10
77.249353628451189
 20
64.5588558437732587
 30
0.0
 42
-0.0689152481966227
 50
90.0
  0
SEQEND
  5
24F
  8
0
  0
POLYLINE
  5
250
  8
0
 66
     1
 10
0.0
 20
0.0
 30
0.0
  0
VERTEX
  5
251
  8
0
 10
77.2493536284512032
 20
63.5914765145858425
 30
0.0
 42
-0.1571760863902413
 50
90.0
  0
VERTEX
  5
252
  8
0
 10
77.1096923320929193
 20
63.6364914090018488
 30
0.0
 42
-0.1065892250953939
 50
90.0
  0
VERTEX
  5
253
  8
0
 10
76.96651091597667
 20
63.7949427160888476
 30
0.0
 42
-0.072202003131666
 70
     2
 50
119.9336437427360949
  0
VERTEX
  5
254
  8
0
 10
76.8821621414692515
 20
64.0071795729503208
 30
0.0
 42
-0.0586001715207345
 50
90.0
  0
VERTEX
  5
255
  8
0
 10
76.8493536284513254
 20
64.2861535792419403
 30
0.0
 42
-0.0586001715207382
 50
90.0
  0
SEQEND
  5
256
  8
0
  0
POLYLINE
  5
257
  8
0
 66
     1
 10
0.0
 20
0.0
 30
0.0
  0
VERTEX
  5
258
  8
0
 10
76.8493536284513254
 20
67.661246689741958
 30
0.0
 42
-0.0694633972576087
 50
90.0
  0
VERTEX
  5
259
  8
0
 10
76.8816013484887435
 20
67.8922469055451074
 30
0.0
 42
-0.0813899294342794
 50
90.0
  0
VERTEX
  5
25A
  8
0
 10
76.9665109159766843
 20
68.0726857103136069
 30
0.0
 42
-0.1069704061773945
 70
     2
 50
55.4935209373183369
  0
VERTEX
  5
25B
  8
0
 10
77.1142925076684946
 20
68.2118606576397184
 30
0.0
 42
-0.1587731996791126
 50
90.0
  0
VERTEX
  5
25C
  8
0
 10
77.2493536284512174
 20
68.2431093327238756
 30
0.0
 42
-0.1364077150153963
 50
90.0
  0
SEQEND
  5
25D
  8
0
  0
POLYLINE
  5
25E
  8
0
 66
     1
 10
0.0
 20
0.0
 30
0.0
  0
VERTEX
  5
25F
  8
0
 10
77.2493536284512032
 20
66.8452056998947768
 30
0.0
 42
-0.1772227935966885
 50
90.0
  0
VERTEX
  5
260
  8
0
 10
77.1144486160965243
 20
66.894572700963792
 30
0.0
 42
-0.1037286571386471
 50
90.0
  0
VERTEX
  5
261
  8
0
 10
76.9665109159762153
 20
67.0842185720948265
 30
0.0
 42
-0.0639472387608605
 70
     2
 50
116.1127751680348013
  0
VERTEX
  5
262
  8
0
 10
76.8825480802979371
 20
67.3309294046894848
 30
0.0
 42
-0.0501200937592137
 50
90.0
  0
VERTEX
  5
263
  8
0
 10
76.8493536284507002
 20
67.6612466897419438
 30
0.0
 42
-0.0501200937592415
 50
90.0
  0
SEQEND
  5
264
  8
0
  0
LINE
  5
265
  8
0
 10
77.2493536284511748
 20
61.9773943838630714
 30
0.0
 11
83.742838692188144
 21
61.9773943838630714
 31
0.0
  0
LINE
  5
267
  8
0
 10
77.249353628451189
 20
63.5914765145858425
 30
0.0
 11
83.6993547964588345
 21
63.5914765145858425
 31
0.0
  0
LINE
  5
268
  8
0
 10
77.249353628451189
 20
64.5588558437732729
 30
0.0
 11
83.6993536284511066
 21
64.5588558437732587
 31
0.0
  0
LINE
  5
26B
  8
0
 10
77.2493536284512032
 20
61.8699189591828187
 30
0.0
 11
77.249353628451189
 21
61.9773943838630714
 31
0.0
  0
LINE
  5
26C
  8
0
 10
76.3993536284512231
 20
62.7199189591827917
 30
0.0
 11
76.8840021564972744
 21
62.2352704311367404
 31
0.0
  0
LINE
  5
26D
  8
0
 10
77.2493536284512032
 20
61.8699189591828116
 30
0.0
 11
84.549353628451243
 21
61.8699189591828187
 31
0.0
  0
LINE
  5
26E
  8
0
 10
84.099353628450956
 20
117.8699189591827974
 30
0.0
 11
84.5493536284512999
 21
117.8699189591827974
 31
0.0
  0
LINE
  5
26F
  8
0
 10
85.3993536284512942
 20
117.0199189591828031
 30
0.0
 11
85.3993536284512658
 21
98.7199189591828343
 31
0.0
  0
LINE
  5
272
  8
0
 10
91.0993536284512544
 20
111.3699189591827974
 30
0.0
 11
91.3993536284512658
 21
111.3699189591827974
 31
0.0
  0
LINE
  5
273
  8
0
 10
91.3993536284512658
 20
111.3699189591827974
 30
0.0
 11
91.3993536284512373
 21
104.3699189591827974
 31
0.0
  0
LINE
  5
275
  8
0
 10
84.549353628451243
 20
97.8699189591827974
 30
0.0
 11
85.3993536284512658
 21
98.7199189591827917
 31
0.0
  0
LINE
  5
278
  8
0
 10
85.3993536284512942
 20
117.0199189591828031
 30
0.0
 11
84.5493536284512999
 21
117.8699189591827974
 31
0.0
  0
LINE
  5
279
  8
0
 10
76.3993536284512658
 20
117.0199189591828031
 30
0.0
 11
76.8493536284513681
 21
117.4699189591829054
 31
0.0
  0
LINE
  5
27B
  8
0
 10
84.5493536284512857
 20
117.8699189591827974
 30
0.0
 11
84.5493536284512857
 21
97.86991895918284
 31
0.0
  0
LINE
  5
27C
  8
2
 10
81.3993536284512516
 20
105.3699189591827974
 30
0.0
 11
81.3993536284512658
 21
110.3699189591828969
 31
0.0
  0
LINE
  5
27D
  8
2
 10
91.0993536284512544
 20
104.3699189591827974
 30
0.0
 11
82.3993536284512516
 21
104.3699189591827974
 31
0.0
  0
LINE
  5
27E
  8
2
 10
82.3993536284512516
 20
104.3699189591827974
 30
0.0
 11
81.3993536284512516
 21
105.3699189591827974
 31
0.0
  0
LINE
  5
283
  8
0
 10
76.39935362845128
 20
98.7199189591828343
 30
0.0
 11
76.3993536284512658
 21
117.0199189591828031
 31
0.0
  0
LINE
  5
28C
  8
0
 10
91.0993536284512544
 20
104.3699189591826979
 30
0.0
 11
91.3993536284512373
 21
104.3699189591826979
 31
0.0
  0
LINE
  5
28F
  8
2
 10
82.3993536284512516
 20
111.3699189591827974
 30
0.0
 11
81.3993536284512516
 21
110.3699189591827974
 31
0.0
  0
LINE
  5
290
  8
2
 10
91.0993536284512544
 20
111.3699189591827974
 30
0.0
 11
82.3993536284512516
 21
111.3699189591827974
 31
0.0
  0
LINE
  5
296
  8
0
 10
77.2493536284512743
 20
117.8397819728814966
 30
0.0
 11
77.2493536284512743
 21
117.1890526063317992
 31
0.0
  0
LINE
  5
297
  8
0
 10
77.2120071088937721
 20
109.3320945733600951
 30
0.0
 11
83.7367001480324262
 21
109.3320945733600951
 31
0.0
  0
LINE
  5
298
  8
0
 10
77.2493536284512601
 20
110.8447498034550023
 30
0.0
 11
83.6993545821254799
 21
110.8447498034550023
 31
0.0
  0
LINE
  5
299
  8
0
 10
77.2059707888978011
 20
113.4794992190146985
 30
0.0
 11
83.7427364679452069
 21
113.4794992190146985
 31
0.0
  0
LINE
  5
29A
  8
0
 10
77.2493536284512743
 20
114.6925545292904047
 30
0.0
 11
83.699353628451135
 21
114.6925545292904047
 31
0.0
  0
LINE
  5
29B
  8
0
 10
77.1833226669442354
 20
116.5158576972225006
 30
0.0
 11
83.7653845900011333
 21
116.5158576972225006
 31
0.0
  0
LINE
  5
29C
  8
0
 10
77.2493536284512743
 20
117.1890526063317992
 30
0.0
 11
83.6993543028007139
 21
117.1890526063317992
 31
0.0
  0
LINE
  5
29D
  8
0
 10
77.2493536284512601
 20
117.8397819728814966
 30
0.0
 11
83.6993533491277191
 21
117.8397819728814966
 31
0.0
  0
POLYLINE
  5
29E
  8
0
 66
     1
 10
0.0
 20
0.0
 30
0.0
  0
VERTEX
  5
29F
  8
0
 10
76.8493536284513681
 20
110.0283720185592955
 30
0.0
 42
0.0584700367089559
 50
89.9999999999999858
  0
VERTEX
  5
2A0
  8
0
 10
76.8821684220382764
 20
109.7487193108669032
 30
0.0
 42
0.0720824478963223
 50
89.9999999999999858
  0
VERTEX
  5
2A1
  8
0
 10
76.9665109159767411
 20
109.5360295154716965
 30
0.0
 42
0.1065647653260566
 70
     2
 50
299.8766627056378979
  0
VERTEX
  5
2A2
  8
0
 10
77.1185896872943601
 20
109.3673787366878969
 30
0.0
 42
0.182558189136383
 50
299.8766627056378979
  0
VERTEX
  5
2A3
  8
0
 10
77.2493536284512885
 20
109.3320945733600951
 30
0.0
 42
0.1574556497505599
 50
89.9999999999999858
  0
SEQEND
  5
2A4
  8
0
  0
POLYLINE
  5
2A5
  8
0
 66
     1
 10
0.0
 20
0.0
 30
0.0
  0
VERTEX
  5
2A6
  8
0
 10
77.2493536284512459
 20
110.8447498034550023
 30
0.0
 42
0.1772752497286819
 50
89.9999999999999858
  0
VERTEX
  5
2A7
  8
0
 10
77.1144610671743322
 20
110.7953717999546939
 30
0.0
 42
0.1037184546977616
 50
89.9999999999999858
  0
VERTEX
  5
2A8
  8
0
 10
76.9665109159766985
 20
110.6056382862690981
 30
0.0
 42
0.0639265016304787
 70
     2
 50
243.8965673580522093
  0
VERTEX
  5
2A9
  8
0
 10
76.8825489396743649
 20
110.3588314612679966
 30
0.0
 42
0.0500999315019023
 50
243.8965673580522093
  0
VERTEX
  5
2AA
  8
0
 10
76.8493536284513681
 20
110.0283720185592955
 30
0.0
 42
0.0500999315019139
 50
89.9999999999999858
  0
SEQEND
  5
2AB
  8
0
  0
POLYLINE
  5
2AC
  8
0
 66
     1
 10
0.0
 20
0.0
 30
0.0
  0
VERTEX
  5
2AD
  8
0
 10
76.8493536284513681
 20
113.9177700372133017
 30
0.0
 42
0.0906057889765221
 50
89.9999999999999858
  0
VERTEX
  5
2AE
  8
0
 10
76.8803283090754661
 20
113.7482422556589938
 30
0.0
 42
0.0948678514357048
 50
89.9999999999999858
  0
VERTEX
  5
2AF
  8
0
 10
76.9665109159767127
 20
113.6078657696689049
 30
0.0
 42
0.1015910306527909
 70
     2
 50
312.3860061222721924
  0
VERTEX
  5
2B0
  8
0
 10
77.1088980318702255
 20
113.504368679013794
 30
0.0
 42
0.1260613613634058
 50
312.3860061222721924
  0
VERTEX
  5
2B1
  8
0
 10
77.2493536284512743
 20
113.4794992190163043
 30
0.0
 42
0.106916177055327
 50
89.9999999999999858
  0
SEQEND
  5
2B2
  8
0
  0
POLYLINE
  5
2B3
  8
0
 66
     1
 10
0.0
 20
0.0
 30
0.0
  0
VERTEX
  5
2B4
  8
0
 10
77.2493536284512743
 20
114.6925545292904047
 30
0.0
 42
0.1706664605526735
 50
89.9999999999999858
  0
VERTEX
  5
2B5
  8
0
 10
77.1128920942602747
 20
114.6445783099090932
 30
0.0
 42
0.10489829538605
 50
89.9999999999999858
  0
VERTEX
  5
2B6
  8
0
 10
76.9665109159781338
 20
114.4656254055192051
 30
0.0
 42
0.066574804167348
 70
     2
 50
242.6939329161322121
  0
VERTEX
  5
2B7
  8
0
 10
76.8824350229688349
 20
114.2306606302420988
 30
0.0
 42
0.0527172412625307
 50
242.6939329161322121
  0
VERTEX
  5
2B8
  8
0
 10
76.8493536284534002
 20
113.9177700372133017
 30
0.0
 42
0.0527172412625443
 50
89.9999999999999858
  0
SEQEND
  5
2B9
  8
0
  0
POLYLINE
  5
2BA
  8
0
 66
     1
 10
0.0
 20
0.0
 30
0.0
  0
VERTEX
  5
2BB
  8
0
 10
76.8493536284513539
 20
116.6093169778373948
 30
0.0
 50
89.9999999999999858
  0
VERTEX
  5
2BC
  8
0
 10
76.8648045833849238
 20
116.5828618846666984
 30
0.0
 42
0.0711335724020575
 50
89.9999999999999858
  0
VERTEX
  5
2BD
  8
0
 10
76.9665109159767127
 20
116.5432312867498013
 30
0.0
 42
0.033274958700216
 70
     2
 50
346.8488697635979179
  0
VERTEX
  5
2BE
  8
0
 10
77.1022655238066648
 20
116.5209044891505954
 30
0.0
 42
0.0311009623782723
 50
346.8488697635979179
  0
VERTEX
  5
2BF
  8
0
 10
77.2493536284512743
 20
116.5158576972225006
 30
0.0
 42
0.02412462334816
 50
89.9999999999999858
  0
SEQEND
  5
2C0
  8
0
  0
POLYLINE
  5
2C1
  8
0
 66
     1
 10
0.0
 20
0.0
 30
0.0
  0
VERTEX
  5
2C2
  8
0
 10
77.2493536284512743
 20
117.1890526063317992
 30
0.0
 42
0.1359958379716637
 50
89.9999999999999858
  0
VERTEX
  5
2C3
  8
0
 10
77.1047103011378283
 20
117.1489694934420953
 30
0.0
 42
0.1069468256299952
 50
89.9999999999999858
  0
VERTEX
  5
2C4
  8
0
 10
76.9665109159767127
 20
117.0192519720413031
 30
0.0
 42
0.0815773277484804
 70
     2
 50
235.3955017624093102
  0
VERTEX
  5
2C5
  8
0
 10
76.8815880321375857
 20
116.8394100509065936
 30
0.0
 42
0.069706093800654
 50
235.3955017624093102
  0
VERTEX
  5
2C6
  8
0
 10
76.8493536284513539
 20
116.6093169778373948
 30
0.0
 42
0.0697060938006716
 50
89.9999999999999858
  0
SEQEND
  5
2C7
  8
0
  0
POLYLINE
  5
2C8
  8
0
 66
     1
 10
0.0
 20
0.0
 30
0.0
  0
VERTEX
  5
2C9
  8
0
 10
76.8493536284513681
 20
117.4699189591829054
 30
0.0
 42
0.0916984344567795
 50
89.9999999999999858
  0
VERTEX
  5
2CA
  8
0
 10
77.0038526744349241
 20
117.4984938755908956
 30
0.0
 42
0.0954133203087169
 50
89.9999999999999858
  0
VERTEX
  5
2CB
  8
0
 10
77.1321963409259155
 20
117.5782493277851017
 30
0.0
 42
0.1011842983975874
 70
     2
 50
42.7582493368085821
  0
VERTEX
  5
2CC
  8
0
 10
77.226620375576104
 20
117.7097210224553976
 30
0.0
 42
0.1246996945258645
 50
42.7582493368085821
  0
VERTEX
  5
2CD
  8
0
 10
77.2493536284422362
 20
117.8397819728814966
 30
0.0
 42
0.1056807497133024
 50
89.9999999999999858
  0
SEQEND
  5
2CE
  8
0
  0
LINE
  5
2CF
  8
0
 10
77.2493536284512743
 20
113.479499219014599
 30
0.0
 11
77.2493536284512743
 21
110.8447498034550023
 31
0.0
  0
LINE
  5
2D0
  8
0
 10
77.2493536284512743
 20
116.5158576972225006
 30
0.0
 11
77.2493536284512743
 21
114.6925545292904047
 31
0.0
  0
POLYLINE
  5
2D1
  8
0
 66
     1
 10
0.0
 20
0.0
 30
0.0
  0
VERTEX
  5
2D2
  8
0
 10
83.699353628451135
 20
117.1890526063317992
 30
0.0
 42
-0.1359958379716637
 50
89.9999999999999858
  0
VERTEX
  5
2D3
  8
0
 10
83.843996955764581
 20
117.1489694934420953
 30
0.0
 42
-0.1069468256299952
 50
89.9999999999999858
  0
VERTEX
  5
2D4
  8
0
 10
83.9821963409256966
 20
117.0192519720413031
 30
0.0
 42
-0.0815773277484804
 70
     2
 50
304.6044982375906898
  0
VERTEX
  5
2D5
  8
0
 10
84.0671192247648236
 20
116.8394100509065936
 30
0.0
 42
-0.069706093800654
 50
89.9999999999999858
  0
VERTEX
  5
2D6
  8
0
 10
84.0993536284510554
 20
116.6093169778373948
 30
0.0
 42
-0.0697060938006716
 50
89.9999999999999858
  0
SEQEND
  5
2D7
  8
0
  0
POLYLINE
  5
2D8
  8
0
 66
     1
 10
0.0
 20
0.0
 30
0.0
  0
VERTEX
  5
2D9
  8
0
 10
84.0993536284510554
 20
116.6093169778373948
 30
0.0
 50
89.9999999999999858
  0
VERTEX
  5
2DA
  8
0
 10
84.0839026735174571
 20
116.5828618846666984
 30
0.0
 42
-0.0711335724020575
 50
89.9999999999999858
  0
VERTEX
  5
2DB
  8
0
 10
83.9821963409256966
 20
116.5432312867498013
 30
0.0
 42
-0.033274958700216
 70
     2
 50
193.1511302364021105
  0
VERTEX
  5
2DC
  8
0
 10
83.8464417330957446
 20
116.5209044891505954
 30
0.0
 42
-0.0311009623782723
 50
89.9999999999999858
  0
VERTEX
  5
2DD
  8
0
 10
83.699353628451135
 20
116.5158576972225006
 30
0.0
 42
-0.02412462334816
 50
89.9999999999999858
  0
SEQEND
  5
2DE
  8
0
  0
POLYLINE
  5
2DF
  8
0
 66
     1
 10
0.0
 20
0.0
 30
0.0
  0
VERTEX
  5
2E0
  8
0
 10
83.699353628451135
 20
114.6925545292904047
 30
0.0
 42
-0.1706664605526735
 50
89.9999999999999858
  0
VERTEX
  5
2E1
  8
0
 10
83.8358151626421346
 20
114.6445783099090932
 30
0.0
 42
-0.10489829538605
 50
89.9999999999999858
  0
VERTEX
  5
2E2
  8
0
 10
83.9821963409242471
 20
114.4656254055192051
 30
0.0
 42
-0.066574804167348
 70
     2
 50
297.3060670838679016
  0
VERTEX
  5
2E3
  8
0
 10
84.0662722339335744
 20
114.2306606302420988
 30
0.0
 42
-0.0527172412625307
 50
89.9999999999999858
  0
VERTEX
  5
2E4
  8
0
 10
84.0993536284490091
 20
113.9177700372133017
 30
0.0
 42
-0.0527172412625443
 50
89.9999999999999858
  0
SEQEND
  5
2E5
  8
0
  0
POLYLINE
  5
2E6
  8
0
 66
     1
 10
0.0
 20
0.0
 30
0.0
  0
VERTEX
  5
2E7
  8
0
 10
84.0993536284510412
 20
113.9177700372133017
 30
0.0
 42
-0.0906057889765221
 50
89.9999999999999858
  0
VERTEX
  5
2E8
  8
0
 10
84.0683789478269432
 20
113.7482422556589938
 30
0.0
 42
-0.0948678514357048
 50
89.9999999999999858
  0
VERTEX
  5
2E9
  8
0
 10
83.9821963409256682
 20
113.6078657696689049
 30
0.0
 42
-0.1015910306527909
 70
     2
 50
227.6139938777278928
  0
VERTEX
  5
2EA
  8
0
 10
83.8398092250321838
 20
113.504368679013794
 30
0.0
 42
-0.1260613613634058
 50
89.9999999999999858
  0
VERTEX
  5
2EB
  8
0
 10
83.699353628451135
 20
113.4794992190163043
 30
0.0
 42
-0.106916177055327
 50
89.9999999999999858
  0
SEQEND
  5
2EC
  8
0
  0
POLYLINE
  5
2ED
  8
0
 66
     1
 10
0.0
 20
0.0
 30
0.0
  0
VERTEX
  5
2EE
  8
0
 10
83.6993536284511634
 20
110.8447498034550023
 30
0.0
 42
-0.1772752497286819
 50
89.9999999999999858
  0
VERTEX
  5
2EF
  8
0
 10
83.8342461897280629
 20
110.7953717999546939
 30
0.0
 42
-0.1037184546977616
 50
89.9999999999999858
  0
VERTEX
  5
2F0
  8
0
 10
83.9821963409256966
 20
110.6056382862690981
 30
0.0
 42
-0.0639265016304787
 70
     2
 50
296.103432641947677
  0
VERTEX
  5
2F1
  8
0
 10
84.0661583172280444
 20
110.3588314612679966
 30
0.0
 42
-0.0500999315019023
 50
89.9999999999999858
  0
VERTEX
  5
2F2
  8
0
 10
84.099353628451027
 20
110.0283720185592955
 30
0.0
 42
-0.0500999315019139
 50
89.9999999999999858
  0
SEQEND
  5
2F3
  8
0
  0
POLYLINE
  5
2F4
  8
0
 66
     1
 10
0.0
 20
0.0
 30
0.0
  0
VERTEX
  5
2F5
  8
0
 10
84.099353628451027
 20
110.0283720185592955
 30
0.0
 42
-0.0584700367089559
 50
89.9999999999999858
  0
VERTEX
  5
2F6
  8
0
 10
84.0665388348641045
 20
109.7487193108669032
 30
0.0
 42
-0.0720824478963223
 50
89.9999999999999858
  0
VERTEX
  5
2F7
  8
0
 10
83.9821963409256682
 20
109.5360295154716965
 30
0.0
 42
-0.1065647653260566
 70
     2
 50
240.1233372943621021
  0
VERTEX
  5
2F8
  8
0
 10
83.830117569608035
 20
109.3673787366878969
 30
0.0
 42
-0.182558189136383
 50
89.9999999999999858
  0
VERTEX
  5
2F9
  8
0
 10
83.6993536284511066
 20
109.3320945733600951
 30
0.0
 42
-0.1574556497505599
 50
89.9999999999999858
  0
SEQEND
  5
2FA
  8
0
  0
POLYLINE
  5
2FB
  8
0
 66
     1
 10
0.0
 20
0.0
 30
0.0
  0
VERTEX
  5
2FC
  8
0
 10
83.6993543028007139
 20
117.8397819728814966
 30
0.0
 42
0.0077996076981731
 50
89.9999999999999858
  0
VERTEX
  5
2FD
  8
0
 10
83.8649422736566947
 20
117.8423651724520056
 30
0.0
 42
0.0110011230913692
 50
89.9999999999999858
  0
VERTEX
  5
2FE
  8
0
 10
83.9821965384381173
 20
117.8486088918046022
 30
0.0
 42
0.0261873620692712
 70
     2
 50
4.3086721530160412
  0
VERTEX
  5
2FF
  8
0
 10
84.0954138643138975
 20
117.8631301149184054
 30
0.0
 50
4.3086721530160412
  0
VERTEX
  5
300
  8
0
 10
84.099353628450956
 20
117.8699189591827974
 30
0.0
 50
89.9999999999999858
  0
SEQEND
  5
301
  8
0
  0
POLYLINE
  5
302
  8
0
 66
     1
 10
0.0
 20
0.0
 30
0.0
  0
VERTEX
  5
303
  8
0
 10
83.6993543028007139
 20
97.9000559454840698
 30
0.0
 42
-0.0077996076981731
 50
89.9999999999999858
  0
VERTEX
  5
304
  8
0
 10
83.8649422736566805
 20
97.8974727459136318
 30
0.0
 42
-0.0110011230913692
 50
89.9999999999999858
  0
VERTEX
  5
305
  8
0
 10
83.9821965384381031
 20
97.8912290265610352
 30
0.0
 42
-0.0261873620692712
 70
     2
 50
355.6913278469841089
  0
VERTEX
  5
306
  8
0
 10
84.0954138643138975
 20
97.8767078034471467
 30
0.0
 50
89.9999999999999858
  0
VERTEX
  5
307
  8
0
 10
84.099353628450956
 20
97.86991895918284
 30
0.0
 50
89.9999999999999858
  0
SEQEND
  5
308
  8
0
  0
POLYLINE
  5
309
  8
0
 66
     1
 10
0.0
 20
0.0
 30
0.0
  0
VERTEX
  5
30A
  8
0
 10
84.099353628451027
 20
105.7114658998062993
 30
0.0
 42
0.0584700367089559
 50
89.9999999999999858
  0
VERTEX
  5
30B
  8
0
 10
84.0665388348641045
 20
105.9911186074987057
 30
0.0
 42
0.0720824478963223
 50
89.9999999999999858
  0
VERTEX
  5
30C
  8
0
 10
83.9821963409256682
 20
106.2038084028938982
 30
0.0
 42
0.1065647653260566
 70
     2
 50
119.8766627056378979
  0
VERTEX
  5
30D
  8
0
 10
83.830117569608035
 20
106.3724591816776979
 30
0.0
 42
0.182558189136383
 50
89.9999999999999858
  0
VERTEX
  5
30E
  8
0
 10
83.6993536284511066
 20
106.4077433450054997
 30
0.0
 42
0.1574556497505599
 50
89.9999999999999858
  0
SEQEND
  5
30F
  8
0
  0
POLYLINE
  5
310
  8
0
 66
     1
 10
0.0
 20
0.0
 30
0.0
  0
VERTEX
  5
311
  8
0
 10
83.6993536284511634
 20
104.895088114910493
 30
0.0
 42
0.1772752497286819
 50
89.9999999999999858
  0
VERTEX
  5
312
  8
0
 10
83.8342461897280629
 20
104.9444661184109009
 30
0.0
 42
0.1037184546977616
 50
89.9999999999999858
  0
VERTEX
  5
313
  8
0
 10
83.9821963409256966
 20
105.1341996320963972
 30
0.0
 42
0.0639265016304787
 70
     2
 50
63.8965673580522591
  0
VERTEX
  5
314
  8
0
 10
84.0661583172280444
 20
105.3810064570975982
 30
0.0
 42
0.0500999315019023
 50
89.9999999999999858
  0
VERTEX
  5
315
  8
0
 10
84.099353628451027
 20
105.7114658998062993
 30
0.0
 42
0.0500999315019139
 50
89.9999999999999858
  0
SEQEND
  5
316
  8
0
  0
POLYLINE
  5
317
  8
0
 66
     1
 10
0.0
 20
0.0
 30
0.0
  0
VERTEX
  5
318
  8
0
 10
84.0993536284510412
 20
101.822067881152293
 30
0.0
 42
0.0906057889765221
 50
89.9999999999999858
  0
VERTEX
  5
319
  8
0
 10
84.0683789478269432
 20
101.9915956627066009
 30
0.0
 42
0.0948678514357048
 50
89.9999999999999858
  0
VERTEX
  5
31A
  8
0
 10
83.9821963409256682
 20
102.131972148696704
 30
0.0
 42
0.1015910306527909
 70
     2
 50
132.3860061222721072
  0
VERTEX
  5
31B
  8
0
 10
83.8398092250321838
 20
102.2354692393518008
 30
0.0
 42
0.1260613613634058
 50
89.9999999999999858
  0
VERTEX
  5
31C
  8
0
 10
83.699353628451135
 20
102.2603386993493046
 30
0.0
 42
0.106916177055327
 50
89.9999999999999858
  0
SEQEND
  5
31D
  8
0
  0
POLYLINE
  5
31E
  8
0
 66
     1
 10
0.0
 20
0.0
 30
0.0
  0
VERTEX
  5
31F
  8
0
 10
83.699353628451135
 20
101.0472833890752042
 30
0.0
 42
0.1706664605526735
 50
89.9999999999999858
  0
VERTEX
  5
320
  8
0
 10
83.8358151626421346
 20
101.0952596084564021
 30
0.0
 42
0.10489829538605
 50
89.9999999999999858
  0
VERTEX
  5
321
  8
0
 10
83.9821963409242471
 20
101.2742125128464039
 30
0.0
 42
0.066574804167348
 70
     2
 50
62.693932916132141
  0
VERTEX
  5
322
  8
0
 10
84.0662722339335744
 20
101.5091772881234959
 30
0.0
 42
0.0527172412625307
 50
89.9999999999999858
  0
VERTEX
  5
323
  8
0
 10
84.0993536284490091
 20
101.822067881152293
 30
0.0
 42
0.0527172412625443
 50
89.9999999999999858
  0
SEQEND
  5
324
  8
0
  0
POLYLINE
  5
325
  8
0
 66
     1
 10
0.0
 20
0.0
 30
0.0
  0
VERTEX
  5
326
  8
0
 10
84.0993536284510412
 20
99.1305209405282142
 30
0.0
 50
89.9999999999999858
  0
VERTEX
  5
327
  8
0
 10
84.0839026735174571
 20
99.1569760336988963
 30
0.0
 42
0.0711335724020575
 50
89.9999999999999858
  0
VERTEX
  5
328
  8
0
 10
83.9821963409256682
 20
99.1966066316158646
 30
0.0
 42
0.033274958700216
 70
     2
 50
166.8488697635978895
  0
VERTEX
  5
329
  8
0
 10
83.8464417330957161
 20
99.2189334292149852
 30
0.0
 42
0.0311009623782723
 50
89.9999999999999858
  0
VERTEX
  5
32A
  8
0
 10
83.699353628451135
 20
99.223980221143151
 30
0.0
 42
0.02412462334816
 50
89.9999999999999858
  0
SEQEND
  5
32B
  8
0
  0
POLYLINE
  5
32C
  8
0
 66
     1
 10
0.0
 20
0.0
 30
0.0
  0
VERTEX
  5
32D
  8
0
 10
83.699353628451135
 20
98.550785312033824
 30
0.0
 42
0.1359958379716637
 50
89.9999999999999858
  0
VERTEX
  5
32E
  8
0
 10
83.8439969557645668
 20
98.5908684249235421
 30
0.0
 42
0.1069468256299952
 50
89.9999999999999858
  0
VERTEX
  5
32F
  8
0
 10
83.9821963409256966
 20
98.7205859463243769
 30
0.0
 42
0.0815773277484804
 70
     2
 50
55.3955017624092818
  0
VERTEX
  5
330
  8
0
 10
84.0671192247648236
 20
98.9004278674590296
 30
0.0
 42
0.069706093800654
 50
89.9999999999999858
  0
VERTEX
  5
331
  8
0
 10
84.0993536284510554
 20
99.1305209405282142
 30
0.0
 42
0.0697060938006716
 50
89.9999999999999858
  0
SEQEND
  5
332
  8
0
  0
LINE
  5
333
  8
0
 10
77.2493536284512743
 20
99.223980221143151
 30
0.0
 11
77.2493536284512743
 21
101.0472833890752042
 31
0.0
  0
LINE
  5
334
  8
0
 10
77.2493536284512743
 20
102.2603386993508963
 30
0.0
 11
77.2493536284512743
 21
104.895088114910493
 31
0.0
  0
POLYLINE
  5
335
  8
0
 66
     1
 10
0.0
 20
0.0
 30
0.0
  0
VERTEX
  5
336
  8
0
 10
76.8493536284513681
 20
98.2699189591826752
 30
0.0
 42
-0.0916984344567795
 50
89.9999999999999858
  0
VERTEX
  5
337
  8
0
 10
77.0038526744349241
 20
98.2413440427747133
 30
0.0
 42
-0.0954133203087169
 50
89.9999999999999858
  0
VERTEX
  5
338
  8
0
 10
77.1321963409259155
 20
98.1615885905804646
 30
0.0
 42
-0.1011842983975874
 70
     2
 50
317.2417506631915103
  0
VERTEX
  5
339
  8
0
 10
77.226620375576104
 20
98.0301168959102966
 30
0.0
 42
-0.1246996945258645
 50
89.9999999999999858
  0
VERTEX
  5
33A
  8
0
 10
77.2493536284422362
 20
97.9000559454840698
 30
0.0
 42
-0.1056807497133024
 50
89.9999999999999858
  0
SEQEND
  5
33B
  8
0
  0
POLYLINE
  5
33C
  8
0
 66
     1
 10
0.0
 20
0.0
 30
0.0
  0
VERTEX
  5
33D
  8
0
 10
77.2493536284512743
 20
98.550785312033824
 30
0.0
 42
-0.1359958379716637
 50
89.9999999999999858
  0
VERTEX
  5
33E
  8
0
 10
77.1047103011378283
 20
98.5908684249235421
 30
0.0
 42
-0.1069468256299952
 50
89.9999999999999858
  0
VERTEX
  5
33F
  8
0
 10
76.9665109159767127
 20
98.7205859463243769
 30
0.0
 42
-0.0815773277484804
 70
     2
 50
124.604498237590704
  0
VERTEX
  5
340
  8
0
 10
76.8815880321375857
 20
98.9004278674590296
 30
0.0
 42
-0.069706093800654
 50
89.9999999999999858
  0
VERTEX
  5
341
  8
0
 10
76.8493536284513539
 20
99.1305209405282142
 30
0.0
 42
-0.0697060938006716
 50
89.9999999999999858
  0
SEQEND
  5
342
  8
0
  0
POLYLINE
  5
343
  8
0
 66
     1
 10
0.0
 20
0.0
 30
0.0
  0
VERTEX
  5
344
  8
0
 10
76.8493536284513539
 20
99.1305209405282142
 30
0.0
 50
89.9999999999999858
  0
VERTEX
  5
345
  8
0
 10
76.8648045833849238
 20
99.1569760336988963
 30
0.0
 42
-0.0711335724020575
 50
89.9999999999999858
  0
VERTEX
  5
346
  8
0
 10
76.9665109159767127
 20
99.1966066316158646
 30
0.0
 42
-0.033274958700216
 70
     2
 50
13.1511302364020999
  0
VERTEX
  5
347
  8
0
 10
77.1022655238066648
 20
99.2189334292149852
 30
0.0
 42
-0.0311009623782723
 50
89.9999999999999858
  0
VERTEX
  5
348
  8
0
 10
77.2493536284512743
 20
99.223980221143151
 30
0.0
 42
-0.02412462334816
 50
89.9999999999999858
  0
SEQEND
  5
349
  8
0
  0
POLYLINE
  5
34A
  8
0
 66
     1
 10
0.0
 20
0.0
 30
0.0
  0
VERTEX
  5
34B
  8
0
 10
77.2493536284512743
 20
101.0472833890752042
 30
0.0
 42
-0.1706664605526735
 50
89.9999999999999858
  0
VERTEX
  5
34C
  8
0
 10
77.1128920942602747
 20
101.0952596084564021
 30
0.0
 42
-0.10489829538605
 50
89.9999999999999858
  0
VERTEX
  5
34D
  8
0
 10
76.9665109159781338
 20
101.2742125128464039
 30
0.0
 42
-0.066574804167348
 70
     2
 50
117.3060670838679016
  0
VERTEX
  5
34E
  8
0
 10
76.8824350229688349
 20
101.5091772881234959
 30
0.0
 42
-0.0527172412625307
 50
89.9999999999999858
  0
VERTEX
  5
34F
  8
0
 10
76.8493536284534002
 20
101.822067881152293
 30
0.0
 42
-0.0527172412625443
 50
89.9999999999999858
  0
SEQEND
  5
350
  8
0
  0
POLYLINE
  5
351
  8
0
 66
     1
 10
0.0
 20
0.0
 30
0.0
  0
VERTEX
  5
352
  8
0
 10
76.8493536284513681
 20
101.822067881152293
 30
0.0
 42
-0.0906057889765221
 50
89.9999999999999858
  0
VERTEX
  5
353
  8
0
 10
76.8803283090754661
 20
101.9915956627066009
 30
0.0
 42
-0.0948678514357048
 50
89.9999999999999858
  0
VERTEX
  5
354
  8
0
 10
76.9665109159767127
 20
102.131972148696704
 30
0.0
 42
-0.1015910306527909
 70
     2
 50
47.6139938777279568
  0
VERTEX
  5
355
  8
0
 10
77.1088980318702255
 20
102.2354692393518008
 30
0.0
 42
-0.1260613613634058
 50
89.9999999999999858
  0
VERTEX
  5
356
  8
0
 10
77.2493536284512743
 20
102.2603386993493046
 30
0.0
 42
-0.106916177055327
 50
89.9999999999999858
  0
SEQEND
  5
357
  8
0
  0
POLYLINE
  5
358
  8
0
 66
     1
 10
0.0
 20
0.0
 30
0.0
  0
VERTEX
  5
359
  8
0
 10
77.2493536284512459
 20
104.895088114910493
 30
0.0
 42
-0.1772752497286819
 50
89.9999999999999858
  0
VERTEX
  5
35A
  8
0
 10
77.1144610671743322
 20
104.9444661184109009
 30
0.0
 42
-0.1037184546977616
 50
89.9999999999999858
  0
VERTEX
  5
35B
  8
0
 10
76.9665109159766985
 20
105.1341996320963972
 30
0.0
 42
-0.0639265016304787
 70
     2
 50
116.1034326419478049
  0
VERTEX
  5
35C
  8
0
 10
76.8825489396743649
 20
105.3810064570975982
 30
0.0
 42
-0.0500999315019023
 50
89.9999999999999858
  0
VERTEX
  5
35D
  8
0
 10
76.8493536284513681
 20
105.7114658998062993
 30
0.0
 42
-0.0500999315019139
 50
89.9999999999999858
  0
SEQEND
  5
35E
  8
0
  0
POLYLINE
  5
35F
  8
0
 66
     1
 10
0.0
 20
0.0
 30
0.0
  0
VERTEX
  5
360
  8
0
 10
76.8493536284513681
 20
105.7114658998062993
 30
0.0
 42
-0.0584700367089559
 50
89.9999999999999858
  0
VERTEX
  5
361
  8
0
 10
76.8821684220382764
 20
105.9911186074987057
 30
0.0
 42
-0.0720824478963223
 50
89.9999999999999858
  0
VERTEX
  5
362
  8
0
 10
76.9665109159767411
 20
106.2038084028938982
 30
0.0
 42
-0.1065647653260566
 70
     2
 50
60.1233372943620665
  0
VERTEX
  5
363
  8
0
 10
77.1185896872943601
 20
106.3724591816776979
 30
0.0
 42
-0.182558189136383
 50
89.9999999999999858
  0
VERTEX
  5
364
  8
0
 10
77.2493536284512885
 20
106.4077433450054997
 30
0.0
 42
-0.1574556497505599
 50
89.9999999999999858
  0
SEQEND
  5
365
  8
0
  0
LINE
  5
366
  8
0
 10
77.2493536284422362
 20
97.9000559454840698
 30
0.0
 11
83.6993533491277191
 21
97.9000559454840698
 31
0.0
  0
LINE
  5
367
  8
0
 10
77.2493536284512459
 20
98.550785312033824
 30
0.0
 11
83.6993543028007139
 21
98.550785312033824
 31
0.0
  0
LINE
  5
368
  8
0
 10
77.1833226669443775
 20
99.223980221143151
 30
0.0
 11
83.7653845900011333
 21
99.2239802211431083
 31
0.0
  0
LINE
  5
369
  8
0
 10
77.2493536284512885
 20
101.0472833890752042
 30
0.0
 11
83.699353628451135
 21
101.0472833890752042
 31
0.0
  0
LINE
  5
36A
  8
0
 10
77.2059707888977158
 20
102.2603386993508963
 30
0.0
 11
83.7427364679452069
 21
102.2603386993508963
 31
0.0
  0
LINE
  5
36B
  8
0
 10
77.2493536284512601
 20
104.8950881149106067
 30
0.0
 11
83.6993545821254799
 21
104.895088114910493
 31
0.0
  0
LINE
  5
36C
  8
0
 10
77.2120071088935447
 20
106.4077433450054997
 30
0.0
 11
83.7367001480324262
 21
106.4077433450054997
 31
0.0
  0
LINE
  5
36D
  8
0
 10
77.2493536284512743
 20
97.9000559454840698
 30
0.0
 11
77.2493536284512743
 21
98.550785312033824
 31
0.0
  0
LINE
  5
36E
  8
0
 10
76.3993536284512658
 20
98.7199189591828343
 30
0.0
 11
76.8493536284513681
 21
98.2699189591827178
 31
0.0
  0
LINE
  5
36F
  8
0
 10
84.099353628450956
 20
97.86991895918284
 30
0.0
 11
84.5493536284512857
 21
97.86991895918284
 31
0.0
  0
LINE
  5
370
  8
0
 10
77.2493536284512885
 20
106.4077433450054997
 30
0.0
 11
77.2493536284512743
 21
109.3320945733600951
 31
0.0
  0
LINE
  5
371
  8
1
 10
93.8993536284512516
 20
107.8699189591827974
 30
0.0
 11
72.8993536284512658
 21
107.8699189591827974
 31
0.0
  0
LINE
  5
372
  8
1
 10
132.8222430552345941
 20
59.3699189591828116
 30
0.0
 11
132.8222430552345941
 21
84.3699189591827974
 31
0.0
  0
LINE
  5
373
  8
1
 10
120.3222430552345941
 20
71.8699189591828258
 30
0.0
 11
145.3222430552345088
 21
71.8699189591828116
 31
0.0
  0
CIRCLE
  5
374
  8
0
 10
132.8222430552345941
 20
71.8699189591828116
 30
0.0
 40
10.0
  0
CIRCLE
  5
375
  8
0
 10
132.8222430552345941
 20
71.8699189591828116
 30
0.0
 40
2.0669999999999988
  0
CIRCLE
  5
376
  8
3
 10
132.8222430552345941
 20
71.8699189591828116
 30
0.0
 40
2.5
  0
CIRCLE
  5
377
  8
0
 10
132.8222430552345941
 20
71.8699189591828116
 30
0.0
 40
3.500000000000056
  0
CIRCLE
  5
378
  8
0
 10
132.8222430552345941
 20
71.8699189591828116
 30
0.0
 40
5.1499999999999631
  0
CIRCLE
  5
37A
  8
0
 10
132.8222430552345941
 20
71.8699189591828116
 30
0.0
 40
9.1500000000000341
  0
CIRCLE
  5
42F
  8
0
 10
32.8222430552346012
 20
71.8699189591828116
 30
0.0
 40
5.5
  0
LINE
  5
430
  8
2
 10
79.4993536284512743
 20
113.3699189591827974
 30
0.0
 11
78.9993536284512743
 21
113.3699189591827974
 31
0.0
  0
LINE
  5
431
  8
2
 10
76.3993536284512658
 20
115.8699189591827974
 30
0.0
 11
78.9993536284512743
 21
113.3699189591827974
 31
0.0
  0
LINE
  5
432
  8
2
 10
78.9993536284512743
 20
102.3699189591827974
 30
0.0
 11
78.9993536284512743
 21
113.3699189591827974
 31
0.0
  0
LINE
  5
433
  8
2
 10
79.4993536284512885
 20
113.3699189591827974
 30
0.0
 11
79.4993536284512743
 21
102.3699189591827974
 31
0.0
  0
LINE
  5
434
  8
2
 10
76.3993536284512658
 20
99.8699189591828116
 30
0.0
 11
78.9993536284512743
 21
102.3699189591827974
 31
0.0
  0
LINE
  5
435
  8
2
 10
79.4993536284512743
 20
102.3699189591827974
 30
0.0
 11
78.9993536284512743
 21
102.3699189591827974
 31
0.0
  0
LINE
  5
436
  8
2
 10
79.4993536284512459
 20
41.3699189591827974
 30
0.0
 11
79.4993536284512317
 21
30.3699189591828294
 31
0.0
  0
LINE
  5
437
  8
2
 10
78.9993536284512317
 20
30.3699189591828294
 30
0.0
 11
78.9993536284512317
 21
41.3699189591827974
 31
0.0
  0
LINE
  5
438
  8
2
 10
76.3993536284512231
 20
43.8699189591828187
 30
0.0
 11
78.9993536284512317
 21
41.3699189591828187
 31
0.0
  0
LINE
  5
439
  8
2
 10
79.4993536284512317
 20
41.3699189591828187
 30
0.0
 11
78.9993536284512317
 21
41.3699189591828187
 31
0.0
  0
LINE
  5
43A
  8
2
 10
79.4993536284512317
 20
30.3699189591828294
 30
0.0
 11
78.9993536284512317
 21
30.3699189591828294
 31
0.0
  0
LINE
  5
43B
  8
2
 10
76.3993536284512231
 20
27.8699189591828294
 30
0.0
 11
78.9993536284512317
 21
30.3699189591828294
 31
0.0
  0
LINE
  5
43C
  8
2
 10
90.4993536284512601
 20
105.8029189591825059
 30
0.0
 11
90.4993536284512032
 21
109.9369189591831031
 31
0.0
  0
LINE
  5
43D
  8
2
 10
91.3993536284512942
 20
104.9029189591825002
 30
0.0
 11
90.4993536284512601
 21
105.8029189591825059
 31
0.0
  0
LINE
  5
43E
  8
2
 10
90.4993536284512601
 20
105.8029189591825059
 30
0.0
 11
83.3993536284512658
 21
105.8029189591825059
 31
0.0
  0
LINE
  5
43F
  8
2
 10
90.9323536284510823
 20
105.3699189591827974
 30
0.0
 11
85.3993536284515642
 21
105.3699189591826979
 31
0.0
  0
LINE
  5
440
  8
2
 10
91.3993536284512942
 20
110.8369189591830946
 30
0.0
 11
90.4993536284512601
 21
109.9369189591830036
 31
0.0
  0
LINE
  5
441
  8
2
 10
90.9323536284510823
 20
110.3699189591827974
 30
0.0
 11
85.3993536284515642
 21
110.3699189591827974
 31
0.0
  0
LINE
  5
442
  8
2
 10
90.4993536284512601
 20
109.9369189591830036
 30
0.0
 11
83.3993536284512658
 21
109.9369189591830036
 31
0.0
  0
LINE
  5
443
  8
2
 10
85.3993536284512658
 20
110.3699189591826979
 30
0.0
 11
84.6493756287743224
 21
109.9369189591829041
 31
0.0
  0
LINE
  5
444
  8
2
 10
85.3993536284515358
 20
105.3699189591826979
 30
0.0
 11
85.3993536284515358
 21
110.3699189591827974
 31
0.0
  0
LINE
  5
445
  8
2
 10
85.3993536284512658
 20
105.3699189591828969
 30
0.0
 11
84.6493756287743224
 21
105.8029189591827048
 31
0.0
  0
LINE
  5
446
  8
2
 10
83.3993536284512658
 20
105.8029189591825059
 30
0.0
 11
83.3993536284512658
 21
109.9369189591831031
 31
0.0
  0
LINE
  5
447
  8
2
 10
83.3993536284512089
 20
105.8029189591825059
 30
0.0
 11
82.1573747289211269
 21
107.8699189591827974
 31
0.0
  0
LINE
  5
448
  8
2
 10
83.3993536284512089
 20
109.9369189591830036
 30
0.0
 11
82.1573747289211269
 21
107.8699189591827974
 31
0.0
  0
LINE
  5
449
  8
2
 10
91.3993536284512373
 20
38.8369189591831088
 30
0.0
 11
90.4993536284512032
 21
37.9369189591830676
 31
0.0
  0
LINE
  5
44A
  8
2
 10
90.9323536284510254
 20
38.3699189591828684
 30
0.0
 11
85.3993536284515073
 21
38.3699189591828684
 31
0.0
  0
LINE
  5
44B
  8
2
 10
90.4993536284512032
 20
37.9369189591830676
 30
0.0
 11
83.3993536284512089
 21
37.9369189591830676
 31
0.0
  0
LINE
  5
44C
  8
2
 10
90.4993536284512032
 20
33.8029189591825769
 30
0.0
 11
90.4993536284511464
 21
37.9369189591830889
 31
0.0
  0
LINE
  5
44D
  8
2
 10
91.3993536284512373
 20
32.9029189591825428
 30
0.0
 11
90.4993536284512032
 21
33.8029189591825769
 31
0.0
  0
LINE
  5
44E
  8
2
 10
90.4993536284512032
 20
33.8029189591825769
 30
0.0
 11
83.3993536284512089
 21
33.8029189591825769
 31
0.0
  0
LINE
  5
44F
  8
2
 10
90.9323536284510254
 20
33.3699189591827832
 30
0.0
 11
85.3993536284515073
 21
33.369918959182769
 31
0.0
  0
LINE
  5
450
  8
2
 10
85.3993536284511947
 20
38.3699189591826979
 30
0.0
 11
84.6493756287742656
 21
37.9369189591829112
 31
0.0
  0
LINE
  5
451
  8
2
 10
85.3993536284514931
 20
33.369918959182769
 30
0.0
 11
85.3993536284514931
 21
38.3699189591828684
 31
0.0
  0
LINE
  5
452
  8
2
 10
85.3993536284511947
 20
33.3699189591829466
 30
0.0
 11
84.6493756287742656
 21
33.8029189591827475
 31
0.0
  0
LINE
  5
453
  8
2
 10
83.3993536284512089
 20
33.8029189591825769
 30
0.0
 11
83.3993536284512089
 21
37.9369189591830889
 31
0.0
  0
LINE
  5
454
  8
2
 10
83.3993536284511663
 20
33.8029189591825769
 30
0.0
 11
82.1573747289210843
 21
35.86991895918284
 31
0.0
  0
LINE
  5
455
  8
2
 10
83.3993536284511663
 20
37.9369189591830676
 30
0.0
 11
82.1573747289210843
 21
35.86991895918284
 31
0.0
  0
LINE
  5
46C
  8
0
 10
90.2493536284515443
 20
113.6199189591827974
 30
0.0
 11
90.2493536284515443
 21
102.1199189591827974
 31
0.0
  0
LINE
  5
46D
  8
0
 10
91.0993536284515386
 20
112.7699189591828031
 30
0.0
 11
90.2493536284515443
 21
113.6199189591827974
 31
0.0
  0
LINE
  5
46E
  8
0
 10
91.0993536284515386
 20
112.7699189591828031
 30
0.0
 11
91.0993536284515386
 21
102.9699189591828059
 31
0.0
  0
LINE
  5
46F
  8
0
 10
85.3993536284515358
 20
113.6199189591827974
 30
0.0
 11
90.2493536284515443
 21
113.6199189591827974
 31
0.0
  0
LINE
  5
470
  8
0
 10
90.2493536284515443
 20
102.1199189591827974
 30
0.0
 11
91.0993536284515386
 21
102.9699189591828059
 31
0.0
  0
LINE
  5
471
  8
0
 10
85.3993536284515358
 20
102.1199189591827974
 30
0.0
 11
90.2493536284515443
 21
102.1199189591827974
 31
0.0
  0
LINE
  5
472
  8
0
 10
85.3993536284515358
 20
41.6199189591828329
 30
0.0
 11
90.2493536284515443
 21
41.6199189591828329
 31
0.0
  0
LINE
  5
473
  8
0
 10
91.0993536284515386
 20
40.7699189591828315
 30
0.0
 11
90.2493536284515443
 21
41.6199189591828329
 31
0.0
  0
LINE
  5
474
  8
0
 10
90.2493536284515443
 20
41.6199189591828329
 30
0.0
 11
90.2493536284515443
 21
30.1199189591828507
 31
0.0
  0
LINE
  5
475
  8
0
 10
85.3993536284515216
 20
30.1199189591828116
 30
0.0
 11
90.2493536284515443
 21
30.11991895918284
 31
0.0
  0
LINE
  5
476
  8
0
 10
90.2493536284515443
 20
30.11991895918284
 30
0.0
 11
91.0993536284515386
 21
30.9699189591828414
 31
0.0
  0
LINE
  5
477
  8
0
 10
91.0993536284515386
 20
40.7699189591828315
 30
0.0
 11
91.0993536284515386
 21
30.9699189591828414
 31
0.0
  0
CIRCLE
  5
479
  8
0
 10
132.8222430552345941
 20
71.8699189591828258
 30
0.0
 40
5.7499999999999849
  0
TEXT
  5
52B
  8
0
 62
     3
 10
0.0
 20
0.0
 30
0.0
 40
10.0
  1
FTK20B-SUS
  7
STANDARD1
  0
LINE
  5
589
  8
0
 10
77.2493536284581381
 20
81.4171898492312494
 30
0.0
 11
83.6993536284441433
 21
81.4171898492312494
 31
0.0
  0
LINE
  5
58B
  8
0
 10
77.2493536284512032
 20
80.1483614037797736
 30
0.0
 11
83.6993547964588345
 21
80.1483614037797736
 31
0.0
  0
LINE
  5
58C
  8
0
 10
77.249353628451189
 20
72.6456969480957326
 30
0.0
 11
83.6993549771502785
 21
72.6456969480957468
 31
0.0
  0
LINE
  5
58D
  8
0
 10
77.2102184243728829
 20
68.2431093327238756
 30
0.0
 11
83.7384888324442329
 21
68.2431093327238756
 31
0.0
  0
LINE
  5
58E
  8
0
 10
77.2493536284512174
 20
66.8452056998947768
 30
0.0
 11
83.6993536284511066
 21
66.845205699894791
 31
0.0
  0
LINE
  5
58F
  8
0
 10
77.2493536284512032
 20
62.3226480691343809
 30
0.0
 11
83.6993536284441433
 21
62.3226480691343809
 31
0.0
  0
ENDSEC
  0
EOF
