  0
SECTION
  2
HEADER
  9
$ACADVER
  1
AC1009
  9
$INSBASE
 10
0.0
 20
0.0
 30
0.0
  9
$EXTMIN
 10
0.0
 20
-2.960436562073669
 30
0.0
  9
$EXTMAX
 10
174.9457705440717064
 20
148.8536586541997053
 30
0.0
  9
$LIMMIN
 10
0.0
 20
0.0
  9
$LIMMAX
 10
187.5
 20
135.0
  9
$ORTHOMODE
 70
     1
  9
$REGENMODE
 70
     1
  9
$FILLMODE
 70
     1
  9
$QTEXTMODE
 70
     0
  9
$MIRRTEXT
 70
     0
  9
$DRAGMODE
 70
     2
  9
$LTSCALE
 40
5.0
  9
$OSMODE
 70
    37
  9
$ATTMODE
 70
     1
  9
$TEXTSIZE
 40
5.0
  9
$TRACEWID
 40
0.05
  9
$TEXTSTYLE
  7
STANDARD
  9
$CLAYER
  8
0
  9
$CELTYPE
  6
BYLAYER
  9
$CECOLOR
 62
   256
  9
$DIMSCALE
 40
0.5
  9
$DIMASZ
 40
3.0
  9
$DIMEXO
 40
2.0
  9
$DIMDLI
 40
0.38
  9
$DIMRND
 40
0.0
  9
$DIMDLE
 40
0.0
  9
$DIMEXE
 40
2.0
  9
$DIMTP
 40
0.0
  9
$DIMTM
 40
0.0
  9
$DIMTXT
 40
3.2000000000000002
  9
$DIMCEN
 40
0.09
  9
$DIMTSZ
 40
0.0
  9
$DIMTOL
 70
     0
  9
$DIMLIM
 70
     0
  9
$DIMTIH
 70
     0
  9
$DIMTOH
 70
     0
  9
$DIMSE1
 70
     0
  9
$DIMSE2
 70
     0
  9
$DIMTAD
 70
     1
  9
$DIMZIN
 70
     0
  9
$DIMBLK
  1

  9
$DIMASO
 70
     1
  9
$DIMSHO
 70
     0
  9
$DIMPOST
  1

  9
$DIMAPOST
  1

  9
$DIMALT
 70
     0
  9
$DIMALTD
 70
     2
  9
$DIMALTF
 40
25.3999999999999986
  9
$DIMLFAC
 40
1.0
  9
$DIMTOFL
 70
     0
  9
$DIMTVP
 40
1.6000000000000001
  9
$DIMTIX
 70
     1
  9
$DIMSOXD
 70
     0
  9
$DIMSAH
 70
     0
  9
$DIMBLK1
  1

  9
$DIMBLK2
  1

  9
$DIMSTYLE
  2
STANDARD
  9
$DIMCLRD
 70
     0
  9
$DIMCLRE
 70
     0
  9
$DIMCLRT
 70
     0
  9
$DIMTFAC
 40
1.0
  9
$DIMGAP
 40
0.09
  9
$LUNITS
 70
     2
  9
$LUPREC
 70
     1
  9
$SKETCHINC
 40
0.1
  9
$FILLETRAD
 40
0.0
  9
$AUNITS
 70
     0
  9
$AUPREC
 70
     1
  9
$MENU
  1
E:\r13\win\SUPPORT\ACAD
  9
$ELEVATION
 40
0.0
  9
$PELEVATION
 40
0.0
  9
$THICKNESS
 40
0.0
  9
$LIMCHECK
 70
     0
  9
$BLIPMODE
 70
     0
  9
$CHAMFERA
 40
0.0
  9
$CHAMFERB
 40
0.0
  9
$SKPOLY
 70
     0
  9
$TDCREATE
 40
2449839.7834837958216667
  9
$TDUPDATE
 40
2460235.5674999998882413
  9
$TDINDWG
 40
0.0104383681
  9
$TDUSRTIMER
 40
0.0104383681
  9
$USRTIMER
 70
     1
  9
$ANGBASE
 50
0.0
  9
$ANGDIR
 70
     0
  9
$PDMODE
 70
     0
  9
$PDSIZE
 40
0.0
  9
$PLINEWID
 40
0.0
  9
$COORDS
 70
     1
  9
$SPLFRAME
 70
     0
  9
$SPLINETYPE
 70
     6
  9
$SPLINESEGS
 70
     8
  9
$ATTDIA
 70
     1
  9
$ATTREQ
 70
     1
  9
$HANDLING
 70
     1
  9
$HANDSEED
  5
135C
  9
$SURFTAB1
 70
     6
  9
$SURFTAB2
 70
     6
  9
$SURFTYPE
 70
     6
  9
$SURFU
 70
     6
  9
$SURFV
 70
     6
  9
$UCSNAME
  2

  9
$UCSORG
 10
0.0
 20
0.0
 30
0.0
  9
$UCSXDIR
 10
1.0
 20
0.0
 30
0.0
  9
$UCSYDIR
 10
0.0
 20
1.0
 30
0.0
  9
$PUCSNAME
  2

  9
$PUCSORG
 10
0.0
 20
0.0
 30
0.0
  9
$PUCSXDIR
 10
1.0
 20
0.0
 30
0.0
  9
$PUCSYDIR
 10
0.0
 20
1.0
 30
0.0
  9
$USERI1
 70
     0
  9
$USERI2
 70
     1
  9
$USERI3
 70
     1
  9
$USERI4
 70
     0
  9
$USERI5
 70
     0
  9
$USERR1
 40
0.0
  9
$USERR2
 40
0.0
  9
$USERR3
 40
0.0
  9
$USERR4
 40
0.0
  9
$USERR5
 40
0.0
  9
$WORLDVIEW
 70
     1
  9
$SHADEDGE
 70
     3
  9
$SHADEDIF
 70
    70
  9
$TILEMODE
 70
     1
  9
$MAXACTVP
 70
    16
  9
$PLIMCHECK
 70
     0
  9
$PEXTMIN
 10
1.0000000000000000E+20
 20
1.0000000000000000E+20
 30
1.0000000000000000E+20
  9
$PEXTMAX
 10
-1.0000000000000000E+20
 20
-1.0000000000000000E+20
 30
-1.0000000000000000E+20
  9
$PLIMMIN
 10
0.0
 20
0.0
  9
$PLIMMAX
 10
12.0
 20
9.0
  9
$UNITMODE
 70
     0
  9
$VISRETAIN
 70
     0
  9
$PLINEGEN
 70
     0
  9
$PSLTSCALE
 70
     0
  0
ENDSEC
  0
SECTION
  2
TABLES
  0
TABLE
  2
VPORT
 70
     1
  0
VPORT
  2
*ACTIVE
 70
     0
 10
0.0
 20
0.0
 11
1.0
 21
1.0
 12
234.8600483060326951
 22
100.0
 13
0.0
 23
0.0
 14
5.0
 24
5.0
 15
5.0
 25
5.0
 16
0.0
 26
0.0
 36
1.0
 17
0.0
 27
0.0
 37
0.0
 40
200.0665076487674128
 41
2.3485221674876842
 42
50.0
 43
0.0
 44
0.0
 50
0.0
 51
0.0
 71
     0
 72
   500
 73
     1
 74
     0
 75
     0
 76
     0
 77
     0
 78
     2
  0
ENDTAB
  0
TABLE
  2
LTYPE
 70
     3
  0
LTYPE
  2
CONTINUOUS
 70
     0
  3
Solid Line
 72
    65
 73
     0
 40
0.0
  0
LTYPE
  2
CENTER
 70
     0
  3
____ _ ____ _ ____ _ ____ _ ____ _ ____ _ ____
 72
    65
 73
     4
 40
2.0
 49
1.25
 49
-0.25
 49
0.25
 49
-0.25
  0
LTYPE
  2
HIDDEN
 70
     0
  3
_ _ _ _ _ _ _ _ _ _ _ _ _ _ _ _ _ _ _ _ _ _ _
 72
    65
 73
     2
 40
0.375
 49
0.25
 49
-0.125
  0
ENDTAB
  0
TABLE
  2
LAYER
 70
     4
  0
LAYER
  2
0
 70
     0
 62
     7
  6
CONTINUOUS
  0
LAYER
  2
1
 70
     0
 62
     1
  6
CENTER
  0
LAYER
  2
3
 70
     0
 62
     3
  6
CONTINUOUS
  0
LAYER
  2
2
 70
     0
 62
     2
  6
HIDDEN
  0
ENDTAB
  0
TABLE
  2
STYLE
 70
     2
  0
STYLE
  2
STANDARD
 70
     0
 40
0.0
 41
1.0
 50
0.0
 71
     0
 42
5.0
  3
TXT
  4
BIGFONT
  0
STYLE
  2
STANDARD1
 70
     0
 40
0.0
 41
1.0
 50
0.0
 71
     0
 42
3.0
  3
txt
  4

  0
ENDTAB
  0
TABLE
  2
VIEW
 70
     1
  0
VIEW
  2
ALL
 70
     0
 40
135.0
 10
110.4957983193277045
 20
67.5
 41
0.0
 11
0.0
 21
0.0
 31
1.0
 12
0.0
 22
0.0
 32
0.0
 42
0.0
 43
0.0
 44
0.0
 50
0.0
 71
     0
  0
ENDTAB
  0
TABLE
  2
UCS
 70
     0
  0
ENDTAB
  0
TABLE
  2
APPID
 70
     7
  0
APPID
  2
ACAD
 70
     0
  0
APPID
  2
ACAD_MLEADERVER
 70
     0
  0
APPID
  2
ACAD_NAV_VCDISPLAY
 70
     0
  0
APPID
  2
ACAD_EXEMPT_FROM_CAD_STANDARDS
 70
     0
  0
APPID
  2
ACAD_DSTYLE_DIMRADIAL_EXTENSION
 70
     0
  0
APPID
  2
ACAD_DSTYLE_DIMJAG
 70
     0
  0
APPID
  2
ACAD_DSTYLE_DIMTALN
 70
     0
  0
ENDTAB
  0
TABLE
  2
DIMSTYLE
 70
     1
  0
DIMSTYLE
  2
STANDARD
 70
     0
  3

  4

  5

  6

  7

 40
1.0
 41
0.18
 42
0.0625
 43
0.38
 44
0.18
 45
0.0
 46
0.0
 47
0.0
 48
0.0
140
0.18
141
0.09
142
0.0
143
25.3999999999999986
144
1.0
145
0.0
146
1.0
147
0.09
 71
     0
 72
     0
 73
     1
 74
     1
 75
     0
 76
     0
 77
     0
 78
     0
170
     0
171
     2
172
     0
173
     0
174
     0
175
     0
176
     0
177
     0
178
     0
  0
ENDTAB
  0
ENDSEC
  0
SECTION
  2
BLOCKS
  0
BLOCK
  8
0
  2
$MODEL_SPACE
 70
     0
 10
0.0
 20
0.0
 30
0.0
  3
$MODEL_SPACE
  1

  0
ENDBLK
  5
3D3
  8
0
  0
BLOCK
 67
     1
  8
0
  2
$PAPER_SPACE
 70
     0
 10
0.0
 20
0.0
 30
0.0
  3
$PAPER_SPACE
  1

  0
ENDBLK
  5
3D1
 67
     1
  8
0
  0
ENDSEC
  0
SECTION
  2
ENTITIES
  0
LINE
  5
36
  8
1
 10
124.9457705440719053
 20
90.8536586542000038
 30
0.0
 11
80.9457705440718769
 21
90.8536586542000038
 31
0.0
  0
LINE
  5
37
  8
0
 10
94.4457705440718485
 20
82.8536586541999895
 30
0.0
 11
101.1457705440718939
 21
82.8536586541999895
 31
0.0
  0
LINE
  5
38
  8
0
 10
102.1457705440717945
 20
94.8536586541999753
 30
0.0
 11
102.4457705440718058
 21
94.8536586541999753
 31
0.0
  0
LINE
  5
39
  8
0
 10
102.1457705440717945
 20
97.8536586541999895
 30
0.0
 11
102.1457705440717945
 21
83.8536586541999753
 31
0.0
  0
LINE
  5
3A
  8
0
 10
94.4457705440718769
 20
98.8536586541999753
 30
0.0
 11
101.1457705440718939
 21
98.8536586541999753
 31
0.0
  0
LINE
  5
3D
  8
0
 10
101.1457705440718939
 20
82.8536586541999895
 30
0.0
 11
102.1457705440717945
 21
83.8536586541999753
 31
0.0
  0
LINE
  5
3E
  8
0
 10
102.1457705440717945
 20
97.8536586541999895
 30
0.0
 11
101.1457705440718939
 21
98.8536586541999753
 31
0.0
  0
LINE
  5
41
  8
0
 10
101.1457705440718939
 20
98.8536586541999753
 30
0.0
 11
101.1457705440718939
 21
82.8536586541999895
 31
0.0
  0
LINE
  5
49
  8
0
 10
102.4457705440718058
 20
86.8536586541999895
 30
0.0
 11
102.1457705440717945
 21
86.8536586541999895
 31
0.0
  0
LINE
  5
4C
  8
0
 10
102.4457705440718058
 20
86.8536586541999895
 30
0.0
 11
102.4457705440718058
 21
94.8536586541999753
 31
0.0
  0
LINE
  5
243
  8
0
 10
102.4457705440719053
 20
131.8536586541999895
 30
0.0
 11
102.4457705440719053
 21
139.8536586541999895
 31
0.0
  0
LINE
  5
246
  8
0
 10
102.4457705440719053
 20
131.8536586541999895
 30
0.0
 11
102.1457705440718939
 21
131.8536586541999895
 31
0.0
  0
LINE
  5
24E
  8
0
 10
101.1457705440718939
 20
143.8536586541999895
 30
0.0
 11
101.1457705440718939
 21
127.8536586542000038
 31
0.0
  0
LINE
  5
251
  8
0
 10
102.1457705440718939
 20
142.8536586541999895
 30
0.0
 11
101.1457705440718939
 21
143.8536586541999895
 31
0.0
  0
LINE
  5
252
  8
0
 10
101.1457705440718939
 20
127.8536586542000038
 30
0.0
 11
102.1457705440718939
 21
128.8536586541999895
 31
0.0
  0
LINE
  5
255
  8
0
 10
94.4457705440718769
 20
143.8536586541999895
 30
0.0
 11
101.1457705440718939
 21
143.8536586541999895
 31
0.0
  0
LINE
  5
256
  8
0
 10
102.1457705440718939
 20
142.8536586541999895
 30
0.0
 11
102.1457705440718939
 21
128.8536586541999895
 31
0.0
  0
LINE
  5
257
  8
0
 10
102.1457705440718939
 20
139.8536586541999895
 30
0.0
 11
102.4457705440719053
 21
139.8536586541999895
 31
0.0
  0
LINE
  5
258
  8
0
 10
94.4457705440718627
 20
127.8536586542000038
 30
0.0
 11
101.1457705440718939
 21
127.8536586542000038
 31
0.0
  0
LINE
  5
259
  8
1
 10
124.9457705440725022
 20
135.8536586541999895
 30
0.0
 11
80.9457705440718769
 21
135.8536586541999895
 31
0.0
  0
LINE
  5
34A
  8
0
 10
102.4457705440718058
 20
41.8536586541999824
 30
0.0
 11
102.4457705440718058
 21
49.8536586541999895
 31
0.0
  0
LINE
  5
34D
  8
0
 10
102.4457705440718058
 20
41.8536586541999824
 30
0.0
 11
102.1457705440717945
 21
41.8536586541999824
 31
0.0
  0
LINE
  5
355
  8
0
 10
101.1457705440718939
 20
53.8536586541999895
 30
0.0
 11
101.1457705440718939
 21
37.8536586541999895
 31
0.0
  0
LINE
  5
358
  8
0
 10
102.1457705440717945
 20
52.8536586541999895
 30
0.0
 11
101.1457705440718939
 21
53.8536586541999895
 31
0.0
  0
LINE
  5
359
  8
0
 10
101.1457705440718939
 20
37.8536586541999895
 30
0.0
 11
102.1457705440717945
 21
38.8536586541999895
 31
0.0
  0
LINE
  5
35C
  8
0
 10
94.4457705440718769
 20
53.8536586541999895
 30
0.0
 11
101.1457705440718939
 21
53.8536586541999895
 31
0.0
  0
LINE
  5
35D
  8
0
 10
102.1457705440717945
 20
52.8536586541999895
 30
0.0
 11
102.1457705440717945
 21
38.8536586541999895
 31
0.0
  0
LINE
  5
35E
  8
0
 10
102.1457705440717945
 20
49.8536586541999895
 30
0.0
 11
102.4457705440718058
 21
49.8536586541999895
 31
0.0
  0
LINE
  5
35F
  8
0
 10
94.4457705440718485
 20
37.8536586541999895
 30
0.0
 11
101.1457705440718939
 21
37.8536586541999895
 31
0.0
  0
LINE
  5
360
  8
1
 10
124.9457705440711948
 20
45.8536586541999682
 30
0.0
 11
80.9457705440718769
 21
45.8536586541999966
 31
0.0
  0
LINE
  5
775
  8
0
 10
122.4457705440719053
 20
88.8536586541999753
 30
0.0
 11
121.4457705440719053
 21
87.8536586541999895
 31
0.0
  0
LINE
  5
776
  8
3
 10
104.4457705440719053
 20
88.3951586541999745
 30
0.0
 11
103.5078650317735054
 21
87.8536586542000464
 31
0.0
  0
LINE
  5
777
  8
3
 10
104.4457705440718058
 20
88.3951586541999177
 30
0.0
 11
121.9872705440717056
 21
88.3951586541999177
 31
0.0
  0
LINE
  5
778
  8
0
 10
102.4457705440718058
 20
87.8536586542000038
 30
0.0
 11
121.4457705440719053
 21
87.8536586541999895
 31
0.0
  0
LINE
  5
779
  8
0
 10
121.4457705440719053
 20
87.8536586541999895
 30
0.0
 11
121.4457705440719053
 21
93.8536586541999753
 31
0.0
  0
LINE
  5
77A
  8
0
 10
122.4457705440719053
 20
92.8536586541999895
 30
0.0
 11
122.4457705440719053
 21
88.8536586541999753
 31
0.0
  0
LINE
  5
77B
  8
0
 10
104.4457705440718058
 20
87.8536586541999895
 30
0.0
 11
104.4457705440719053
 21
93.8536586541999753
 31
0.0
  0
LINE
  5
77C
  8
0
 10
121.4457705440719053
 20
93.8536586541999753
 30
0.0
 11
122.4457705440719053
 21
92.8536586541999895
 31
0.0
  0
LINE
  5
77D
  8
3
 10
104.4457705440719053
 20
93.3121586542000898
 30
0.0
 11
103.5078650317735054
 21
93.853658654200018
 31
0.0
  0
LINE
  5
77E
  8
3
 10
104.4457705440718058
 20
93.3121586542000898
 30
0.0
 11
121.987270544071805
 21
93.3121586542000898
 31
0.0
  0
LINE
  5
77F
  8
0
 10
102.4457705440718058
 20
93.8536586542000464
 30
0.0
 11
121.4457705440719053
 21
93.8536586541999753
 31
0.0
  0
LINE
  5
782
  8
0
 10
102.4457705440718058
 20
138.8536586541999895
 30
0.0
 11
121.4457705440719053
 21
138.8536586541999895
 31
0.0
  0
LINE
  5
783
  8
3
 10
104.4457705440718058
 20
138.3121586542000898
 30
0.0
 11
121.987270544071805
 21
138.3121586542000898
 31
0.0
  0
LINE
  5
784
  8
0
 10
121.4457705440719053
 20
138.8536586541999895
 30
0.0
 11
122.4457705440719053
 21
137.8536586541999895
 31
0.0
  0
LINE
  5
785
  8
0
 10
122.4457705440719053
 20
137.8536586541999895
 30
0.0
 11
122.4457705440719053
 21
133.8536586541999895
 31
0.0
  0
LINE
  5
786
  8
0
 10
121.4457705440719053
 20
132.8536586541999895
 30
0.0
 11
121.4457705440719053
 21
138.8536586541999895
 31
0.0
  0
LINE
  5
787
  8
0
 10
102.4457705440718058
 20
132.8536586541999895
 30
0.0
 11
121.4457705440719053
 21
132.8536586541999895
 31
0.0
  0
LINE
  5
788
  8
3
 10
104.4457705440718058
 20
133.3951586541998893
 30
0.0
 11
121.9872705440717056
 21
133.3951586541998893
 31
0.0
  0
LINE
  5
789
  8
0
 10
122.4457705440719053
 20
133.8536586541999895
 30
0.0
 11
121.4457705440719053
 21
132.8536586541999895
 31
0.0
  0
LINE
  5
78A
  8
3
 10
104.4457705440719053
 20
138.3121586542000898
 30
0.0
 11
103.5078650317735054
 21
138.8536586541999895
 31
0.0
  0
LINE
  5
78B
  8
0
 10
104.4457705440718058
 20
132.8536586541999895
 30
0.0
 11
104.4457705440719053
 21
138.8536586541999895
 31
0.0
  0
LINE
  5
78C
  8
3
 10
104.4457705440719053
 20
133.3951586541998893
 30
0.0
 11
103.5078650317735054
 21
132.8536586541999895
 31
0.0
  0
LINE
  5
78D
  8
3
 10
104.4457705440719053
 20
43.3951586541999674
 30
0.0
 11
103.5078650317735054
 21
42.8536586542000393
 31
0.0
  0
LINE
  5
78E
  8
0
 10
104.4457705440718058
 20
42.8536586541999895
 30
0.0
 11
104.4457705440719053
 21
48.8536586541999824
 31
0.0
  0
LINE
  5
78F
  8
0
 10
122.4457705440718058
 20
43.8536586541999824
 30
0.0
 11
121.4457705440718058
 21
42.8536586541999895
 31
0.0
  0
LINE
  5
790
  8
3
 10
104.4457705440718058
 20
43.3951586541999177
 30
0.0
 11
121.9872705440717056
 21
43.3951586541999177
 31
0.0
  0
LINE
  5
791
  8
0
 10
102.4457705440718058
 20
42.8536586541999895
 30
0.0
 11
121.4457705440718058
 21
42.8536586541999895
 31
0.0
  0
LINE
  5
792
  8
0
 10
121.4457705440718058
 20
42.8536586541999895
 30
0.0
 11
121.4457705440719053
 21
48.8536586541999824
 31
0.0
  0
LINE
  5
793
  8
0
 10
122.4457705440719053
 20
47.8536586541999895
 30
0.0
 11
122.4457705440718058
 21
43.8536586541999824
 31
0.0
  0
LINE
  5
794
  8
3
 10
104.4457705440719053
 20
48.3121586542000898
 30
0.0
 11
103.5078650317735054
 21
48.853658654200018
 31
0.0
  0
LINE
  5
795
  8
0
 10
121.4457705440719053
 20
48.8536586541999824
 30
0.0
 11
122.4457705440719053
 21
47.8536586541999895
 31
0.0
  0
LINE
  5
796
  8
3
 10
104.4457705440718058
 20
48.3121586542000898
 30
0.0
 11
121.987270544071805
 21
48.3121586542000898
 31
0.0
  0
LINE
  5
797
  8
0
 10
102.4457705440718058
 20
48.8536586542000535
 30
0.0
 11
121.4457705440719053
 21
48.8536586541999824
 31
0.0
  0
TEXT
  5
84E
  8
0
 62
     3
 10
0.0
 20
0.0
 30
0.0
 40
10.0
  1
FTK25AX20-SUS
  7
STANDARD1
  0
CIRCLE
  5
F07
  8
0
 10
45.9457705440719835
 20
90.8536586542000038
 30
0.0
 40
10.25
  0
CIRCLE
  5
F08
  8
0
 10
45.9457705440719835
 20
90.8536586542000038
 30
0.0
 40
12.0
  0
CIRCLE
  5
F09
  8
0
 10
45.9457705440719835
 20
90.8536586542000038
 30
0.0
 40
13.0
  0
LINE
  5
F0A
  8
1
 10
45.9457705440719266
 20
75.8536586541999895
 30
0.0
 11
45.9457705440719835
 21
105.8536586542000038
 31
0.0
  0
LINE
  5
F0B
  8
1
 10
60.9457705440719266
 20
90.8536586542000038
 30
0.0
 11
30.945770544072051
 21
90.8536586542000038
 31
0.0
  0
CIRCLE
  5
F0C
  8
0
 10
45.9457705440719835
 20
90.8536586542000038
 30
0.0
 40
7.5
  0
ARC
  5
F0D
  8
0
 10
45.9457705440719835
 20
104.8036586542001061
 30
0.0
 40
1.3
 50
228.8057831229517092
 51
311.1942168770482908
  0
ARC
  5
F0E
  8
0
 10
51.284204425565072
 20
103.7417781327326054
 30
0.0
 40
1.3
 50
206.3057831229517944
 51
288.6942168770469266
  0
ARC
  5
F0F
  8
0
 10
40.6073366625789092
 20
103.7417781327325059
 30
0.0
 40
1.3
 50
251.3057831229496912
 51
333.6942168770488024
  0
ARC
  5
F10
  8
0
 10
36.0816309465195673
 20
100.7177982517523986
 30
0.0
 40
1.3
 50
273.8057831229505155
 51
356.1942168770494277
  0
ARC
  5
F11
  8
0
 10
33.0576510655394031
 20
96.1920925356930638
 30
0.0
 40
1.3
 50
296.305783122950686
 51
18.6942168770491115
  0
ARC
  5
F12
  8
0
 10
31.9957705440718314
 20
90.8536586542000038
 30
0.0
 40
1.3
 50
318.8057831229521071
 51
41.1942168770476798
  0
ARC
  5
F13
  8
0
 10
33.0576510655394031
 20
85.5152247727069437
 30
0.0
 40
1.3
 50
341.3057831229501176
 51
63.6942168770492074
  0
ARC
  5
F14
  8
0
 10
36.0816309465195673
 20
80.9895190566475094
 30
0.0
 40
1.3
 50
3.8057831229518451
 51
86.1942168770494845
  0
ARC
  5
F15
  8
0
 10
40.6073366625789092
 20
77.9655391756673737
 30
0.0
 40
1.3
 50
26.3760494411039907
 51
108.6942168770468982
  0
ARC
  5
F16
  8
0
 10
45.9457705440719266
 20
76.9036586541998304
 30
0.0
 40
1.3
 50
48.8057831229516879
 51
131.1942168770482908
  0
ARC
  5
F17
  8
0
 10
51.2842044255650009
 20
77.9655391756673737
 30
0.0
 40
1.3
 50
71.3057831229496628
 51
153.6942168770497972
  0
ARC
  5
F18
  8
0
 10
55.8099101416244068
 20
80.9895190566475236
 30
0.0
 40
1.3
 50
93.8057831229505439
 51
176.194216877050593
  0
ARC
  5
F19
  8
0
 10
58.8338900226045709
 20
85.5152247727069437
 30
0.0
 40
1.3
 50
116.3057831229508992
 51
198.6942168770480066
  0
ARC
  5
F1A
  8
0
 10
59.8957705440721497
 20
90.8536586541999611
 30
0.0
 40
1.3
 50
138.8057831229521071
 51
221.194216877047694
  0
ARC
  5
F1B
  8
0
 10
55.8099101416244068
 20
100.7177982517523986
 30
0.0
 40
1.3
 50
183.8057831229521923
 51
266.1942168770461876
  0
ARC
  5
F1C
  8
0
 10
58.8338900226045709
 20
96.1920925356930923
 30
0.0
 40
1.3
 50
161.3057831229521923
 51
243.6942168770490866
  0
CIRCLE
  5
F2B
  8
0
 10
159.9457705440717916
 20
90.8536586542000038
 30
0.0
 40
13.0
  0
LINE
  5
F2C
  8
1
 10
159.9457705440717916
 20
75.8536586541999895
 30
0.0
 11
159.9457705440717916
 21
105.8536586542000038
 31
0.0
  0
LINE
  5
F2D
  8
1
 10
174.9457705440717064
 20
90.8536586542000038
 30
0.0
 11
144.9457705440717916
 21
90.8536586542000038
 31
0.0
  0
CIRCLE
  5
F2E
  8
0
 10
159.9457705440717916
 20
90.8536586542000038
 30
0.0
 40
11.9999999999997708
  0
CIRCLE
  5
F2F
  8
0
 10
159.9457705440717916
 20
90.8536586542000038
 30
0.0
 40
8.0
  0
CIRCLE
  5
F30
  8
0
 10
159.9457705440717916
 20
90.8536586542000038
 30
0.0
 40
7.0000000000000142
  0
CIRCLE
  5
F31
  8
0
 10
159.9457705440717916
 20
90.8536586542000038
 30
0.0
 40
4.0
  0
CIRCLE
  5
F32
  8
3
 10
159.9457705440717916
 20
90.8536586542000038
 30
0.0
 40
2.5
  0
CIRCLE
  5
F33
  8
0
 10
159.9457705440717916
 20
90.8536586542000038
 30
0.0
 40
3.0
  0
LINE
  5
103B
  8
0
 10
94.4457705440718769
 20
102.8536586541995064
 30
0.0
 11
94.4457705440718769
 21
78.8536586541995774
 31
0.0
  0
LINE
  5
103C
  8
0
 10
93.4457705440721043
 20
77.8536586541997764
 30
0.0
 11
94.4457705440721043
 21
78.8536586541997764
 31
0.0
  0
LINE
  5
103D
  8
0
 10
94.4457705440716495
 20
102.8536586541997053
 30
0.0
 11
93.4457705440716637
 21
103.8536586541997053
 31
0.0
  0
LINE
  5
103E
  8
0
 10
83.4457705440716637
 20
102.8536586541997053
 30
0.0
 11
83.9449776109681807
 21
103.3528657210961939
 31
0.0
  0
LINE
  5
103F
  8
0
 10
93.4457705440718769
 20
103.8536586541995064
 30
0.0
 11
93.4457705440718769
 21
77.8536586541995348
 31
0.0
  0
LINE
  5
1040
  8
0
 10
84.4457705440716495
 20
103.824383561263005
 30
0.0
 11
84.4457705440716495
 21
103.1656679552201012
 31
0.0
  0
LINE
  5
1041
  8
2
 10
87.6457705440718655
 20
98.3536586541997764
 30
0.0
 11
87.6457705440718655
 21
83.353658654199748
 31
0.0
  0
LINE
  5
1042
  8
2
 10
87.6457705440718655
 20
83.353658654199748
 30
0.0
 11
87.1457705440718655
 21
83.353658654199748
 31
0.0
  0
LINE
  5
1043
  8
2
 10
87.1457705440718655
 20
83.353658654199748
 30
0.0
 11
87.1457705440718655
 21
98.3536586541997764
 31
0.0
  0
LINE
  5
1044
  8
2
 10
83.4457705440718769
 20
80.6036586541997764
 30
0.0
 11
87.1457705440718655
 21
83.353658654199748
 31
0.0
  0
LINE
  5
1045
  8
0
 10
83.4457705440718769
 20
78.8536586542000038
 30
0.0
 11
83.4457705440718769
 21
102.8536586541999043
 31
0.0
  0
LINE
  5
1046
  8
0
 10
84.4457705440719337
 20
103.1656679552201012
 30
0.0
 11
92.9457705440705126
 21
103.1656679552201012
 31
0.0
  0
LINE
  5
1047
  8
0
 10
84.4457705440719337
 20
102.5103627087343057
 30
0.0
 11
92.9457705440705126
 21
102.5103627087344051
 31
0.0
  0
LINE
  5
1048
  8
0
 10
84.4457705440718769
 20
100.6315112552538977
 30
0.0
 11
92.9457705440704558
 21
100.6315112552538977
 31
0.0
  0
LINE
  5
1049
  8
0
 10
84.4457705440718769
 20
99.4206650457031316
 30
0.0
 11
92.9457705440704558
 21
99.4206650457031316
 31
0.0
  0
LINE
  5
104A
  8
0
 10
84.4457705440718769
 20
96.6087651332318416
 30
0.0
 11
92.945770544070399
 21
96.6087651332318131
 31
0.0
  0
LINE
  5
104B
  8
0
 10
84.4457705440718769
 20
95.0267183196717866
 30
0.0
 11
92.945770544070399
 21
95.0267183196717866
 31
0.0
  0
LINE
  5
104C
  8
0
 10
84.4457705440718769
 20
91.7098562199471559
 30
0.0
 11
92.9457705440704558
 21
91.7098562199471274
 31
0.0
  0
ARC
  5
104D
  8
0
 10
92.4626977132458592
 20
90.8536586541999469
 30
0.0
 40
0.9830735636117521
 50
299.4320041558182766
 51
60.5679958442827129
  0
POLYLINE
  5
104E
  8
0
 66
     1
 10
0.0
 20
0.0
 30
0.0
  0
VERTEX
  5
104F
  8
0
 10
92.945770544070399
 20
95.0267183196717866
 30
0.0
 42
0.126904853429963
 50
180.0
  0
VERTEX
  5
1050
  8
0
 10
93.129206483146902
 20
95.0740382211244253
 30
0.0
 42
0.1060810122797594
 50
180.0
  0
VERTEX
  5
1051
  8
0
 10
93.2993239346646845
 20
95.2221303337053087
 30
0.0
 42
0.085744797149215
 70
     2
 50
53.1512003829412834
  0
VERTEX
  5
1052
  8
0
 10
93.4168808816150857
 20
95.4523802820069847
 30
0.0
 42
0.0912209683726037
 50
53.1512003829412834
  0
VERTEX
  5
1053
  8
0
 10
93.4457705440708537
 20
95.693896668235638
 30
0.0
 42
0.0753899821444356
 50
180.0
  0
SEQEND
  5
1054
  8
0
  0
POLYLINE
  5
1055
  8
0
 66
     1
 10
0.0
 20
0.0
 30
0.0
  0
VERTEX
  5
1056
  8
0
 10
93.4457705440686368
 20
95.6938966682356664
 30
0.0
 42
0.0558453538950165
 50
180.0
  0
VERTEX
  5
1057
  8
0
 10
93.4045966250457553
 20
96.0613892787446986
 30
0.0
 42
0.0696234494827605
 50
180.0
  0
VERTEX
  5
1058
  8
0
 10
93.299323934662425
 20
96.3392380716882286
 30
0.0
 42
0.1059514344510999
 70
     2
 50
118.7163432381360053
  0
VERTEX
  5
1059
  8
0
 10
93.1185415384246653
 20
96.5485852055250149
 30
0.0
 42
0.1511721533581169
 50
118.7163432381360053
  0
VERTEX
  5
105A
  8
0
 10
92.945770544070399
 20
96.6087651332318131
 30
0.0
 42
0.1632707906765776
 50
180.0
  0
SEQEND
  5
105B
  8
0
  0
POLYLINE
  5
105C
  8
0
 66
     1
 10
0.0
 20
0.0
 30
0.0
  0
VERTEX
  5
105D
  8
0
 10
92.9457705440704558
 20
99.4206650457031316
 30
0.0
 42
0.0759738029860677
 50
180.0
  0
VERTEX
  5
105E
  8
0
 10
93.1427813920672492
 20
99.450774162794886
 30
0.0
 42
0.0861489681664724
 50
180.0
  0
VERTEX
  5
105F
  8
0
 10
93.2993239346646845
 20
99.531316470301519
 30
0.0
 42
0.1059611842089019
 70
     2
 50
37.0737894260680889
  0
VERTEX
  5
1060
  8
0
 10
93.4182908960991085
 20
99.6689996206925457
 30
0.0
 42
0.1471982240755334
 50
37.0737894260680889
  0
VERTEX
  5
1061
  8
0
 10
93.4457705440717064
 20
99.7984526402629086
 30
0.0
 42
0.1260278403512851
 50
180.0
  0
SEQEND
  5
1062
  8
0
  0
POLYLINE
  5
1063
  8
0
 66
     1
 10
0.0
 20
0.0
 30
0.0
  0
VERTEX
  5
1064
  8
0
 10
93.4457705440718769
 20
99.7984526402629513
 30
0.0
 42
0.061112938037691
 50
180.0
  0
VERTEX
  5
1065
  8
0
 10
93.4049141140280312
 20
100.1314741011481004
 30
0.0
 42
0.0744665224447995
 50
180.0
  0
VERTEX
  5
1066
  8
0
 10
93.2993239346646845
 20
100.3863137172872939
 30
0.0
 42
0.1069586370034828
 70
     2
 50
121.0236844281015038
  0
VERTEX
  5
1067
  8
0
 10
93.121897375440156
 20
100.5750304559538932
 30
0.0
 42
0.1427675426463582
 50
121.0236844281015038
  0
VERTEX
  5
1068
  8
0
 10
92.9457705440704558
 20
100.6315112552538977
 30
0.0
 42
0.1519322921768134
 50
180.0
  0
SEQEND
  5
1069
  8
0
  0
POLYLINE
  5
106A
  8
0
 66
     1
 10
0.0
 20
0.0
 30
0.0
  0
VERTEX
  5
106B
  8
0
 10
92.9457705440705126
 20
102.5103627087344051
 30
0.0
 42
0.0063945854363995
 50
180.0
  0
VERTEX
  5
106C
  8
0
 10
93.1527956338436951
 20
102.5130104962523063
 30
0.0
 42
0.0090272087772587
 50
180.0
  0
VERTEX
  5
106D
  8
0
 10
93.2993239346647556
 20
102.5194078675601048
 30
0.0
 42
0.021587231382142
 70
     2
 50
3.5343387134001181
  0
VERTEX
  5
106E
  8
0
 10
93.4417381415378969
 20
102.5343954769112997
 30
0.0
 50
3.5343387134001181
  0
VERTEX
  5
106F
  8
0
 10
93.4457705440717064
 20
102.5412448126714935
 30
0.0
 50
180.0
  0
SEQEND
  5
1070
  8
0
  0
POLYLINE
  5
1071
  8
0
 66
     1
 10
0.0
 20
0.0
 30
0.0
  0
VERTEX
  5
1072
  8
0
 10
93.4457705440719337
 20
102.5412448126714935
 30
0.0
 42
0.0803470550416908
 50
180.0
  0
VERTEX
  5
1073
  8
0
 10
93.4062459909888645
 20
102.7856184017911971
 30
0.0
 42
0.0890368192332178
 50
180.0
  0
VERTEX
  5
1074
  8
0
 10
93.2993239346648124
 20
102.9821290432647061
 30
0.0
 42
0.1049083465716828
 70
     2
 50
128.7267845612261965
  0
VERTEX
  5
1075
  8
0
 10
93.1312465692012239
 20
103.1196763274405015
 30
0.0
 42
0.1149585868589446
 50
128.7267845612261965
  0
VERTEX
  5
1076
  8
0
 10
92.9457705440705126
 20
103.1656679552201012
 30
0.0
 42
0.119763324839129
 50
180.0
  0
SEQEND
  5
1077
  8
0
  0
POLYLINE
  5
1078
  8
0
 66
     1
 10
0.0
 20
0.0
 30
0.0
  0
VERTEX
  5
1079
  8
0
 10
83.9457705440705126
 20
102.5412448126714935
 30
0.0
 42
-0.0803470550416908
 50
180.0
  0
VERTEX
  5
107A
  8
0
 10
83.9852950971535961
 20
102.7856184017911971
 30
0.0
 42
-0.0890368192332178
 50
180.0
  0
VERTEX
  5
107B
  8
0
 10
84.0922171534776339
 20
102.9821290432647061
 30
0.0
 42
-0.1049083465716828
 70
     2
 50
51.2732154387738603
  0
VERTEX
  5
107C
  8
0
 10
84.2602945189411798
 20
103.1196763274405015
 30
0.0
 42
-0.1149585868589616
 50
180.0
  0
VERTEX
  5
107D
  8
0
 10
84.4457705440719337
 20
103.1656679552201012
 30
0.0
 42
-0.119763324839129
 50
180.0
  0
SEQEND
  5
107E
  8
0
  0
POLYLINE
  5
107F
  8
0
 66
     1
 10
0.0
 20
0.0
 30
0.0
  0
VERTEX
  5
1080
  8
0
 10
84.4457705440719337
 20
102.5103627087344051
 30
0.0
 42
-0.0063945854363995
 50
180.0
  0
VERTEX
  5
1081
  8
0
 10
84.2387454542987371
 20
102.5130104962523063
 30
0.0
 42
-0.0090272087772587
 50
180.0
  0
VERTEX
  5
1082
  8
0
 10
84.0922171534776908
 20
102.5194078675601048
 30
0.0
 42
-0.021587231382142
 70
     2
 50
176.4656612865998966
  0
VERTEX
  5
1083
  8
0
 10
83.9498029466045068
 20
102.5343954769112997
 30
0.0
 50
180.0
  0
VERTEX
  5
1084
  8
0
 10
83.94577054407074
 20
102.5412448126714935
 30
0.0
 50
180.0
  0
SEQEND
  5
1085
  8
0
  0
POLYLINE
  5
1086
  8
0
 66
     1
 10
0.0
 20
0.0
 30
0.0
  0
VERTEX
  5
1087
  8
0
 10
83.9457705440704558
 20
99.7984526402629513
 30
0.0
 42
-0.061112938037691
 50
180.0
  0
VERTEX
  5
1088
  8
0
 10
83.9866269741142446
 20
100.1314741011481004
 30
0.0
 42
-0.0744665224447995
 50
180.0
  0
VERTEX
  5
1089
  8
0
 10
84.0922171534775771
 20
100.3863137172872939
 30
0.0
 42
-0.1069586370034828
 70
     2
 50
58.9763155718985317
  0
VERTEX
  5
108A
  8
0
 10
84.2696437127021341
 20
100.5750304559538932
 30
0.0
 42
-0.1427675426463604
 50
180.0
  0
VERTEX
  5
108B
  8
0
 10
84.4457705440718769
 20
100.6315112552538977
 30
0.0
 42
-0.1519322921768134
 50
180.0
  0
SEQEND
  5
108C
  8
0
  0
POLYLINE
  5
108D
  8
0
 66
     1
 10
0.0
 20
0.0
 30
0.0
  0
VERTEX
  5
108E
  8
0
 10
84.4457705440718769
 20
99.4206650457031316
 30
0.0
 42
-0.0759738029860677
 50
180.0
  0
VERTEX
  5
108F
  8
0
 10
84.2487596960750693
 20
99.450774162794886
 30
0.0
 42
-0.0861489681664724
 50
180.0
  0
VERTEX
  5
1090
  8
0
 10
84.0922171534776339
 20
99.531316470301519
 30
0.0
 42
-0.1059611842089019
 70
     2
 50
142.9262105739319111
  0
VERTEX
  5
1091
  8
0
 10
83.9732501920432242
 20
99.6689996206925457
 30
0.0
 42
-0.1471982240755334
 50
180.0
  0
VERTEX
  5
1092
  8
0
 10
83.9457705440706263
 20
99.7984526402629086
 30
0.0
 42
-0.1260278403512851
 50
180.0
  0
SEQEND
  5
1093
  8
0
  0
POLYLINE
  5
1094
  8
0
 66
     1
 10
0.0
 20
0.0
 30
0.0
  0
VERTEX
  5
1095
  8
0
 10
83.9457705440736959
 20
95.6938966682356664
 30
0.0
 42
-0.0558453538950165
 50
180.0
  0
VERTEX
  5
1096
  8
0
 10
83.9869444630965063
 20
96.0613892787446986
 30
0.0
 42
-0.0696234494827605
 50
180.0
  0
VERTEX
  5
1097
  8
0
 10
84.0922171534798508
 20
96.3392380716882286
 30
0.0
 42
-0.1059514344510999
 70
     2
 50
61.2836567618640089
  0
VERTEX
  5
1098
  8
0
 10
84.2729995497176105
 20
96.5485852055250149
 30
0.0
 42
-0.1511721533580949
 50
180.0
  0
VERTEX
  5
1099
  8
0
 10
84.4457705440718769
 20
96.6087651332318131
 30
0.0
 42
-0.1632707906765776
 50
180.0
  0
SEQEND
  5
109A
  8
0
  0
POLYLINE
  5
109B
  8
0
 66
     1
 10
0.0
 20
0.0
 30
0.0
  0
VERTEX
  5
109C
  8
0
 10
84.4457705440718769
 20
95.0267183196717866
 30
0.0
 42
-0.126904853429963
 50
180.0
  0
VERTEX
  5
109D
  8
0
 10
84.2623346049953739
 20
95.0740382211244253
 30
0.0
 42
-0.1060810122797594
 50
180.0
  0
VERTEX
  5
109E
  8
0
 10
84.0922171534775771
 20
95.2221303337053087
 30
0.0
 42
-0.085744797149215
 70
     2
 50
126.8487996170587024
  0
VERTEX
  5
109F
  8
0
 10
83.9746602065271759
 20
95.4523802820069847
 30
0.0
 42
-0.0912209683726037
 50
180.0
  0
VERTEX
  5
10A0
  8
0
 10
83.9457705440714079
 20
95.693896668235638
 30
0.0
 42
-0.0753899821444356
 50
180.0
  0
SEQEND
  5
10A1
  8
0
  0
ARC
  5
10A2
  8
0
 10
84.9288433748953935
 20
90.853658654199748
 30
0.0
 40
0.9830735636114077
 50
119.432004155657296
 51
240.5679958443461999
  0
LINE
  5
10A3
  8
0
 10
84.4457705440718769
 20
95.0267183196717866
 30
0.0
 11
84.4457705440718769
 21
91.7086559011854945
 31
0.0
  0
LINE
  5
10A4
  8
0
 10
84.4457705440718769
 20
99.4206650457031031
 30
0.0
 11
84.4457705440718769
 21
96.6087651332318416
 31
0.0
  0
LINE
  5
10A5
  8
0
 10
84.4457705440719337
 20
102.5103627087343057
 30
0.0
 11
84.4457705440718769
 21
100.6315112552538977
 31
0.0
  0
LINE
  5
10A6
  8
2
 10
83.4457705440718769
 20
101.1036586541997053
 30
0.0
 11
87.1457705440718655
 21
98.3536586541997764
 31
0.0
  0
LINE
  5
10A7
  8
2
 10
87.6457705440718655
 20
98.3536586541997764
 30
0.0
 11
87.1457705440718655
 21
98.3536586541997764
 31
0.0
  0
LINE
  5
10A8
  8
0
 10
84.4457705440716495
 20
103.824383561263005
 30
0.0
 11
92.9457705440663062
 21
103.824383561263005
 31
0.0
  0
POLYLINE
  5
10A9
  8
0
 66
     1
 10
0.0
 20
0.0
 30
0.0
  0
VERTEX
  5
10AA
  8
0
 10
83.9449776109640737
 20
103.3528657210922006
 30
0.0
 42
0.0932326856578775
 50
90.0
  0
VERTEX
  5
10AB
  8
0
 10
84.1380093025641713
 20
103.3891750600317039
 30
0.0
 42
0.0961553825390117
 50
90.0
  0
VERTEX
  5
10AC
  8
0
 10
84.2990916899347553
 20
103.4909700990278054
 30
0.0
 42
0.1005995558164784
 70
     2
 50
43.2754148837487875
  0
VERTEX
  5
10AD
  8
0
 10
84.4081269094301661
 20
103.6453349274404019
 30
0.0
 42
0.1039846014298173
 50
43.2754148837487875
  0
VERTEX
  5
10AE
  8
0
 10
84.4457705440716495
 20
103.824383561263005
 30
0.0
 42
0.1039846014297789
 50
90.0
  0
SEQEND
  5
10AF
  8
0
  0
POLYLINE
  5
10B0
  8
0
 66
     1
 10
0.0
 20
0.0
 30
0.0
  0
VERTEX
  5
10B1
  8
0
 10
92.9457705440702853
 20
103.824383561263005
 30
0.0
 42
0.0060619562265407
 50
90.0
  0
VERTEX
  5
10B2
  8
0
 10
93.1528039033553341
 20
103.8268937078269971
 30
0.0
 42
0.008559181375748
 50
90.0
  0
VERTEX
  5
10B3
  8
0
 10
93.2993239346645282
 20
103.8329580374644934
 30
0.0
 42
0.0204875976357465
 70
     2
 50
3.3508529875824729
  0
VERTEX
  5
10B4
  8
0
 10
93.4419496808750978
 20
103.8471895304544006
 30
0.0
 50
3.3508529875824729
  0
VERTEX
  5
10B5
  8
0
 10
93.4457705440718769
 20
103.8536586541997053
 30
0.0
 50
90.0
  0
SEQEND
  5
10B6
  8
0
  0
POLYLINE
  5
10B7
  8
0
 66
     1
 10
0.0
 20
0.0
 30
0.0
  0
VERTEX
  5
10B8
  8
0
 10
92.9457705440706832
 20
77.8829337471365619
 30
0.0
 42
-0.0060619562265407
 50
90.0
  0
VERTEX
  5
10B9
  8
0
 10
93.1528039033557747
 20
77.8804236005724846
 30
0.0
 42
-0.008559181375748
 50
90.0
  0
VERTEX
  5
10BA
  8
0
 10
93.2993239346649688
 20
77.8743592709350736
 30
0.0
 42
-0.0204875976357465
 70
     2
 50
356.6491470124175862
  0
VERTEX
  5
10BB
  8
0
 10
93.4419496808754957
 20
77.8601277779451237
 30
0.0
 50
90.0
  0
VERTEX
  5
10BC
  8
0
 10
93.4457705440723316
 20
77.8536586541997764
 30
0.0
 50
90.0
  0
SEQEND
  5
10BD
  8
0
  0
POLYLINE
  5
10BE
  8
0
 66
     1
 10
0.0
 20
0.0
 30
0.0
  0
VERTEX
  5
10BF
  8
0
 10
83.9449776109644858
 20
78.3544515873073664
 30
0.0
 42
-0.0932326856578775
 50
90.0
  0
VERTEX
  5
10C0
  8
0
 10
84.1380093025646261
 20
78.3181422483678631
 30
0.0
 42
-0.0961553825390117
 50
90.0
  0
VERTEX
  5
10C1
  8
0
 10
84.2990916899352101
 20
78.2163472093717616
 30
0.0
 42
-0.1005995558164784
 70
     2
 50
316.7245851162513191
  0
VERTEX
  5
10C2
  8
0
 10
84.408126909430564
 20
78.0619823809591225
 30
0.0
 42
-0.1039846014298173
 50
90.0
  0
VERTEX
  5
10C3
  8
0
 10
84.4457705440721043
 20
77.8829337471365619
 30
0.0
 42
-0.1039846014297789
 50
90.0
  0
SEQEND
  5
10C4
  8
0
  0
LINE
  5
10C5
  8
0
 10
84.4457705440721043
 20
77.8829337471365619
 30
0.0
 11
92.945770544066761
 21
77.8829337471365619
 31
0.0
  0
LINE
  5
10C6
  8
0
 10
84.4457705440718769
 20
79.1969545996651476
 30
0.0
 11
84.4457705440718769
 21
81.075806053145584
 31
0.0
  0
LINE
  5
10C7
  8
0
 10
84.4457705440718769
 20
82.2866522626964638
 30
0.0
 11
84.4457705440718769
 21
85.0985521751677396
 31
0.0
  0
LINE
  5
10C8
  8
0
 10
84.4457705440718769
 20
86.6805989887277946
 30
0.0
 11
84.4457705440718769
 21
89.9974610884523543
 31
0.0
  0
POLYLINE
  5
10C9
  8
0
 66
     1
 10
0.0
 20
0.0
 30
0.0
  0
VERTEX
  5
10CA
  8
0
 10
84.4457705440718769
 20
86.6805989887277946
 30
0.0
 42
0.126904853429963
 50
90.0
  0
VERTEX
  5
10CB
  8
0
 10
84.2623346049954449
 20
86.6332790872751701
 30
0.0
 42
0.1060810122797594
 50
90.0
  0
VERTEX
  5
10CC
  8
0
 10
84.0922171534776339
 20
86.4851869746942441
 30
0.0
 42
0.085744797149215
 70
     2
 50
233.1512003829413118
  0
VERTEX
  5
10CD
  8
0
 10
83.9746602065272754
 20
86.2549370263925965
 30
0.0
 42
0.0912209683726037
 50
90.0
  0
VERTEX
  5
10CE
  8
0
 10
83.9457705440715358
 20
86.0134206401639432
 30
0.0
 42
0.0753899821444356
 50
90.0
  0
SEQEND
  5
10CF
  8
0
  0
POLYLINE
  5
10D0
  8
0
 66
     1
 10
0.0
 20
0.0
 30
0.0
  0
VERTEX
  5
10D1
  8
0
 10
83.9457705440736959
 20
86.0134206401639148
 30
0.0
 42
0.0558453538950165
 50
90.0
  0
VERTEX
  5
10D2
  8
0
 10
83.9869444630965631
 20
85.6459280296548826
 30
0.0
 42
0.0696234494827605
 50
90.0
  0
VERTEX
  5
10D3
  8
0
 10
84.0922171534799077
 20
85.3680792367113526
 30
0.0
 42
0.1059514344510999
 70
     2
 50
298.7163432381360053
  0
VERTEX
  5
10D4
  8
0
 10
84.2729995497176674
 20
85.1587321028745663
 30
0.0
 42
0.1511721533578267
 50
90.0
  0
VERTEX
  5
10D5
  8
0
 10
84.4457705440718769
 20
85.0985521751677396
 30
0.0
 42
0.1632707906765776
 50
90.0
  0
SEQEND
  5
10D6
  8
0
  0
POLYLINE
  5
10D7
  8
0
 66
     1
 10
0.0
 20
0.0
 30
0.0
  0
VERTEX
  5
10D8
  8
0
 10
84.4457705440719906
 20
82.2866522626964638
 30
0.0
 42
0.0759738029860677
 50
90.0
  0
VERTEX
  5
10D9
  8
0
 10
84.2487596960751262
 20
82.2565431456047378
 30
0.0
 42
0.0861489681664724
 50
90.0
  0
VERTEX
  5
10DA
  8
0
 10
84.0922171534776908
 20
82.1760008380980906
 30
0.0
 42
0.1059611842089019
 70
     2
 50
217.0737894260680889
  0
VERTEX
  5
10DB
  8
0
 10
83.9732501920432952
 20
82.0383176877070781
 30
0.0
 42
0.1471982240755334
 50
90.0
  0
VERTEX
  5
10DC
  8
0
 10
83.94577054407074
 20
81.9088646681367152
 30
0.0
 42
0.1260278403512851
 50
90.0
  0
SEQEND
  5
10DD
  8
0
  0
POLYLINE
  5
10DE
  8
0
 66
     1
 10
0.0
 20
0.0
 30
0.0
  0
VERTEX
  5
10DF
  8
0
 10
83.9457705440705126
 20
81.9088646681366725
 30
0.0
 42
0.061112938037691
 50
90.0
  0
VERTEX
  5
10E0
  8
0
 10
83.9866269741143583
 20
81.5758432072514239
 30
0.0
 42
0.0744665224447995
 50
90.0
  0
VERTEX
  5
10E1
  8
0
 10
84.0922171534776339
 20
81.3210035911122446
 30
0.0
 42
0.1069586370034828
 70
     2
 50
301.0236844281014896
  0
VERTEX
  5
10E2
  8
0
 10
84.2696437127022477
 20
81.1322868524457164
 30
0.0
 42
0.142767542645802
 50
90.0
  0
VERTEX
  5
10E3
  8
0
 10
84.4457705440718769
 20
81.075806053145584
 30
0.0
 42
0.1519322921768134
 50
90.0
  0
SEQEND
  5
10E4
  8
0
  0
POLYLINE
  5
10E5
  8
0
 66
     1
 10
0.0
 20
0.0
 30
0.0
  0
VERTEX
  5
10E6
  8
0
 10
84.4457705440718769
 20
79.196954599665105
 30
0.0
 42
0.0063945854363995
 50
90.0
  0
VERTEX
  5
10E7
  8
0
 10
84.2387454542986802
 20
79.1943068121471896
 30
0.0
 42
0.0090272087772587
 50
90.0
  0
VERTEX
  5
10E8
  8
0
 10
84.0922171534776339
 20
79.1879094408394195
 30
0.0
 42
0.021587231382142
 70
     2
 50
183.5343387134001034
  0
VERTEX
  5
10E9
  8
0
 10
83.9498029466045068
 20
79.1729218314881535
 30
0.0
 50
90.0
  0
VERTEX
  5
10EA
  8
0
 10
83.9457705440706832
 20
79.1660724957280451
 30
0.0
 50
90.0
  0
SEQEND
  5
10EB
  8
0
  0
POLYLINE
  5
10EC
  8
0
 66
     1
 10
0.0
 20
0.0
 30
0.0
  0
VERTEX
  5
10ED
  8
0
 10
83.9457705440704558
 20
79.1660724957280166
 30
0.0
 42
0.0803470550416908
 50
90.0
  0
VERTEX
  5
10EE
  8
0
 10
83.9852950971535392
 20
78.9216989066083414
 30
0.0
 42
0.0890368192332178
 50
90.0
  0
VERTEX
  5
10EF
  8
0
 10
84.0922171534776339
 20
78.7251882651348041
 30
0.0
 42
0.1049083465716828
 70
     2
 50
308.7267845612262249
  0
VERTEX
  5
10F0
  8
0
 10
84.2602945189411798
 20
78.587640980958966
 30
0.0
 42
0.1149585868589762
 50
90.0
  0
VERTEX
  5
10F1
  8
0
 10
84.4457705440718769
 20
78.5416493531794231
 30
0.0
 42
0.119763324839129
 50
90.0
  0
SEQEND
  5
10F2
  8
0
  0
POLYLINE
  5
10F3
  8
0
 66
     1
 10
0.0
 20
0.0
 30
0.0
  0
VERTEX
  5
10F4
  8
0
 10
93.4457705440718769
 20
79.1660724957280166
 30
0.0
 42
-0.0803470550416908
 50
90.0
  0
VERTEX
  5
10F5
  8
0
 10
93.4062459909887792
 20
78.9216989066083414
 30
0.0
 42
-0.0890368192332178
 50
90.0
  0
VERTEX
  5
10F6
  8
0
 10
93.2993239346647556
 20
78.7251882651348041
 30
0.0
 42
-0.1049083465716828
 70
     2
 50
231.2732154387738035
  0
VERTEX
  5
10F7
  8
0
 10
93.1312465692012239
 20
78.587640980958966
 30
0.0
 42
-0.1149585868589762
 50
90.0
  0
VERTEX
  5
10F8
  8
0
 10
92.9457705440704558
 20
78.5416493531794231
 30
0.0
 42
-0.119763324839129
 50
90.0
  0
SEQEND
  5
10F9
  8
0
  0
POLYLINE
  5
10FA
  8
0
 66
     1
 10
0.0
 20
0.0
 30
0.0
  0
VERTEX
  5
10FB
  8
0
 10
92.9457705440704558
 20
79.196954599665105
 30
0.0
 42
-0.0063945854363995
 50
90.0
  0
VERTEX
  5
10FC
  8
0
 10
93.1527956338436525
 20
79.1943068121471896
 30
0.0
 42
-0.0090272087772587
 50
90.0
  0
VERTEX
  5
10FD
  8
0
 10
93.2993239346647556
 20
79.1879094408394195
 30
0.0
 42
-0.021587231382142
 70
     2
 50
356.465661286599925
  0
VERTEX
  5
10FE
  8
0
 10
93.4417381415378969
 20
79.1729218314881535
 30
0.0
 50
90.0
  0
VERTEX
  5
10FF
  8
0
 10
93.4457705440716637
 20
79.1660724957280451
 30
0.0
 50
90.0
  0
SEQEND
  5
1100
  8
0
  0
POLYLINE
  5
1101
  8
0
 66
     1
 10
0.0
 20
0.0
 30
0.0
  0
VERTEX
  5
1102
  8
0
 10
93.4457705440719337
 20
81.9088646681366725
 30
0.0
 42
-0.061112938037691
 50
90.0
  0
VERTEX
  5
1103
  8
0
 10
93.4049141140281449
 20
81.5758432072514239
 30
0.0
 42
-0.0744665224447995
 50
90.0
  0
VERTEX
  5
1104
  8
0
 10
93.2993239346647556
 20
81.3210035911122446
 30
0.0
 42
-0.1069586370034828
 70
     2
 50
238.9763155718985104
  0
VERTEX
  5
1105
  8
0
 10
93.1218973754402555
 20
81.1322868524457164
 30
0.0
 42
-0.1427675426460051
 50
90.0
  0
VERTEX
  5
1106
  8
0
 10
92.945770544070399
 20
81.075806053145584
 30
0.0
 42
-0.1519322921768134
 50
90.0
  0
SEQEND
  5
1107
  8
0
  0
POLYLINE
  5
1108
  8
0
 66
     1
 10
0.0
 20
0.0
 30
0.0
  0
VERTEX
  5
1109
  8
0
 10
92.9457705440705126
 20
82.2866522626964638
 30
0.0
 42
-0.0759738029860677
 50
90.0
  0
VERTEX
  5
110A
  8
0
 10
93.1427813920673344
 20
82.2565431456047378
 30
0.0
 42
-0.0861489681664724
 50
90.0
  0
VERTEX
  5
110B
  8
0
 10
93.2993239346647556
 20
82.1760008380980906
 30
0.0
 42
-0.1059611842089019
 70
     2
 50
322.9262105739318827
  0
VERTEX
  5
110C
  8
0
 10
93.418290896099208
 20
82.0383176877070781
 30
0.0
 42
-0.1471982240755334
 50
90.0
  0
VERTEX
  5
110D
  8
0
 10
93.4457705440717632
 20
81.9088646681367152
 30
0.0
 42
-0.1260278403512851
 50
90.0
  0
SEQEND
  5
110E
  8
0
  0
POLYLINE
  5
110F
  8
0
 66
     1
 10
0.0
 20
0.0
 30
0.0
  0
VERTEX
  5
1110
  8
0
 10
93.4457705440686937
 20
86.0134206401639148
 30
0.0
 42
-0.0558453538950165
 50
90.0
  0
VERTEX
  5
1111
  8
0
 10
93.4045966250458264
 20
85.6459280296548826
 30
0.0
 42
-0.0696234494827605
 50
90.0
  0
VERTEX
  5
1112
  8
0
 10
93.2993239346624961
 20
85.3680792367113526
 30
0.0
 42
-0.1059514344510999
 70
     2
 50
241.2836567618641084
  0
VERTEX
  5
1113
  8
0
 10
93.1185415384247364
 20
85.1587321028745663
 30
0.0
 42
-0.1511721533581735
 50
90.0
  0
VERTEX
  5
1114
  8
0
 10
92.945770544070399
 20
85.098552175167768
 30
0.0
 42
-0.1632707906765776
 50
90.0
  0
SEQEND
  5
1115
  8
0
  0
POLYLINE
  5
1116
  8
0
 66
     1
 10
0.0
 20
0.0
 30
0.0
  0
VERTEX
  5
1117
  8
0
 10
92.9457705440705126
 20
86.6805989887277946
 30
0.0
 42
-0.126904853429963
 50
90.0
  0
VERTEX
  5
1118
  8
0
 10
93.1292064831470157
 20
86.6332790872751701
 30
0.0
 42
-0.1060810122797594
 50
90.0
  0
VERTEX
  5
1119
  8
0
 10
93.2993239346647556
 20
86.4851869746942441
 30
0.0
 42
-0.085744797149215
 70
     2
 50
306.8487996170587735
  0
VERTEX
  5
111A
  8
0
 10
93.4168808816150857
 20
86.2549370263925965
 30
0.0
 42
-0.0912209683726037
 50
90.0
  0
VERTEX
  5
111B
  8
0
 10
93.4457705440708537
 20
86.0134206401639432
 30
0.0
 42
-0.0753899821444356
 50
90.0
  0
SEQEND
  5
111C
  8
0
  0
LINE
  5
111D
  8
0
 10
84.4457705440714648
 20
89.997461088452539
 30
0.0
 11
92.9457705440700437
 21
89.9974610884525532
 31
0.0
  0
LINE
  5
111E
  8
0
 10
84.4457705440718769
 20
86.6805989887277946
 30
0.0
 11
92.9457705440705126
 21
86.6805989887277946
 31
0.0
  0
LINE
  5
111F
  8
0
 10
84.4457705440718769
 20
85.0985521751677396
 30
0.0
 11
92.945770544070399
 21
85.098552175167768
 31
0.0
  0
LINE
  5
1120
  8
0
 10
84.4457705440719337
 20
82.2866522626964638
 30
0.0
 11
92.9457705440705126
 21
82.2866522626964638
 31
0.0
  0
LINE
  5
1121
  8
0
 10
84.4457705440718769
 20
81.075806053145584
 30
0.0
 11
92.945770544070399
 21
81.075806053145584
 31
0.0
  0
LINE
  5
1122
  8
0
 10
84.4457705440718769
 20
79.1969545996651476
 30
0.0
 11
92.9457705440704558
 21
79.196954599665105
 31
0.0
  0
LINE
  5
1123
  8
0
 10
84.4457705440718769
 20
78.5416493531794231
 30
0.0
 11
92.9457705440704558
 21
78.5416493531794231
 31
0.0
  0
LINE
  5
1124
  8
0
 10
84.4457705440718058
 20
77.8829337471365335
 30
0.0
 11
84.4457705440718769
 21
78.5416493531794231
 31
0.0
  0
LINE
  5
1125
  8
0
 10
83.4457705440721043
 20
78.8536586541997764
 30
0.0
 11
83.9449776109685644
 21
78.3544515873032736
 31
0.0
  0
LINE
  5
1126
  8
0
 10
94.4457705440718769
 20
147.8536586541995064
 30
0.0
 11
94.4457705440718769
 21
123.8536586541995064
 31
0.0
  0
LINE
  5
1127
  8
0
 10
93.4457705440721043
 20
122.8536586541997053
 30
0.0
 11
94.4457705440721043
 21
123.8536586541997053
 31
0.0
  0
LINE
  5
1128
  8
0
 10
94.4457705440716495
 20
147.8536586541997053
 30
0.0
 11
93.4457705440716637
 21
148.8536586541997053
 31
0.0
  0
LINE
  5
1129
  8
0
 10
83.4457705440716637
 20
147.8536586541997053
 30
0.0
 11
83.9449776109681807
 21
148.3528657210962933
 31
0.0
  0
LINE
  5
112A
  8
0
 10
93.4457705440718769
 20
148.8536586541995064
 30
0.0
 11
93.4457705440718769
 21
122.8536586541995064
 31
0.0
  0
LINE
  5
112B
  8
0
 10
84.4457705440716495
 20
148.824383561263005
 30
0.0
 11
84.4457705440716495
 21
148.1656679552201012
 31
0.0
  0
LINE
  5
112C
  8
2
 10
87.6457705440718655
 20
143.3536586541997053
 30
0.0
 11
87.6457705440718655
 21
128.3536586541997053
 31
0.0
  0
LINE
  5
112D
  8
2
 10
87.6457705440718655
 20
128.3536586541997053
 30
0.0
 11
87.1457705440718655
 21
128.3536586541997053
 31
0.0
  0
LINE
  5
112E
  8
2
 10
87.1457705440718655
 20
128.3536586541997053
 30
0.0
 11
87.1457705440718655
 21
143.3536586541997053
 31
0.0
  0
LINE
  5
112F
  8
2
 10
83.4457705440718769
 20
125.6036586541998048
 30
0.0
 11
87.1457705440718655
 21
128.3536586541997053
 31
0.0
  0
LINE
  5
1130
  8
0
 10
83.4457705440718769
 20
123.8536586542000038
 30
0.0
 11
83.4457705440718769
 21
147.8536586541999895
 31
0.0
  0
LINE
  5
1131
  8
0
 10
84.4457705440719337
 20
148.1656679552201012
 30
0.0
 11
92.9457705440705126
 21
148.1656679552201012
 31
0.0
  0
LINE
  5
1132
  8
0
 10
84.4457705440719337
 20
147.5103627087343057
 30
0.0
 11
92.9457705440705126
 21
147.5103627087343909
 31
0.0
  0
LINE
  5
1133
  8
0
 10
84.4457705440718769
 20
145.6315112552539119
 30
0.0
 11
92.9457705440704558
 21
145.6315112552539119
 31
0.0
  0
LINE
  5
1134
  8
0
 10
84.4457705440718769
 20
144.4206650457030889
 30
0.0
 11
92.9457705440704558
 21
144.4206650457030889
 31
0.0
  0
LINE
  5
1135
  8
0
 10
84.4457705440718769
 20
141.6087651332317989
 30
0.0
 11
92.945770544070399
 21
141.6087651332317989
 31
0.0
  0
LINE
  5
1136
  8
0
 10
84.4457705440718769
 20
140.0267183196716871
 30
0.0
 11
92.945770544070399
 21
140.0267183196716871
 31
0.0
  0
LINE
  5
1137
  8
0
 10
84.4457705440718769
 20
136.7098562199471132
 30
0.0
 11
92.9457705440704558
 21
136.7098562199471132
 31
0.0
  0
ARC
  5
1138
  8
0
 10
92.4626977132458592
 20
135.8536586541999043
 30
0.0
 40
0.9830735636117521
 50
299.4320041558182197
 51
60.5679958442826205
  0
POLYLINE
  5
1139
  8
0
 66
     1
 10
0.0
 20
0.0
 30
0.0
  0
VERTEX
  5
113A
  8
0
 10
92.945770544070399
 20
140.0267183196716871
 30
0.0
 42
0.126904853429963
 50
180.0
  0
VERTEX
  5
113B
  8
0
 10
93.129206483146902
 20
140.0740382211243968
 30
0.0
 42
0.1060810122797594
 50
180.0
  0
VERTEX
  5
113C
  8
0
 10
93.2993239346646845
 20
140.2221303337053087
 30
0.0
 42
0.085744797149215
 70
     2
 50
53.1512003829412834
  0
VERTEX
  5
113D
  8
0
 10
93.4168808816150857
 20
140.4523802820069136
 30
0.0
 42
0.0912209683726037
 50
53.1512003829412834
  0
VERTEX
  5
113E
  8
0
 10
93.4457705440708537
 20
140.6938966682355954
 30
0.0
 42
0.0753899821444356
 50
180.0
  0
SEQEND
  5
113F
  8
0
  0
POLYLINE
  5
1140
  8
0
 66
     1
 10
0.0
 20
0.0
 30
0.0
  0
VERTEX
  5
1141
  8
0
 10
93.4457705440686368
 20
140.6938966682355954
 30
0.0
 42
0.0558453538950165
 50
180.0
  0
VERTEX
  5
1142
  8
0
 10
93.4045966250457553
 20
141.0613892787447128
 30
0.0
 42
0.0696234494827605
 50
180.0
  0
VERTEX
  5
1143
  8
0
 10
93.299323934662425
 20
141.339238071688186
 30
0.0
 42
0.1059514344510999
 70
     2
 50
118.7163432381360053
  0
VERTEX
  5
1144
  8
0
 10
93.1185415384246653
 20
141.5485852055250007
 30
0.0
 42
0.1511721533581169
 50
118.7163432381360053
  0
VERTEX
  5
1145
  8
0
 10
92.945770544070399
 20
141.6087651332317989
 30
0.0
 42
0.1632707906765776
 50
180.0
  0
SEQEND
  5
1146
  8
0
  0
POLYLINE
  5
1147
  8
0
 66
     1
 10
0.0
 20
0.0
 30
0.0
  0
VERTEX
  5
1148
  8
0
 10
92.9457705440704558
 20
144.4206650457030889
 30
0.0
 42
0.0759738029860677
 50
180.0
  0
VERTEX
  5
1149
  8
0
 10
93.1427813920672492
 20
144.4507741627948008
 30
0.0
 42
0.0861489681664724
 50
180.0
  0
VERTEX
  5
114A
  8
0
 10
93.2993239346646845
 20
144.5313164703015048
 30
0.0
 42
0.1059611842089019
 70
     2
 50
37.0737894260680889
  0
VERTEX
  5
114B
  8
0
 10
93.4182908960991085
 20
144.6689996206924889
 30
0.0
 42
0.1471982240755334
 50
37.0737894260680889
  0
VERTEX
  5
114C
  8
0
 10
93.4457705440717064
 20
144.7984526402628944
 30
0.0
 42
0.1260278403512851
 50
180.0
  0
SEQEND
  5
114D
  8
0
  0
POLYLINE
  5
114E
  8
0
 66
     1
 10
0.0
 20
0.0
 30
0.0
  0
VERTEX
  5
114F
  8
0
 10
93.4457705440718769
 20
144.7984526402628944
 30
0.0
 42
0.061112938037691
 50
180.0
  0
VERTEX
  5
1150
  8
0
 10
93.4049141140280312
 20
145.1314741011480862
 30
0.0
 42
0.0744665224447995
 50
180.0
  0
VERTEX
  5
1151
  8
0
 10
93.2993239346646845
 20
145.3863137172872939
 30
0.0
 42
0.1069586370034828
 70
     2
 50
121.0236844281015038
  0
VERTEX
  5
1152
  8
0
 10
93.121897375440156
 20
145.5750304559539074
 30
0.0
 42
0.1427675426463582
 50
121.0236844281015038
  0
VERTEX
  5
1153
  8
0
 10
92.9457705440704558
 20
145.6315112552539119
 30
0.0
 42
0.1519322921768134
 50
180.0
  0
SEQEND
  5
1154
  8
0
  0
POLYLINE
  5
1155
  8
0
 66
     1
 10
0.0
 20
0.0
 30
0.0
  0
VERTEX
  5
1156
  8
0
 10
92.9457705440705126
 20
147.5103627087343909
 30
0.0
 42
0.0063945854363995
 50
180.0
  0
VERTEX
  5
1157
  8
0
 10
93.1527956338436951
 20
147.5130104962522921
 30
0.0
 42
0.0090272087772587
 50
180.0
  0
VERTEX
  5
1158
  8
0
 10
93.2993239346647556
 20
147.5194078675600906
 30
0.0
 42
0.021587231382142
 70
     2
 50
3.5343387134001181
  0
VERTEX
  5
1159
  8
0
 10
93.4417381415378969
 20
147.5343954769112997
 30
0.0
 50
3.5343387134001181
  0
VERTEX
  5
115A
  8
0
 10
93.4457705440717064
 20
147.5412448126714935
 30
0.0
 50
180.0
  0
SEQEND
  5
115B
  8
0
  0
POLYLINE
  5
115C
  8
0
 66
     1
 10
0.0
 20
0.0
 30
0.0
  0
VERTEX
  5
115D
  8
0
 10
93.4457705440719337
 20
147.5412448126714935
 30
0.0
 42
0.0803470550416908
 50
180.0
  0
VERTEX
  5
115E
  8
0
 10
93.4062459909888645
 20
147.7856184017911119
 30
0.0
 42
0.0890368192332178
 50
180.0
  0
VERTEX
  5
115F
  8
0
 10
93.2993239346648124
 20
147.9821290432647061
 30
0.0
 42
0.1049083465716828
 70
     2
 50
128.7267845612261965
  0
VERTEX
  5
1160
  8
0
 10
93.1312465692012239
 20
148.119676327440601
 30
0.0
 42
0.1149585868589446
 50
128.7267845612261965
  0
VERTEX
  5
1161
  8
0
 10
92.9457705440705126
 20
148.1656679552201012
 30
0.0
 42
0.119763324839129
 50
180.0
  0
SEQEND
  5
1162
  8
0
  0
POLYLINE
  5
1163
  8
0
 66
     1
 10
0.0
 20
0.0
 30
0.0
  0
VERTEX
  5
1164
  8
0
 10
83.9457705440705126
 20
147.5412448126714935
 30
0.0
 42
-0.0803470550416908
 50
180.0
  0
VERTEX
  5
1165
  8
0
 10
83.9852950971535961
 20
147.7856184017911119
 30
0.0
 42
-0.0890368192332178
 50
180.0
  0
VERTEX
  5
1166
  8
0
 10
84.0922171534776339
 20
147.9821290432647061
 30
0.0
 42
-0.1049083465716828
 70
     2
 50
51.2732154387738603
  0
VERTEX
  5
1167
  8
0
 10
84.2602945189411798
 20
148.119676327440601
 30
0.0
 42
-0.1149585868589616
 50
180.0
  0
VERTEX
  5
1168
  8
0
 10
84.4457705440719337
 20
148.1656679552201012
 30
0.0
 42
-0.119763324839129
 50
180.0
  0
SEQEND
  5
1169
  8
0
  0
POLYLINE
  5
116A
  8
0
 66
     1
 10
0.0
 20
0.0
 30
0.0
  0
VERTEX
  5
116B
  8
0
 10
84.4457705440719337
 20
147.5103627087343909
 30
0.0
 42
-0.0063945854363995
 50
180.0
  0
VERTEX
  5
116C
  8
0
 10
84.2387454542987371
 20
147.5130104962522921
 30
0.0
 42
-0.0090272087772587
 50
180.0
  0
VERTEX
  5
116D
  8
0
 10
84.0922171534776908
 20
147.5194078675600906
 30
0.0
 42
-0.021587231382142
 70
     2
 50
176.4656612865998966
  0
VERTEX
  5
116E
  8
0
 10
83.9498029466045068
 20
147.5343954769112997
 30
0.0
 50
180.0
  0
VERTEX
  5
116F
  8
0
 10
83.94577054407074
 20
147.5412448126714935
 30
0.0
 50
180.0
  0
SEQEND
  5
1170
  8
0
  0
POLYLINE
  5
1171
  8
0
 66
     1
 10
0.0
 20
0.0
 30
0.0
  0
VERTEX
  5
1172
  8
0
 10
83.9457705440704558
 20
144.7984526402628944
 30
0.0
 42
-0.061112938037691
 50
180.0
  0
VERTEX
  5
1173
  8
0
 10
83.9866269741142446
 20
145.1314741011480862
 30
0.0
 42
-0.0744665224447995
 50
180.0
  0
VERTEX
  5
1174
  8
0
 10
84.0922171534775771
 20
145.3863137172872939
 30
0.0
 42
-0.1069586370034828
 70
     2
 50
58.9763155718985317
  0
VERTEX
  5
1175
  8
0
 10
84.2696437127021341
 20
145.5750304559539074
 30
0.0
 42
-0.1427675426463604
 50
180.0
  0
VERTEX
  5
1176
  8
0
 10
84.4457705440718769
 20
145.6315112552539119
 30
0.0
 42
-0.1519322921768134
 50
180.0
  0
SEQEND
  5
1177
  8
0
  0
POLYLINE
  5
1178
  8
0
 66
     1
 10
0.0
 20
0.0
 30
0.0
  0
VERTEX
  5
1179
  8
0
 10
84.4457705440718769
 20
144.4206650457030889
 30
0.0
 42
-0.0759738029860677
 50
180.0
  0
VERTEX
  5
117A
  8
0
 10
84.2487596960750693
 20
144.4507741627948008
 30
0.0
 42
-0.0861489681664724
 50
180.0
  0
VERTEX
  5
117B
  8
0
 10
84.0922171534776339
 20
144.5313164703015048
 30
0.0
 42
-0.1059611842089019
 70
     2
 50
142.9262105739319111
  0
VERTEX
  5
117C
  8
0
 10
83.9732501920432242
 20
144.6689996206924889
 30
0.0
 42
-0.1471982240755334
 50
180.0
  0
VERTEX
  5
117D
  8
0
 10
83.9457705440706263
 20
144.7984526402628944
 30
0.0
 42
-0.1260278403512851
 50
180.0
  0
SEQEND
  5
117E
  8
0
  0
POLYLINE
  5
117F
  8
0
 66
     1
 10
0.0
 20
0.0
 30
0.0
  0
VERTEX
  5
1180
  8
0
 10
83.9457705440736959
 20
140.6938966682355954
 30
0.0
 42
-0.0558453538950165
 50
180.0
  0
VERTEX
  5
1181
  8
0
 10
83.9869444630965063
 20
141.0613892787447128
 30
0.0
 42
-0.0696234494827605
 50
180.0
  0
VERTEX
  5
1182
  8
0
 10
84.0922171534798508
 20
141.339238071688186
 30
0.0
 42
-0.1059514344510999
 70
     2
 50
61.2836567618640089
  0
VERTEX
  5
1183
  8
0
 10
84.2729995497176105
 20
141.5485852055250007
 30
0.0
 42
-0.1511721533580949
 50
180.0
  0
VERTEX
  5
1184
  8
0
 10
84.4457705440718769
 20
141.6087651332317989
 30
0.0
 42
-0.1632707906765776
 50
180.0
  0
SEQEND
  5
1185
  8
0
  0
POLYLINE
  5
1186
  8
0
 66
     1
 10
0.0
 20
0.0
 30
0.0
  0
VERTEX
  5
1187
  8
0
 10
84.4457705440718769
 20
140.0267183196716871
 30
0.0
 42
-0.126904853429963
 50
180.0
  0
VERTEX
  5
1188
  8
0
 10
84.2623346049953739
 20
140.0740382211243968
 30
0.0
 42
-0.1060810122797594
 50
180.0
  0
VERTEX
  5
1189
  8
0
 10
84.0922171534775771
 20
140.2221303337053087
 30
0.0
 42
-0.085744797149215
 70
     2
 50
126.8487996170587024
  0
VERTEX
  5
118A
  8
0
 10
83.9746602065271759
 20
140.4523802820069136
 30
0.0
 42
-0.0912209683726037
 50
180.0
  0
VERTEX
  5
118B
  8
0
 10
83.9457705440714079
 20
140.6938966682355954
 30
0.0
 42
-0.0753899821444356
 50
180.0
  0
SEQEND
  5
118C
  8
0
  0
ARC
  5
118D
  8
0
 10
84.9288433748953935
 20
135.8536586541997053
 30
0.0
 40
0.9830735636114077
 50
119.4320041556573955
 51
240.5679958443461999
  0
LINE
  5
118E
  8
0
 10
84.4457705440718769
 20
140.0267183196716871
 30
0.0
 11
84.4457705440718769
 21
136.7086559011854945
 31
0.0
  0
LINE
  5
118F
  8
0
 10
84.4457705440718769
 20
144.4206650457030889
 30
0.0
 11
84.4457705440718769
 21
141.6087651332317989
 31
0.0
  0
LINE
  5
1190
  8
0
 10
84.4457705440719337
 20
147.5103627087343057
 30
0.0
 11
84.4457705440718769
 21
145.6315112552539119
 31
0.0
  0
LINE
  5
1191
  8
2
 10
83.4457705440718769
 20
146.1036586541997053
 30
0.0
 11
87.1457705440718655
 21
143.3536586541997053
 31
0.0
  0
LINE
  5
1192
  8
2
 10
87.6457705440718655
 20
143.3536586541997053
 30
0.0
 11
87.1457705440718655
 21
143.3536586541997053
 31
0.0
  0
LINE
  5
1193
  8
0
 10
84.4457705440716495
 20
148.824383561263005
 30
0.0
 11
92.9457705440663062
 21
148.824383561263005
 31
0.0
  0
POLYLINE
  5
1194
  8
0
 66
     1
 10
0.0
 20
0.0
 30
0.0
  0
VERTEX
  5
1195
  8
0
 10
83.9449776109640737
 20
148.3528657210922006
 30
0.0
 42
0.0932326856578775
 50
90.0
  0
VERTEX
  5
1196
  8
0
 10
84.1380093025641713
 20
148.3891750600317039
 30
0.0
 42
0.0961553825390117
 50
90.0
  0
VERTEX
  5
1197
  8
0
 10
84.2990916899347553
 20
148.4909700990278054
 30
0.0
 42
0.1005995558164784
 70
     2
 50
43.2754148837487875
  0
VERTEX
  5
1198
  8
0
 10
84.4081269094301661
 20
148.6453349274403877
 30
0.0
 42
0.1039846014298173
 50
43.2754148837487875
  0
VERTEX
  5
1199
  8
0
 10
84.4457705440716495
 20
148.824383561263005
 30
0.0
 42
0.1039846014297789
 50
90.0
  0
SEQEND
  5
119A
  8
0
  0
POLYLINE
  5
119B
  8
0
 66
     1
 10
0.0
 20
0.0
 30
0.0
  0
VERTEX
  5
119C
  8
0
 10
92.9457705440702853
 20
148.824383561263005
 30
0.0
 42
0.0060619562265407
 50
90.0
  0
VERTEX
  5
119D
  8
0
 10
93.1528039033553341
 20
148.8268937078271108
 30
0.0
 42
0.008559181375748
 50
90.0
  0
VERTEX
  5
119E
  8
0
 10
93.2993239346645282
 20
148.8329580374644934
 30
0.0
 42
0.0204875976357465
 70
     2
 50
3.3508529875824729
  0
VERTEX
  5
119F
  8
0
 10
93.4419496808750978
 20
148.8471895304543864
 30
0.0
 50
3.3508529875824729
  0
VERTEX
  5
11A0
  8
0
 10
93.4457705440718769
 20
148.8536586541997053
 30
0.0
 50
90.0
  0
SEQEND
  5
11A1
  8
0
  0
POLYLINE
  5
11A2
  8
0
 66
     1
 10
0.0
 20
0.0
 30
0.0
  0
VERTEX
  5
11A3
  8
0
 10
92.9457705440706832
 20
122.8829337471365051
 30
0.0
 42
-0.0060619562265407
 50
90.0
  0
VERTEX
  5
11A4
  8
0
 10
93.1528039033557747
 20
122.8804236005724988
 30
0.0
 42
-0.008559181375748
 50
90.0
  0
VERTEX
  5
11A5
  8
0
 10
93.2993239346649688
 20
122.874359270935102
 30
0.0
 42
-0.0204875976357465
 70
     2
 50
356.6491470124175862
  0
VERTEX
  5
11A6
  8
0
 10
93.4419496808754957
 20
122.8601277779450953
 30
0.0
 50
90.0
  0
VERTEX
  5
11A7
  8
0
 10
93.4457705440723316
 20
122.8536586541997053
 30
0.0
 50
90.0
  0
SEQEND
  5
11A8
  8
0
  0
POLYLINE
  5
11A9
  8
0
 66
     1
 10
0.0
 20
0.0
 30
0.0
  0
VERTEX
  5
11AA
  8
0
 10
83.9449776109644858
 20
123.3544515873073948
 30
0.0
 42
-0.0932326856578775
 50
90.0
  0
VERTEX
  5
11AB
  8
0
 10
84.1380093025646261
 20
123.3181422483678062
 30
0.0
 42
-0.0961553825390117
 50
90.0
  0
VERTEX
  5
11AC
  8
0
 10
84.2990916899352101
 20
123.2163472093717047
 30
0.0
 42
-0.1005995558164784
 70
     2
 50
316.7245851162513191
  0
VERTEX
  5
11AD
  8
0
 10
84.408126909430564
 20
123.061982380959094
 30
0.0
 42
-0.1039846014298173
 50
90.0
  0
VERTEX
  5
11AE
  8
0
 10
84.4457705440721043
 20
122.8829337471365051
 30
0.0
 42
-0.1039846014297789
 50
90.0
  0
SEQEND
  5
11AF
  8
0
  0
LINE
  5
11B0
  8
0
 10
84.4457705440721043
 20
122.8829337471365051
 30
0.0
 11
92.945770544066761
 21
122.8829337471365051
 31
0.0
  0
LINE
  5
11B1
  8
0
 10
84.4457705440718769
 20
124.196954599665105
 30
0.0
 11
84.4457705440718769
 21
126.0758060531455982
 31
0.0
  0
LINE
  5
11B2
  8
0
 10
84.4457705440718769
 20
127.2866522626965065
 30
0.0
 11
84.4457705440718769
 21
130.098552175167697
 31
0.0
  0
LINE
  5
11B3
  8
0
 10
84.4457705440718769
 20
131.6805989887278088
 30
0.0
 11
84.4457705440718769
 21
134.9974610884522974
 31
0.0
  0
POLYLINE
  5
11B4
  8
0
 66
     1
 10
0.0
 20
0.0
 30
0.0
  0
VERTEX
  5
11B5
  8
0
 10
84.4457705440718769
 20
131.6805989887278088
 30
0.0
 42
0.126904853429963
 50
90.0
  0
VERTEX
  5
11B6
  8
0
 10
84.2623346049954449
 20
131.6332790872752128
 30
0.0
 42
0.1060810122797594
 50
90.0
  0
VERTEX
  5
11B7
  8
0
 10
84.0922171534776339
 20
131.4851869746941873
 30
0.0
 42
0.085744797149215
 70
     2
 50
233.1512003829413118
  0
VERTEX
  5
11B8
  8
0
 10
83.9746602065272754
 20
131.2549370263926107
 30
0.0
 42
0.0912209683726037
 50
90.0
  0
VERTEX
  5
11B9
  8
0
 10
83.9457705440715358
 20
131.0134206401639005
 30
0.0
 42
0.0753899821444356
 50
90.0
  0
SEQEND
  5
11BA
  8
0
  0
POLYLINE
  5
11BB
  8
0
 66
     1
 10
0.0
 20
0.0
 30
0.0
  0
VERTEX
  5
11BC
  8
0
 10
83.9457705440736959
 20
131.0134206401639005
 30
0.0
 42
0.0558453538950165
 50
90.0
  0
VERTEX
  5
11BD
  8
0
 10
83.9869444630965631
 20
130.6459280296548968
 30
0.0
 42
0.0696234494827605
 50
90.0
  0
VERTEX
  5
11BE
  8
0
 10
84.0922171534799077
 20
130.3680792367113099
 30
0.0
 42
0.1059514344510999
 70
     2
 50
298.7163432381360053
  0
VERTEX
  5
11BF
  8
0
 10
84.2729995497176674
 20
130.1587321028746089
 30
0.0
 42
0.1511721533578267
 50
90.0
  0
VERTEX
  5
11C0
  8
0
 10
84.4457705440718769
 20
130.098552175167697
 30
0.0
 42
0.1632707906765776
 50
90.0
  0
SEQEND
  5
11C1
  8
0
  0
POLYLINE
  5
11C2
  8
0
 66
     1
 10
0.0
 20
0.0
 30
0.0
  0
VERTEX
  5
11C3
  8
0
 10
84.4457705440719906
 20
127.2866522626965065
 30
0.0
 42
0.0759738029860677
 50
90.0
  0
VERTEX
  5
11C4
  8
0
 10
84.2487596960751262
 20
127.2565431456046952
 30
0.0
 42
0.0861489681664724
 50
90.0
  0
VERTEX
  5
11C5
  8
0
 10
84.0922171534776908
 20
127.1760008380981049
 30
0.0
 42
0.1059611842089019
 70
     2
 50
217.0737894260680889
  0
VERTEX
  5
11C6
  8
0
 10
83.9732501920432952
 20
127.0383176877071065
 30
0.0
 42
0.1471982240755334
 50
90.0
  0
VERTEX
  5
11C7
  8
0
 10
83.94577054407074
 20
126.908864668136701
 30
0.0
 42
0.1260278403512851
 50
90.0
  0
SEQEND
  5
11C8
  8
0
  0
POLYLINE
  5
11C9
  8
0
 66
     1
 10
0.0
 20
0.0
 30
0.0
  0
VERTEX
  5
11CA
  8
0
 10
83.9457705440705126
 20
126.9088646681366015
 30
0.0
 42
0.061112938037691
 50
90.0
  0
VERTEX
  5
11CB
  8
0
 10
83.9866269741143583
 20
126.5758432072513955
 30
0.0
 42
0.0744665224447995
 50
90.0
  0
VERTEX
  5
11CC
  8
0
 10
84.0922171534776339
 20
126.321003591112202
 30
0.0
 42
0.1069586370034828
 70
     2
 50
301.0236844281014896
  0
VERTEX
  5
11CD
  8
0
 10
84.2696437127022477
 20
126.1322868524457022
 30
0.0
 42
0.142767542645802
 50
90.0
  0
VERTEX
  5
11CE
  8
0
 10
84.4457705440718769
 20
126.0758060531455982
 30
0.0
 42
0.1519322921768134
 50
90.0
  0
SEQEND
  5
11CF
  8
0
  0
POLYLINE
  5
11D0
  8
0
 66
     1
 10
0.0
 20
0.0
 30
0.0
  0
VERTEX
  5
11D1
  8
0
 10
84.4457705440718769
 20
124.196954599665105
 30
0.0
 42
0.0063945854363995
 50
90.0
  0
VERTEX
  5
11D2
  8
0
 10
84.2387454542986802
 20
124.1943068121472038
 30
0.0
 42
0.0090272087772587
 50
90.0
  0
VERTEX
  5
11D3
  8
0
 10
84.0922171534776339
 20
124.1879094408394053
 30
0.0
 42
0.021587231382142
 70
     2
 50
183.5343387134001034
  0
VERTEX
  5
11D4
  8
0
 10
83.9498029466045068
 20
124.1729218314880967
 30
0.0
 50
90.0
  0
VERTEX
  5
11D5
  8
0
 10
83.9457705440706832
 20
124.1660724957280024
 30
0.0
 50
90.0
  0
SEQEND
  5
11D6
  8
0
  0
POLYLINE
  5
11D7
  8
0
 66
     1
 10
0.0
 20
0.0
 30
0.0
  0
VERTEX
  5
11D8
  8
0
 10
83.9457705440704558
 20
124.1660724957280024
 30
0.0
 42
0.0803470550416908
 50
90.0
  0
VERTEX
  5
11D9
  8
0
 10
83.9852950971535392
 20
123.9216989066082988
 30
0.0
 42
0.0890368192332178
 50
90.0
  0
VERTEX
  5
11DA
  8
0
 10
84.0922171534776339
 20
123.7251882651348041
 30
0.0
 42
0.1049083465716828
 70
     2
 50
308.7267845612262249
  0
VERTEX
  5
11DB
  8
0
 10
84.2602945189411798
 20
123.5876409809589944
 30
0.0
 42
0.1149585868589762
 50
90.0
  0
VERTEX
  5
11DC
  8
0
 10
84.4457705440718769
 20
123.5416493531793947
 30
0.0
 42
0.119763324839129
 50
90.0
  0
SEQEND
  5
11DD
  8
0
  0
POLYLINE
  5
11DE
  8
0
 66
     1
 10
0.0
 20
0.0
 30
0.0
  0
VERTEX
  5
11DF
  8
0
 10
93.4457705440718769
 20
124.1660724957280024
 30
0.0
 42
-0.0803470550416908
 50
90.0
  0
VERTEX
  5
11E0
  8
0
 10
93.4062459909887792
 20
123.9216989066082988
 30
0.0
 42
-0.0890368192332178
 50
90.0
  0
VERTEX
  5
11E1
  8
0
 10
93.2993239346647556
 20
123.7251882651348041
 30
0.0
 42
-0.1049083465716828
 70
     2
 50
231.2732154387738035
  0
VERTEX
  5
11E2
  8
0
 10
93.1312465692012239
 20
123.5876409809589944
 30
0.0
 42
-0.1149585868589762
 50
90.0
  0
VERTEX
  5
11E3
  8
0
 10
92.9457705440704558
 20
123.5416493531793947
 30
0.0
 42
-0.119763324839129
 50
90.0
  0
SEQEND
  5
11E4
  8
0
  0
POLYLINE
  5
11E5
  8
0
 66
     1
 10
0.0
 20
0.0
 30
0.0
  0
VERTEX
  5
11E6
  8
0
 10
92.9457705440704558
 20
124.196954599665105
 30
0.0
 42
-0.0063945854363995
 50
90.0
  0
VERTEX
  5
11E7
  8
0
 10
93.1527956338436525
 20
124.1943068121472038
 30
0.0
 42
-0.0090272087772587
 50
90.0
  0
VERTEX
  5
11E8
  8
0
 10
93.2993239346647556
 20
124.1879094408394053
 30
0.0
 42
-0.021587231382142
 70
     2
 50
356.465661286599925
  0
VERTEX
  5
11E9
  8
0
 10
93.4417381415378969
 20
124.1729218314880967
 30
0.0
 50
90.0
  0
VERTEX
  5
11EA
  8
0
 10
93.4457705440716637
 20
124.1660724957280024
 30
0.0
 50
90.0
  0
SEQEND
  5
11EB
  8
0
  0
POLYLINE
  5
11EC
  8
0
 66
     1
 10
0.0
 20
0.0
 30
0.0
  0
VERTEX
  5
11ED
  8
0
 10
93.4457705440719337
 20
126.9088646681366015
 30
0.0
 42
-0.061112938037691
 50
90.0
  0
VERTEX
  5
11EE
  8
0
 10
93.4049141140281449
 20
126.5758432072513955
 30
0.0
 42
-0.0744665224447995
 50
90.0
  0
VERTEX
  5
11EF
  8
0
 10
93.2993239346647556
 20
126.321003591112202
 30
0.0
 42
-0.1069586370034828
 70
     2
 50
238.9763155718985104
  0
VERTEX
  5
11F0
  8
0
 10
93.1218973754402555
 20
126.1322868524457022
 30
0.0
 42
-0.1427675426460051
 50
90.0
  0
VERTEX
  5
11F1
  8
0
 10
92.945770544070399
 20
126.0758060531455982
 30
0.0
 42
-0.1519322921768134
 50
90.0
  0
SEQEND
  5
11F2
  8
0
  0
POLYLINE
  5
11F3
  8
0
 66
     1
 10
0.0
 20
0.0
 30
0.0
  0
VERTEX
  5
11F4
  8
0
 10
92.9457705440705126
 20
127.2866522626965065
 30
0.0
 42
-0.0759738029860677
 50
90.0
  0
VERTEX
  5
11F5
  8
0
 10
93.1427813920673344
 20
127.2565431456046952
 30
0.0
 42
-0.0861489681664724
 50
90.0
  0
VERTEX
  5
11F6
  8
0
 10
93.2993239346647556
 20
127.1760008380981049
 30
0.0
 42
-0.1059611842089019
 70
     2
 50
322.9262105739318827
  0
VERTEX
  5
11F7
  8
0
 10
93.418290896099208
 20
127.0383176877071065
 30
0.0
 42
-0.1471982240755334
 50
90.0
  0
VERTEX
  5
11F8
  8
0
 10
93.4457705440717632
 20
126.908864668136701
 30
0.0
 42
-0.1260278403512851
 50
90.0
  0
SEQEND
  5
11F9
  8
0
  0
POLYLINE
  5
11FA
  8
0
 66
     1
 10
0.0
 20
0.0
 30
0.0
  0
VERTEX
  5
11FB
  8
0
 10
93.4457705440686937
 20
131.0134206401639005
 30
0.0
 42
-0.0558453538950165
 50
90.0
  0
VERTEX
  5
11FC
  8
0
 10
93.4045966250458264
 20
130.6459280296548968
 30
0.0
 42
-0.0696234494827605
 50
90.0
  0
VERTEX
  5
11FD
  8
0
 10
93.2993239346624961
 20
130.3680792367113099
 30
0.0
 42
-0.1059514344510999
 70
     2
 50
241.2836567618641084
  0
VERTEX
  5
11FE
  8
0
 10
93.1185415384247364
 20
130.1587321028746089
 30
0.0
 42
-0.1511721533581735
 50
90.0
  0
VERTEX
  5
11FF
  8
0
 10
92.945770544070399
 20
130.098552175167697
 30
0.0
 42
-0.1632707906765776
 50
90.0
  0
SEQEND
  5
1200
  8
0
  0
POLYLINE
  5
1201
  8
0
 66
     1
 10
0.0
 20
0.0
 30
0.0
  0
VERTEX
  5
1202
  8
0
 10
92.9457705440705126
 20
131.6805989887278088
 30
0.0
 42
-0.126904853429963
 50
90.0
  0
VERTEX
  5
1203
  8
0
 10
93.1292064831470157
 20
131.6332790872752128
 30
0.0
 42
-0.1060810122797594
 50
90.0
  0
VERTEX
  5
1204
  8
0
 10
93.2993239346647556
 20
131.4851869746941873
 30
0.0
 42
-0.085744797149215
 70
     2
 50
306.8487996170587735
  0
VERTEX
  5
1205
  8
0
 10
93.4168808816150857
 20
131.2549370263926107
 30
0.0
 42
-0.0912209683726037
 50
90.0
  0
VERTEX
  5
1206
  8
0
 10
93.4457705440708537
 20
131.0134206401639005
 30
0.0
 42
-0.0753899821444356
 50
90.0
  0
SEQEND
  5
1207
  8
0
  0
LINE
  5
1208
  8
0
 10
84.4457705440714648
 20
134.9974610884524964
 30
0.0
 11
92.9457705440700437
 21
134.9974610884524964
 31
0.0
  0
LINE
  5
1209
  8
0
 10
84.4457705440718769
 20
131.6805989887278088
 30
0.0
 11
92.9457705440705126
 21
131.6805989887278088
 31
0.0
  0
LINE
  5
120A
  8
0
 10
84.4457705440718769
 20
130.098552175167697
 30
0.0
 11
92.945770544070399
 21
130.098552175167697
 31
0.0
  0
LINE
  5
120B
  8
0
 10
84.4457705440719337
 20
127.2866522626965065
 30
0.0
 11
92.9457705440705126
 21
127.2866522626965065
 31
0.0
  0
LINE
  5
120C
  8
0
 10
84.4457705440718769
 20
126.0758060531455982
 30
0.0
 11
92.945770544070399
 21
126.0758060531455982
 31
0.0
  0
LINE
  5
120D
  8
0
 10
84.4457705440718769
 20
124.196954599665105
 30
0.0
 11
92.9457705440704558
 21
124.196954599665105
 31
0.0
  0
LINE
  5
120E
  8
0
 10
84.4457705440718769
 20
123.5416493531793947
 30
0.0
 11
92.9457705440704558
 21
123.5416493531793947
 31
0.0
  0
LINE
  5
120F
  8
0
 10
84.4457705440718058
 20
122.8829337471365051
 30
0.0
 11
84.4457705440718769
 21
123.5416493531793947
 31
0.0
  0
LINE
  5
1210
  8
0
 10
83.4457705440721043
 20
123.8536586541997053
 30
0.0
 11
83.9449776109685644
 21
123.3544515873032026
 31
0.0
  0
LINE
  5
1211
  8
0
 10
94.4457705440718769
 20
57.8536586541995419
 30
0.0
 11
94.4457705440718769
 21
33.8536586541995774
 31
0.0
  0
LINE
  5
1212
  8
0
 10
93.4457705440721043
 20
32.8536586541997835
 30
0.0
 11
94.4457705440721043
 21
33.8536586541997835
 31
0.0
  0
LINE
  5
1213
  8
0
 10
94.4457705440716495
 20
57.8536586541997693
 30
0.0
 11
93.4457705440716637
 21
58.8536586541997693
 31
0.0
  0
LINE
  5
1214
  8
0
 10
83.4457705440716637
 20
57.8536586541997693
 30
0.0
 11
83.9449776109681807
 21
58.3528657210962791
 31
0.0
  0
LINE
  5
1215
  8
0
 10
93.4457705440718769
 20
58.853658654199549
 30
0.0
 11
93.4457705440718769
 21
32.853658654199549
 31
0.0
  0
LINE
  5
1216
  8
0
 10
84.4457705440716495
 20
58.8243835612629908
 30
0.0
 11
84.4457705440716495
 21
58.1656679552201084
 31
0.0
  0
LINE
  5
1217
  8
2
 10
87.6457705440718655
 20
53.3536586541997693
 30
0.0
 11
87.6457705440718655
 21
38.353658654199748
 31
0.0
  0
LINE
  5
1218
  8
2
 10
87.6457705440718655
 20
38.353658654199748
 30
0.0
 11
87.1457705440718655
 21
38.353658654199748
 31
0.0
  0
LINE
  5
1219
  8
2
 10
87.1457705440718655
 20
38.353658654199748
 30
0.0
 11
87.1457705440718655
 21
53.3536586541997693
 31
0.0
  0
LINE
  5
121A
  8
2
 10
83.4457705440718769
 20
35.6036586541997835
 30
0.0
 11
87.1457705440718655
 21
38.353658654199748
 31
0.0
  0
LINE
  5
121B
  8
0
 10
83.4457705440718769
 20
33.8536586542000109
 30
0.0
 11
83.4457705440718769
 21
57.8536586541999682
 31
0.0
  0
LINE
  5
121C
  8
0
 10
84.4457705440719337
 20
58.165667955220087
 30
0.0
 11
92.9457705440705126
 21
58.165667955220087
 31
0.0
  0
LINE
  5
121D
  8
0
 10
84.4457705440719337
 20
57.5103627087343767
 30
0.0
 11
92.9457705440705126
 21
57.5103627087344123
 31
0.0
  0
LINE
  5
121E
  8
0
 10
84.4457705440718769
 20
55.6315112552539333
 30
0.0
 11
92.9457705440704558
 21
55.6315112552539333
 31
0.0
  0
LINE
  5
121F
  8
0
 10
84.4457705440718769
 20
54.4206650457031316
 30
0.0
 11
92.9457705440704558
 21
54.4206650457031316
 31
0.0
  0
LINE
  5
1220
  8
0
 10
84.4457705440718769
 20
51.6087651332318416
 30
0.0
 11
92.945770544070399
 21
51.6087651332318131
 31
0.0
  0
LINE
  5
1221
  8
0
 10
84.4457705440718769
 20
50.0267183196717866
 30
0.0
 11
92.945770544070399
 21
50.0267183196717866
 31
0.0
  0
LINE
  5
1222
  8
0
 10
84.4457705440718769
 20
46.709856219947163
 30
0.0
 11
92.9457705440704558
 21
46.7098562199471203
 31
0.0
  0
ARC
  5
1223
  8
0
 10
92.4626977132458592
 20
45.8536586541999398
 30
0.0
 40
0.9830735636117521
 50
299.4320041558182197
 51
60.5679958442826205
  0
POLYLINE
  5
1224
  8
0
 66
     1
 10
0.0
 20
0.0
 30
0.0
  0
VERTEX
  5
1225
  8
0
 10
92.945770544070399
 20
50.0267183196717866
 30
0.0
 42
0.126904853429963
 50
180.0
  0
VERTEX
  5
1226
  8
0
 10
93.129206483146902
 20
50.0740382211244111
 30
0.0
 42
0.1060810122797594
 50
180.0
  0
VERTEX
  5
1227
  8
0
 10
93.2993239346646845
 20
50.2221303337053229
 30
0.0
 42
0.085744797149215
 70
     2
 50
53.1512003829412834
  0
VERTEX
  5
1228
  8
0
 10
93.4168808816150857
 20
50.4523802820069776
 30
0.0
 42
0.0912209683726037
 50
53.1512003829412834
  0
VERTEX
  5
1229
  8
0
 10
93.4457705440708537
 20
50.693896668235638
 30
0.0
 42
0.0753899821444356
 50
180.0
  0
SEQEND
  5
122A
  8
0
  0
POLYLINE
  5
122B
  8
0
 66
     1
 10
0.0
 20
0.0
 30
0.0
  0
VERTEX
  5
122C
  8
0
 10
93.4457705440686368
 20
50.6938966682356735
 30
0.0
 42
0.0558453538950165
 50
180.0
  0
VERTEX
  5
122D
  8
0
 10
93.4045966250457553
 20
51.0613892787446986
 30
0.0
 42
0.0696234494827605
 50
180.0
  0
VERTEX
  5
122E
  8
0
 10
93.299323934662425
 20
51.3392380716882286
 30
0.0
 42
0.1059514344510999
 70
     2
 50
118.7163432381360053
  0
VERTEX
  5
122F
  8
0
 10
93.1185415384246653
 20
51.5485852055250078
 30
0.0
 42
0.1511721533581169
 50
118.7163432381360053
  0
VERTEX
  5
1230
  8
0
 10
92.945770544070399
 20
51.6087651332318131
 30
0.0
 42
0.1632707906765776
 50
180.0
  0
SEQEND
  5
1231
  8
0
  0
POLYLINE
  5
1232
  8
0
 66
     1
 10
0.0
 20
0.0
 30
0.0
  0
VERTEX
  5
1233
  8
0
 10
92.9457705440704558
 20
54.4206650457031316
 30
0.0
 42
0.0759738029860677
 50
180.0
  0
VERTEX
  5
1234
  8
0
 10
93.1427813920672492
 20
54.4507741627948718
 30
0.0
 42
0.0861489681664724
 50
180.0
  0
VERTEX
  5
1235
  8
0
 10
93.2993239346646845
 20
54.531316470301519
 30
0.0
 42
0.1059611842089019
 70
     2
 50
37.0737894260680889
  0
VERTEX
  5
1236
  8
0
 10
93.4182908960991085
 20
54.6689996206925315
 30
0.0
 42
0.1471982240755334
 50
37.0737894260680889
  0
VERTEX
  5
1237
  8
0
 10
93.4457705440717064
 20
54.7984526402629086
 30
0.0
 42
0.1260278403512851
 50
180.0
  0
SEQEND
  5
1238
  8
0
  0
POLYLINE
  5
1239
  8
0
 66
     1
 10
0.0
 20
0.0
 30
0.0
  0
VERTEX
  5
123A
  8
0
 10
93.4457705440718769
 20
54.7984526402629371
 30
0.0
 42
0.061112938037691
 50
180.0
  0
VERTEX
  5
123B
  8
0
 10
93.4049141140280312
 20
55.1314741011481786
 30
0.0
 42
0.0744665224447995
 50
180.0
  0
VERTEX
  5
123C
  8
0
 10
93.2993239346646845
 20
55.3863137172873721
 30
0.0
 42
0.1069586370034828
 70
     2
 50
121.0236844281015038
  0
VERTEX
  5
123D
  8
0
 10
93.121897375440156
 20
55.5750304559538932
 30
0.0
 42
0.1427675426463582
 50
121.0236844281015038
  0
VERTEX
  5
123E
  8
0
 10
92.9457705440704558
 20
55.6315112552539333
 30
0.0
 42
0.1519322921768134
 50
180.0
  0
SEQEND
  5
123F
  8
0
  0
POLYLINE
  5
1240
  8
0
 66
     1
 10
0.0
 20
0.0
 30
0.0
  0
VERTEX
  5
1241
  8
0
 10
92.9457705440705126
 20
57.5103627087344123
 30
0.0
 42
0.0063945854363995
 50
180.0
  0
VERTEX
  5
1242
  8
0
 10
93.1527956338436951
 20
57.5130104962523276
 30
0.0
 42
0.0090272087772587
 50
180.0
  0
VERTEX
  5
1243
  8
0
 10
93.2993239346647556
 20
57.5194078675600977
 30
0.0
 42
0.021587231382142
 70
     2
 50
3.5343387134001181
  0
VERTEX
  5
1244
  8
0
 10
93.4417381415378969
 20
57.5343954769113708
 30
0.0
 50
3.5343387134001181
  0
VERTEX
  5
1245
  8
0
 10
93.4457705440717064
 20
57.5412448126714722
 30
0.0
 50
180.0
  0
SEQEND
  5
1246
  8
0
  0
POLYLINE
  5
1247
  8
0
 66
     1
 10
0.0
 20
0.0
 30
0.0
  0
VERTEX
  5
1248
  8
0
 10
93.4457705440719337
 20
57.5412448126715077
 30
0.0
 42
0.0803470550416908
 50
180.0
  0
VERTEX
  5
1249
  8
0
 10
93.4062459909888645
 20
57.78561840179119
 30
0.0
 42
0.0890368192332178
 50
180.0
  0
VERTEX
  5
124A
  8
0
 10
93.2993239346648124
 20
57.9821290432647203
 30
0.0
 42
0.1049083465716828
 70
     2
 50
128.7267845612261965
  0
VERTEX
  5
124B
  8
0
 10
93.1312465692012239
 20
58.1196763274405583
 30
0.0
 42
0.1149585868589446
 50
128.7267845612261965
  0
VERTEX
  5
124C
  8
0
 10
92.9457705440705126
 20
58.165667955220087
 30
0.0
 42
0.119763324839129
 50
180.0
  0
SEQEND
  5
124D
  8
0
  0
POLYLINE
  5
124E
  8
0
 66
     1
 10
0.0
 20
0.0
 30
0.0
  0
VERTEX
  5
124F
  8
0
 10
83.9457705440705126
 20
57.5412448126715077
 30
0.0
 42
-0.0803470550416908
 50
180.0
  0
VERTEX
  5
1250
  8
0
 10
83.9852950971535961
 20
57.78561840179119
 30
0.0
 42
-0.0890368192332178
 50
180.0
  0
VERTEX
  5
1251
  8
0
 10
84.0922171534776339
 20
57.9821290432647203
 30
0.0
 42
-0.1049083465716828
 70
     2
 50
51.2732154387738603
  0
VERTEX
  5
1252
  8
0
 10
84.2602945189411798
 20
58.1196763274405583
 30
0.0
 42
-0.1149585868589616
 50
180.0
  0
VERTEX
  5
1253
  8
0
 10
84.4457705440719337
 20
58.165667955220087
 30
0.0
 42
-0.119763324839129
 50
180.0
  0
SEQEND
  5
1254
  8
0
  0
POLYLINE
  5
1255
  8
0
 66
     1
 10
0.0
 20
0.0
 30
0.0
  0
VERTEX
  5
1256
  8
0
 10
84.4457705440719337
 20
57.5103627087344123
 30
0.0
 42
-0.0063945854363995
 50
180.0
  0
VERTEX
  5
1257
  8
0
 10
84.2387454542987371
 20
57.5130104962523276
 30
0.0
 42
-0.0090272087772587
 50
180.0
  0
VERTEX
  5
1258
  8
0
 10
84.0922171534776908
 20
57.5194078675600977
 30
0.0
 42
-0.021587231382142
 70
     2
 50
176.4656612865998966
  0
VERTEX
  5
1259
  8
0
 10
83.9498029466045068
 20
57.5343954769113708
 30
0.0
 50
180.0
  0
VERTEX
  5
125A
  8
0
 10
83.94577054407074
 20
57.5412448126714722
 30
0.0
 50
180.0
  0
SEQEND
  5
125B
  8
0
  0
POLYLINE
  5
125C
  8
0
 66
     1
 10
0.0
 20
0.0
 30
0.0
  0
VERTEX
  5
125D
  8
0
 10
83.9457705440704558
 20
54.7984526402629371
 30
0.0
 42
-0.061112938037691
 50
180.0
  0
VERTEX
  5
125E
  8
0
 10
83.9866269741142446
 20
55.1314741011481786
 30
0.0
 42
-0.0744665224447995
 50
180.0
  0
VERTEX
  5
125F
  8
0
 10
84.0922171534775771
 20
55.3863137172873721
 30
0.0
 42
-0.1069586370034828
 70
     2
 50
58.9763155718985317
  0
VERTEX
  5
1260
  8
0
 10
84.2696437127021341
 20
55.5750304559538932
 30
0.0
 42
-0.1427675426463604
 50
180.0
  0
VERTEX
  5
1261
  8
0
 10
84.4457705440718769
 20
55.6315112552539333
 30
0.0
 42
-0.1519322921768134
 50
180.0
  0
SEQEND
  5
1262
  8
0
  0
POLYLINE
  5
1263
  8
0
 66
     1
 10
0.0
 20
0.0
 30
0.0
  0
VERTEX
  5
1264
  8
0
 10
84.4457705440718769
 20
54.4206650457031316
 30
0.0
 42
-0.0759738029860677
 50
180.0
  0
VERTEX
  5
1265
  8
0
 10
84.2487596960750693
 20
54.4507741627948718
 30
0.0
 42
-0.0861489681664724
 50
180.0
  0
VERTEX
  5
1266
  8
0
 10
84.0922171534776339
 20
54.531316470301519
 30
0.0
 42
-0.1059611842089019
 70
     2
 50
142.9262105739319111
  0
VERTEX
  5
1267
  8
0
 10
83.9732501920432242
 20
54.6689996206925315
 30
0.0
 42
-0.1471982240755334
 50
180.0
  0
VERTEX
  5
1268
  8
0
 10
83.9457705440706263
 20
54.7984526402629086
 30
0.0
 42
-0.1260278403512851
 50
180.0
  0
SEQEND
  5
1269
  8
0
  0
POLYLINE
  5
126A
  8
0
 66
     1
 10
0.0
 20
0.0
 30
0.0
  0
VERTEX
  5
126B
  8
0
 10
83.9457705440736959
 20
50.6938966682356735
 30
0.0
 42
-0.0558453538950165
 50
180.0
  0
VERTEX
  5
126C
  8
0
 10
83.9869444630965063
 20
51.0613892787446986
 30
0.0
 42
-0.0696234494827605
 50
180.0
  0
VERTEX
  5
126D
  8
0
 10
84.0922171534798508
 20
51.3392380716882286
 30
0.0
 42
-0.1059514344510999
 70
     2
 50
61.2836567618640089
  0
VERTEX
  5
126E
  8
0
 10
84.2729995497176105
 20
51.5485852055250078
 30
0.0
 42
-0.1511721533580949
 50
180.0
  0
VERTEX
  5
126F
  8
0
 10
84.4457705440718769
 20
51.6087651332318131
 30
0.0
 42
-0.1632707906765776
 50
180.0
  0
SEQEND
  5
1270
  8
0
  0
POLYLINE
  5
1271
  8
0
 66
     1
 10
0.0
 20
0.0
 30
0.0
  0
VERTEX
  5
1272
  8
0
 10
84.4457705440718769
 20
50.0267183196717866
 30
0.0
 42
-0.126904853429963
 50
180.0
  0
VERTEX
  5
1273
  8
0
 10
84.2623346049953739
 20
50.0740382211244111
 30
0.0
 42
-0.1060810122797594
 50
180.0
  0
VERTEX
  5
1274
  8
0
 10
84.0922171534775771
 20
50.2221303337053229
 30
0.0
 42
-0.085744797149215
 70
     2
 50
126.8487996170587024
  0
VERTEX
  5
1275
  8
0
 10
83.9746602065271759
 20
50.4523802820069776
 30
0.0
 42
-0.0912209683726037
 50
180.0
  0
VERTEX
  5
1276
  8
0
 10
83.9457705440714079
 20
50.693896668235638
 30
0.0
 42
-0.0753899821444356
 50
180.0
  0
SEQEND
  5
1277
  8
0
  0
ARC
  5
1278
  8
0
 10
84.9288433748953935
 20
45.853658654199748
 30
0.0
 40
0.9830735636114077
 50
119.4320041556573955
 51
240.5679958443461999
  0
LINE
  5
1279
  8
0
 10
84.4457705440718769
 20
50.0267183196717866
 30
0.0
 11
84.4457705440718769
 21
46.7086559011855087
 31
0.0
  0
LINE
  5
127A
  8
0
 10
84.4457705440718769
 20
54.4206650457031031
 30
0.0
 11
84.4457705440718769
 21
51.6087651332318416
 31
0.0
  0
LINE
  5
127B
  8
0
 10
84.4457705440719337
 20
57.5103627087343767
 30
0.0
 11
84.4457705440718769
 21
55.6315112552538977
 31
0.0
  0
LINE
  5
127C
  8
2
 10
83.4457705440718769
 20
56.1036586541997835
 30
0.0
 11
87.1457705440718655
 21
53.3536586541997693
 31
0.0
  0
LINE
  5
127D
  8
2
 10
87.6457705440718655
 20
53.3536586541997693
 30
0.0
 11
87.1457705440718655
 21
53.3536586541997693
 31
0.0
  0
LINE
  5
127E
  8
0
 10
84.4457705440716495
 20
58.8243835612629908
 30
0.0
 11
92.9457705440663062
 21
58.8243835612629908
 31
0.0
  0
POLYLINE
  5
127F
  8
0
 66
     1
 10
0.0
 20
0.0
 30
0.0
  0
VERTEX
  5
1280
  8
0
 10
83.9449776109640737
 20
58.3528657210921793
 30
0.0
 42
0.0932326856578775
 50
90.0
  0
VERTEX
  5
1281
  8
0
 10
84.1380093025641713
 20
58.3891750600316897
 30
0.0
 42
0.0961553825390117
 50
90.0
  0
VERTEX
  5
1282
  8
0
 10
84.2990916899347553
 20
58.4909700990277912
 30
0.0
 42
0.1005995558164784
 70
     2
 50
43.2754148837487875
  0
VERTEX
  5
1283
  8
0
 10
84.4081269094301661
 20
58.6453349274404303
 30
0.0
 42
0.1039846014298173
 50
43.2754148837487875
  0
VERTEX
  5
1284
  8
0
 10
84.4457705440716495
 20
58.8243835612629908
 30
0.0
 42
0.1039846014297789
 50
90.0
  0
SEQEND
  5
1285
  8
0
  0
POLYLINE
  5
1286
  8
0
 66
     1
 10
0.0
 20
0.0
 30
0.0
  0
VERTEX
  5
1287
  8
0
 10
92.9457705440702853
 20
58.8243835612629908
 30
0.0
 42
0.0060619562265407
 50
90.0
  0
VERTEX
  5
1288
  8
0
 10
93.1528039033553341
 20
58.8268937078270611
 30
0.0
 42
0.008559181375748
 50
90.0
  0
VERTEX
  5
1289
  8
0
 10
93.2993239346645282
 20
58.8329580374644792
 30
0.0
 42
0.0204875976357465
 70
     2
 50
3.3508529875824729
  0
VERTEX
  5
128A
  8
0
 10
93.4419496808750978
 20
58.8471895304544219
 30
0.0
 50
3.3508529875824729
  0
VERTEX
  5
128B
  8
0
 10
93.4457705440718769
 20
58.8536586541997693
 30
0.0
 50
90.0
  0
SEQEND
  5
128C
  8
0
  0
POLYLINE
  5
128D
  8
0
 66
     1
 10
0.0
 20
0.0
 30
0.0
  0
VERTEX
  5
128E
  8
0
 10
92.9457705440706832
 20
32.8829337471365619
 30
0.0
 42
-0.0060619562265407
 50
90.0
  0
VERTEX
  5
128F
  8
0
 10
93.1528039033557747
 20
32.8804236005724917
 30
0.0
 42
-0.008559181375748
 50
90.0
  0
VERTEX
  5
1290
  8
0
 10
93.2993239346649688
 20
32.8743592709350807
 30
0.0
 42
-0.0204875976357465
 70
     2
 50
356.6491470124175862
  0
VERTEX
  5
1291
  8
0
 10
93.4419496808754957
 20
32.8601277779451308
 30
0.0
 50
90.0
  0
VERTEX
  5
1292
  8
0
 10
93.4457705440723316
 20
32.8536586541997835
 30
0.0
 50
90.0
  0
SEQEND
  5
1293
  8
0
  0
POLYLINE
  5
1294
  8
0
 66
     1
 10
0.0
 20
0.0
 30
0.0
  0
VERTEX
  5
1295
  8
0
 10
83.9449776109644858
 20
33.3544515873073735
 30
0.0
 42
-0.0932326856578775
 50
90.0
  0
VERTEX
  5
1296
  8
0
 10
84.1380093025646261
 20
33.3181422483678702
 30
0.0
 42
-0.0961553825390117
 50
90.0
  0
VERTEX
  5
1297
  8
0
 10
84.2990916899352101
 20
33.2163472093717616
 30
0.0
 42
-0.1005995558164784
 70
     2
 50
316.7245851162513191
  0
VERTEX
  5
1298
  8
0
 10
84.408126909430564
 20
33.0619823809591225
 30
0.0
 42
-0.1039846014298173
 50
90.0
  0
VERTEX
  5
1299
  8
0
 10
84.4457705440721043
 20
32.8829337471365619
 30
0.0
 42
-0.1039846014297789
 50
90.0
  0
SEQEND
  5
129A
  8
0
  0
LINE
  5
129B
  8
0
 10
84.4457705440721043
 20
32.8829337471365619
 30
0.0
 11
92.945770544066761
 21
32.8829337471365619
 31
0.0
  0
LINE
  5
129C
  8
0
 10
84.4457705440718769
 20
34.1969545996651476
 30
0.0
 11
84.4457705440718769
 21
36.0758060531455982
 31
0.0
  0
LINE
  5
129D
  8
0
 10
84.4457705440718769
 20
37.286652262696478
 30
0.0
 11
84.4457705440718769
 21
40.0985521751677396
 31
0.0
  0
LINE
  5
129E
  8
0
 10
84.4457705440718769
 20
41.6805989887277875
 30
0.0
 11
84.4457705440718769
 21
44.9974610884523401
 31
0.0
  0
POLYLINE
  5
129F
  8
0
 66
     1
 10
0.0
 20
0.0
 30
0.0
  0
VERTEX
  5
12A0
  8
0
 10
84.4457705440718769
 20
41.6805989887277875
 30
0.0
 42
0.126904853429963
 50
90.0
  0
VERTEX
  5
12A1
  8
0
 10
84.2623346049954449
 20
41.6332790872751701
 30
0.0
 42
0.1060810122797594
 50
90.0
  0
VERTEX
  5
12A2
  8
0
 10
84.0922171534776339
 20
41.4851869746942583
 30
0.0
 42
0.085744797149215
 70
     2
 50
233.1512003829413118
  0
VERTEX
  5
12A3
  8
0
 10
83.9746602065272754
 20
41.2549370263925965
 30
0.0
 42
0.0912209683726037
 50
90.0
  0
VERTEX
  5
12A4
  8
0
 10
83.9457705440715358
 20
41.0134206401639432
 30
0.0
 42
0.0753899821444356
 50
90.0
  0
SEQEND
  5
12A5
  8
0
  0
POLYLINE
  5
12A6
  8
0
 66
     1
 10
0.0
 20
0.0
 30
0.0
  0
VERTEX
  5
12A7
  8
0
 10
83.9457705440736959
 20
41.0134206401639219
 30
0.0
 42
0.0558453538950165
 50
90.0
  0
VERTEX
  5
12A8
  8
0
 10
83.9869444630965631
 20
40.6459280296548826
 30
0.0
 42
0.0696234494827605
 50
90.0
  0
VERTEX
  5
12A9
  8
0
 10
84.0922171534799077
 20
40.3680792367113526
 30
0.0
 42
0.1059514344510999
 70
     2
 50
298.7163432381360053
  0
VERTEX
  5
12AA
  8
0
 10
84.2729995497176674
 20
40.1587321028745592
 30
0.0
 42
0.1511721533578267
 50
90.0
  0
VERTEX
  5
12AB
  8
0
 10
84.4457705440718769
 20
40.0985521751677396
 30
0.0
 42
0.1632707906765776
 50
90.0
  0
SEQEND
  5
12AC
  8
0
  0
POLYLINE
  5
12AD
  8
0
 66
     1
 10
0.0
 20
0.0
 30
0.0
  0
VERTEX
  5
12AE
  8
0
 10
84.4457705440719906
 20
37.286652262696478
 30
0.0
 42
0.0759738029860677
 50
90.0
  0
VERTEX
  5
12AF
  8
0
 10
84.2487596960751262
 20
37.2565431456047378
 30
0.0
 42
0.0861489681664724
 50
90.0
  0
VERTEX
  5
12B0
  8
0
 10
84.0922171534776908
 20
37.1760008380980906
 30
0.0
 42
0.1059611842089019
 70
     2
 50
217.0737894260680889
  0
VERTEX
  5
12B1
  8
0
 10
83.9732501920432952
 20
37.0383176877070781
 30
0.0
 42
0.1471982240755334
 50
90.0
  0
VERTEX
  5
12B2
  8
0
 10
83.94577054407074
 20
36.908864668136701
 30
0.0
 42
0.1260278403512851
 50
90.0
  0
SEQEND
  5
12B3
  8
0
  0
POLYLINE
  5
12B4
  8
0
 66
     1
 10
0.0
 20
0.0
 30
0.0
  0
VERTEX
  5
12B5
  8
0
 10
83.9457705440705126
 20
36.9088646681366797
 30
0.0
 42
0.061112938037691
 50
90.0
  0
VERTEX
  5
12B6
  8
0
 10
83.9866269741143583
 20
36.5758432072514168
 30
0.0
 42
0.0744665224447995
 50
90.0
  0
VERTEX
  5
12B7
  8
0
 10
84.0922171534776339
 20
36.3210035911122517
 30
0.0
 42
0.1069586370034828
 70
     2
 50
301.0236844281014896
  0
VERTEX
  5
12B8
  8
0
 10
84.2696437127022477
 20
36.1322868524457235
 30
0.0
 42
0.142767542645802
 50
90.0
  0
VERTEX
  5
12B9
  8
0
 10
84.4457705440718769
 20
36.0758060531455982
 30
0.0
 42
0.1519322921768134
 50
90.0
  0
SEQEND
  5
12BA
  8
0
  0
POLYLINE
  5
12BB
  8
0
 66
     1
 10
0.0
 20
0.0
 30
0.0
  0
VERTEX
  5
12BC
  8
0
 10
84.4457705440718769
 20
34.1969545996651192
 30
0.0
 42
0.0063945854363995
 50
90.0
  0
VERTEX
  5
12BD
  8
0
 10
84.2387454542986802
 20
34.1943068121471896
 30
0.0
 42
0.0090272087772587
 50
90.0
  0
VERTEX
  5
12BE
  8
0
 10
84.0922171534776339
 20
34.1879094408394195
 30
0.0
 42
0.021587231382142
 70
     2
 50
183.5343387134001034
  0
VERTEX
  5
12BF
  8
0
 10
83.9498029466045068
 20
34.1729218314881535
 30
0.0
 50
90.0
  0
VERTEX
  5
12C0
  8
0
 10
83.9457705440706832
 20
34.1660724957280522
 30
0.0
 50
90.0
  0
SEQEND
  5
12C1
  8
0
  0
POLYLINE
  5
12C2
  8
0
 66
     1
 10
0.0
 20
0.0
 30
0.0
  0
VERTEX
  5
12C3
  8
0
 10
83.9457705440704558
 20
34.1660724957280166
 30
0.0
 42
0.0803470550416908
 50
90.0
  0
VERTEX
  5
12C4
  8
0
 10
83.9852950971535392
 20
33.9216989066083414
 30
0.0
 42
0.0890368192332178
 50
90.0
  0
VERTEX
  5
12C5
  8
0
 10
84.0922171534776339
 20
33.7251882651348112
 30
0.0
 42
0.1049083465716828
 70
     2
 50
308.7267845612262249
  0
VERTEX
  5
12C6
  8
0
 10
84.2602945189411798
 20
33.5876409809589731
 30
0.0
 42
0.1149585868589762
 50
90.0
  0
VERTEX
  5
12C7
  8
0
 10
84.4457705440718769
 20
33.5416493531794373
 30
0.0
 42
0.119763324839129
 50
90.0
  0
SEQEND
  5
12C8
  8
0
  0
POLYLINE
  5
12C9
  8
0
 66
     1
 10
0.0
 20
0.0
 30
0.0
  0
VERTEX
  5
12CA
  8
0
 10
93.4457705440718769
 20
34.1660724957280166
 30
0.0
 42
-0.0803470550416908
 50
90.0
  0
VERTEX
  5
12CB
  8
0
 10
93.4062459909887792
 20
33.9216989066083414
 30
0.0
 42
-0.0890368192332178
 50
90.0
  0
VERTEX
  5
12CC
  8
0
 10
93.2993239346647556
 20
33.7251882651348112
 30
0.0
 42
-0.1049083465716828
 70
     2
 50
231.2732154387738035
  0
VERTEX
  5
12CD
  8
0
 10
93.1312465692012239
 20
33.5876409809589731
 30
0.0
 42
-0.1149585868589762
 50
90.0
  0
VERTEX
  5
12CE
  8
0
 10
92.9457705440704558
 20
33.5416493531794373
 30
0.0
 42
-0.119763324839129
 50
90.0
  0
SEQEND
  5
12CF
  8
0
  0
POLYLINE
  5
12D0
  8
0
 66
     1
 10
0.0
 20
0.0
 30
0.0
  0
VERTEX
  5
12D1
  8
0
 10
92.9457705440704558
 20
34.1969545996651192
 30
0.0
 42
-0.0063945854363995
 50
90.0
  0
VERTEX
  5
12D2
  8
0
 10
93.1527956338436525
 20
34.1943068121471896
 30
0.0
 42
-0.0090272087772587
 50
90.0
  0
VERTEX
  5
12D3
  8
0
 10
93.2993239346647556
 20
34.1879094408394195
 30
0.0
 42
-0.021587231382142
 70
     2
 50
356.465661286599925
  0
VERTEX
  5
12D4
  8
0
 10
93.4417381415378969
 20
34.1729218314881535
 30
0.0
 50
90.0
  0
VERTEX
  5
12D5
  8
0
 10
93.4457705440716637
 20
34.1660724957280522
 30
0.0
 50
90.0
  0
SEQEND
  5
12D6
  8
0
  0
POLYLINE
  5
12D7
  8
0
 66
     1
 10
0.0
 20
0.0
 30
0.0
  0
VERTEX
  5
12D8
  8
0
 10
93.4457705440719337
 20
36.9088646681366797
 30
0.0
 42
-0.061112938037691
 50
90.0
  0
VERTEX
  5
12D9
  8
0
 10
93.4049141140281449
 20
36.5758432072514168
 30
0.0
 42
-0.0744665224447995
 50
90.0
  0
VERTEX
  5
12DA
  8
0
 10
93.2993239346647556
 20
36.3210035911122517
 30
0.0
 42
-0.1069586370034828
 70
     2
 50
238.9763155718985104
  0
VERTEX
  5
12DB
  8
0
 10
93.1218973754402555
 20
36.1322868524457235
 30
0.0
 42
-0.1427675426460051
 50
90.0
  0
VERTEX
  5
12DC
  8
0
 10
92.945770544070399
 20
36.0758060531455982
 30
0.0
 42
-0.1519322921768134
 50
90.0
  0
SEQEND
  5
12DD
  8
0
  0
POLYLINE
  5
12DE
  8
0
 66
     1
 10
0.0
 20
0.0
 30
0.0
  0
VERTEX
  5
12DF
  8
0
 10
92.9457705440705126
 20
37.286652262696478
 30
0.0
 42
-0.0759738029860677
 50
90.0
  0
VERTEX
  5
12E0
  8
0
 10
93.1427813920673344
 20
37.2565431456047378
 30
0.0
 42
-0.0861489681664724
 50
90.0
  0
VERTEX
  5
12E1
  8
0
 10
93.2993239346647556
 20
37.1760008380980906
 30
0.0
 42
-0.1059611842089019
 70
     2
 50
322.9262105739318827
  0
VERTEX
  5
12E2
  8
0
 10
93.418290896099208
 20
37.0383176877070781
 30
0.0
 42
-0.1471982240755334
 50
90.0
  0
VERTEX
  5
12E3
  8
0
 10
93.4457705440717632
 20
36.908864668136701
 30
0.0
 42
-0.1260278403512851
 50
90.0
  0
SEQEND
  5
12E4
  8
0
  0
POLYLINE
  5
12E5
  8
0
 66
     1
 10
0.0
 20
0.0
 30
0.0
  0
VERTEX
  5
12E6
  8
0
 10
93.4457705440686937
 20
41.0134206401639219
 30
0.0
 42
-0.0558453538950165
 50
90.0
  0
VERTEX
  5
12E7
  8
0
 10
93.4045966250458264
 20
40.6459280296548826
 30
0.0
 42
-0.0696234494827605
 50
90.0
  0
VERTEX
  5
12E8
  8
0
 10
93.2993239346624961
 20
40.3680792367113526
 30
0.0
 42
-0.1059514344510999
 70
     2
 50
241.2836567618641084
  0
VERTEX
  5
12E9
  8
0
 10
93.1185415384247364
 20
40.1587321028745592
 30
0.0
 42
-0.1511721533581735
 50
90.0
  0
VERTEX
  5
12EA
  8
0
 10
92.945770544070399
 20
40.0985521751677609
 30
0.0
 42
-0.1632707906765776
 50
90.0
  0
SEQEND
  5
12EB
  8
0
  0
POLYLINE
  5
12EC
  8
0
 66
     1
 10
0.0
 20
0.0
 30
0.0
  0
VERTEX
  5
12ED
  8
0
 10
92.9457705440705126
 20
41.6805989887277875
 30
0.0
 42
-0.126904853429963
 50
90.0
  0
VERTEX
  5
12EE
  8
0
 10
93.1292064831470157
 20
41.6332790872751701
 30
0.0
 42
-0.1060810122797594
 50
90.0
  0
VERTEX
  5
12EF
  8
0
 10
93.2993239346647556
 20
41.4851869746942583
 30
0.0
 42
-0.085744797149215
 70
     2
 50
306.8487996170587735
  0
VERTEX
  5
12F0
  8
0
 10
93.4168808816150857
 20
41.2549370263925965
 30
0.0
 42
-0.0912209683726037
 50
90.0
  0
VERTEX
  5
12F1
  8
0
 10
93.4457705440708537
 20
41.0134206401639432
 30
0.0
 42
-0.0753899821444356
 50
90.0
  0
SEQEND
  5
12F2
  8
0
  0
LINE
  5
12F3
  8
0
 10
84.4457705440714648
 20
44.9974610884525319
 30
0.0
 11
92.9457705440700437
 21
44.9974610884525674
 31
0.0
  0
LINE
  5
12F4
  8
0
 10
84.4457705440718769
 20
41.6805989887277875
 30
0.0
 11
92.9457705440705126
 21
41.6805989887277875
 31
0.0
  0
LINE
  5
12F5
  8
0
 10
84.4457705440718769
 20
40.0985521751677396
 30
0.0
 11
92.945770544070399
 21
40.0985521751677609
 31
0.0
  0
LINE
  5
12F6
  8
0
 10
84.4457705440719337
 20
37.286652262696478
 30
0.0
 11
92.9457705440705126
 21
37.286652262696478
 31
0.0
  0
LINE
  5
12F7
  8
0
 10
84.4457705440718769
 20
36.0758060531455982
 30
0.0
 11
92.945770544070399
 21
36.0758060531455982
 31
0.0
  0
LINE
  5
12F8
  8
0
 10
84.4457705440718769
 20
34.1969545996651476
 30
0.0
 11
92.9457705440704558
 21
34.1969545996651192
 31
0.0
  0
LINE
  5
12F9
  8
0
 10
84.4457705440718769
 20
33.5416493531794373
 30
0.0
 11
92.9457705440704558
 21
33.5416493531794373
 31
0.0
  0
LINE
  5
12FA
  8
0
 10
84.4457705440718058
 20
32.8829337471365335
 30
0.0
 11
84.4457705440718769
 21
33.5416493531794373
 31
0.0
  0
LINE
  5
12FB
  8
0
 10
83.4457705440721043
 20
33.8536586541997835
 30
0.0
 11
83.9449776109685644
 21
33.3544515873032665
 31
0.0
  0
ENDSEC
  0
EOF
