  0
SECTION
  2
HEADER
  9
$ACADVER
  1
AC1009
  9
$INSBASE
 10
0.0
 20
0.0
 30
0.0
  9
$EXTMIN
 10
0.0
 20
-2.960436562073669
 30
0.0
  9
$EXTMAX
 10
165.0099999999999056
 20
162.5099999999999909
 30
0.0
  9
$LIMMIN
 10
0.0
 20
0.0
  9
$LIMMAX
 10
187.5
 20
135.0
  9
$ORTHOMODE
 70
     1
  9
$REGENMODE
 70
     1
  9
$FILLMODE
 70
     1
  9
$QTEXTMODE
 70
     0
  9
$MIRRTEXT
 70
     0
  9
$DRAGMODE
 70
     2
  9
$LTSCALE
 40
5.0
  9
$OSMODE
 70
    37
  9
$ATTMODE
 70
     1
  9
$TEXTSIZE
 40
5.0
  9
$TRACEWID
 40
0.05
  9
$TEXTSTYLE
  7
STANDARD
  9
$CLAYER
  8
0
  9
$CELTYPE
  6
BYLAYER
  9
$CECOLOR
 62
   256
  9
$DIMSCALE
 40
0.5
  9
$DIMASZ
 40
3.0
  9
$DIMEXO
 40
2.0
  9
$DIMDLI
 40
0.38
  9
$DIMRND
 40
0.0
  9
$DIMDLE
 40
0.0
  9
$DIMEXE
 40
2.0
  9
$DIMTP
 40
0.0
  9
$DIMTM
 40
0.0
  9
$DIMTXT
 40
3.2000000000000002
  9
$DIMCEN
 40
0.09
  9
$DIMTSZ
 40
0.0
  9
$DIMTOL
 70
     0
  9
$DIMLIM
 70
     0
  9
$DIMTIH
 70
     0
  9
$DIMTOH
 70
     0
  9
$DIMSE1
 70
     0
  9
$DIMSE2
 70
     0
  9
$DIMTAD
 70
     1
  9
$DIMZIN
 70
     0
  9
$DIMBLK
  1

  9
$DIMASO
 70
     1
  9
$DIMSHO
 70
     0
  9
$DIMPOST
  1

  9
$DIMAPOST
  1

  9
$DIMALT
 70
     0
  9
$DIMALTD
 70
     2
  9
$DIMALTF
 40
25.3999999999999986
  9
$DIMLFAC
 40
1.0
  9
$DIMTOFL
 70
     0
  9
$DIMTVP
 40
1.6000000000000001
  9
$DIMTIX
 70
     1
  9
$DIMSOXD
 70
     0
  9
$DIMSAH
 70
     0
  9
$DIMBLK1
  1

  9
$DIMBLK2
  1

  9
$DIMSTYLE
  2
STANDARD
  9
$DIMCLRD
 70
     0
  9
$DIMCLRE
 70
     0
  9
$DIMCLRT
 70
     0
  9
$DIMTFAC
 40
1.0
  9
$DIMGAP
 40
0.09
  9
$LUNITS
 70
     2
  9
$LUPREC
 70
     1
  9
$SKETCHINC
 40
0.1
  9
$FILLETRAD
 40
0.0
  9
$AUNITS
 70
     0
  9
$AUPREC
 70
     0
  9
$MENU
  1
E:\r13\win\SUPPORT\ACAD
  9
$ELEVATION
 40
0.0
  9
$PELEVATION
 40
0.0
  9
$THICKNESS
 40
0.0
  9
$LIMCHECK
 70
     0
  9
$BLIPMODE
 70
     0
  9
$CHAMFERA
 40
0.0
  9
$CHAMFERB
 40
0.0
  9
$SKPOLY
 70
     0
  9
$TDCREATE
 40
2449839.7834837958216667
  9
$TDUPDATE
 40
2460580.5713078710250556
  9
$TDINDWG
 40
0.065598588
  9
$TDUSRTIMER
 40
0.065598588
  9
$USRTIMER
 70
     1
  9
$ANGBASE
 50
0.0
  9
$ANGDIR
 70
     0
  9
$PDMODE
 70
     0
  9
$PDSIZE
 40
0.0
  9
$PLINEWID
 40
0.0
  9
$COORDS
 70
     1
  9
$SPLFRAME
 70
     0
  9
$SPLINETYPE
 70
     6
  9
$SPLINESEGS
 70
     8
  9
$ATTDIA
 70
     1
  9
$ATTREQ
 70
     1
  9
$HANDLING
 70
     1
  9
$HANDSEED
  5
24D0
  9
$SURFTAB1
 70
     6
  9
$SURFTAB2
 70
     6
  9
$SURFTYPE
 70
     6
  9
$SURFU
 70
     6
  9
$SURFV
 70
     6
  9
$UCSNAME
  2

  9
$UCSORG
 10
0.0
 20
0.0
 30
0.0
  9
$UCSXDIR
 10
1.0
 20
0.0
 30
0.0
  9
$UCSYDIR
 10
0.0
 20
1.0
 30
0.0
  9
$PUCSNAME
  2

  9
$PUCSORG
 10
0.0
 20
0.0
 30
0.0
  9
$PUCSXDIR
 10
1.0
 20
0.0
 30
0.0
  9
$PUCSYDIR
 10
0.0
 20
1.0
 30
0.0
  9
$USERI1
 70
     0
  9
$USERI2
 70
     1
  9
$USERI3
 70
     1
  9
$USERI4
 70
     0
  9
$USERI5
 70
     0
  9
$USERR1
 40
0.0
  9
$USERR2
 40
0.0
  9
$USERR3
 40
0.0
  9
$USERR4
 40
0.0
  9
$USERR5
 40
0.0
  9
$WORLDVIEW
 70
     1
  9
$SHADEDGE
 70
     3
  9
$SHADEDIF
 70
    70
  9
$TILEMODE
 70
     1
  9
$MAXACTVP
 70
    16
  9
$PLIMCHECK
 70
     0
  9
$PEXTMIN
 10
1.0000000000000000E+20
 20
1.0000000000000000E+20
 30
1.0000000000000000E+20
  9
$PEXTMAX
 10
-1.0000000000000000E+20
 20
-1.0000000000000000E+20
 30
-1.0000000000000000E+20
  9
$PLIMMIN
 10
0.0
 20
0.0
  9
$PLIMMAX
 10
12.0
 20
9.0
  9
$UNITMODE
 70
     0
  9
$VISRETAIN
 70
     0
  9
$PLINEGEN
 70
     0
  9
$PSLTSCALE
 70
     0
  0
ENDSEC
  0
SECTION
  2
TABLES
  0
TABLE
  2
VPORT
 70
     1
  0
VPORT
  2
*ACTIVE
 70
     0
 10
0.0
 20
0.0
 11
1.0
 21
1.0
 12
199.62438423645321
 22
85.0
 13
0.0
 23
0.0
 14
5.0
 24
5.0
 15
5.0
 25
5.0
 16
0.0
 26
0.0
 36
1.0
 17
0.0
 27
0.0
 37
0.0
 40
170.0
 41
2.3485221674876842
 42
50.0
 43
0.0
 44
0.0
 50
0.0
 51
0.0
 71
     0
 72
   500
 73
     1
 74
     0
 75
     0
 76
     0
 77
     0
 78
     2
  0
ENDTAB
  0
TABLE
  2
LTYPE
 70
     3
  0
LTYPE
  2
CONTINUOUS
 70
     0
  3
Solid Line
 72
    65
 73
     0
 40
0.0
  0
LTYPE
  2
CENTER
 70
     0
  3
____ _ ____ _ ____ _ ____ _ ____ _ ____ _ ____
 72
    65
 73
     4
 40
2.0
 49
1.25
 49
-0.25
 49
0.25
 49
-0.25
  0
LTYPE
  2
HIDDEN
 70
     0
  3
_ _ _ _ _ _ _ _ _ _ _ _ _ _ _ _ _ _ _ _ _ _ _
 72
    65
 73
     2
 40
0.375
 49
0.25
 49
-0.125
  0
ENDTAB
  0
TABLE
  2
LAYER
 70
     4
  0
LAYER
  2
0
 70
     0
 62
     7
  6
CONTINUOUS
  0
LAYER
  2
1
 70
     0
 62
     1
  6
CENTER
  0
LAYER
  2
3
 70
     0
 62
     3
  6
CONTINUOUS
  0
LAYER
  2
2
 70
     0
 62
     2
  6
HIDDEN
  0
ENDTAB
  0
TABLE
  2
STYLE
 70
     2
  0
STYLE
  2
STANDARD
 70
     0
 40
0.0
 41
1.0
 50
0.0
 71
     0
 42
5.0
  3
TXT
  4
BIGFONT
  0
STYLE
  2
STANDARD1
 70
     0
 40
0.0
 41
1.0
 50
0.0
 71
     0
 42
3.0
  3
txt
  4

  0
ENDTAB
  0
TABLE
  2
VIEW
 70
     1
  0
VIEW
  2
ALL
 70
     0
 40
135.0
 10
110.4957983193277045
 20
67.5
 41
0.0
 11
0.0
 21
0.0
 31
1.0
 12
0.0
 22
0.0
 32
0.0
 42
0.0
 43
0.0
 44
0.0
 50
0.0
 71
     0
  0
ENDTAB
  0
TABLE
  2
UCS
 70
     0
  0
ENDTAB
  0
TABLE
  2
APPID
 70
     8
  0
APPID
  2
ACAD
 70
     0
  0
APPID
  2
ACAD_MLEADERVER
 70
     0
  0
APPID
  2
ACAD_NAV_VCDISPLAY
 70
     0
  0
APPID
  2
ACAD_EXEMPT_FROM_CAD_STANDARDS
 70
     0
  0
APPID
  2
ACAD_DSTYLE_DIMJAG
 70
     0
  0
APPID
  2
ACAD_DSTYLE_DIMTALN
 70
     0
  0
APPID
  2
ACAD_TC
 70
     0
  0
APPID
  2
ACAD_DSTYLE_DIMRADIAL_EXTENSION
 70
     0
  0
ENDTAB
  0
TABLE
  2
DIMSTYLE
 70
     1
  0
DIMSTYLE
  2
STANDARD
 70
     0
  3

  4

  5

  6

  7

 40
1.0
 41
0.18
 42
0.0625
 43
0.38
 44
0.18
 45
0.0
 46
0.0
 47
0.0
 48
0.0
140
0.18
141
0.09
142
0.0
143
25.3999999999999986
144
1.0
145
0.0
146
1.0
147
0.09
 71
     0
 72
     0
 73
     1
 74
     1
 75
     0
 76
     0
 77
     0
 78
     0
170
     0
171
     2
172
     0
173
     0
174
     0
175
     0
176
     0
177
     0
178
     0
  0
ENDTAB
  0
ENDSEC
  0
SECTION
  2
BLOCKS
  0
BLOCK
  8
0
  2
$MODEL_SPACE
 70
     0
 10
0.0
 20
0.0
 30
0.0
  3
$MODEL_SPACE
  1

  0
ENDBLK
  5
3D3
  8
0
  0
BLOCK
 67
     1
  8
0
  2
$PAPER_SPACE
 70
     0
 10
0.0
 20
0.0
 30
0.0
  3
$PAPER_SPACE
  1

  0
ENDBLK
  5
3D1
 67
     1
  8
0
  0
ENDSEC
  0
SECTION
  2
ENTITIES
  0
TEXT
  5
B82
  8
0
 62
     3
 10
0.0
 20
0.0
 30
0.0
 40
10.0
  1
FTK25R-M6X22
  7
STANDARD1
  0
LINE
  5
19BB
  8
0
 10
81.7500000000000142
 20
112.460791476407806
 30
0.0
 11
81.0000000000000142
 21
111.7499999999999005
 31
0.0
  0
LINE
  5
19BC
  8
0
 10
81.0000000000000142
 20
88.2499999999999289
 30
0.0
 11
81.7500000000000142
 21
87.4999999999999432
 31
0.0
  0
LINE
  5
19BD
  8
0
 10
91.2500000000000142
 20
87.4899999999999238
 30
0.0
 11
92.0000000000000142
 21
88.239999999999938
 31
0.0
  0
LINE
  5
19BE
  8
0
 10
92.0000000000000142
 20
111.7599999999999056
 30
0.0
 11
91.2500000000000142
 21
112.5099999999999056
 31
0.0
  0
LINE
  5
19BF
  8
0
 10
90.1000000000000369
 20
87.4899999999999238
 30
0.0
 11
91.2500000000000142
 21
87.4899999999999238
 31
0.0
  0
LINE
  5
19C0
  8
0
 10
91.2500000000000142
 20
112.5099999999999056
 30
0.0
 11
90.1000000000000369
 21
112.5099999999999056
 31
0.0
  0
LINE
  5
19C1
  8
0
 10
98.2500000000000142
 20
91.9999999999999289
 30
0.0
 11
99.0000000000000142
 21
92.7499999999999432
 31
0.0
  0
LINE
  5
19C2
  8
0
 10
99.0000000000000142
 20
107.2499999999999005
 30
0.0
 11
98.2500000000000142
 21
107.9999999999999005
 31
0.0
  0
LINE
  5
19C3
  8
0
 10
92.0000000000000142
 20
91.9999999999999289
 30
0.0
 11
98.2500000000000142
 21
91.9999999999999289
 31
0.0
  0
LINE
  5
19C4
  8
0
 10
98.2500000000000142
 20
107.9999999999999005
 30
0.0
 11
92.0000000000000142
 21
107.9999999999999005
 31
0.0
  0
LINE
  5
19C5
  8
0
 10
99.0000000000000142
 20
95.9999999999999432
 30
0.0
 11
100.0
 21
95.9999999999999432
 31
0.0
  0
LINE
  5
19C6
  8
0
 10
100.0
 20
103.9999999999999005
 30
0.0
 11
99.0000000000000142
 21
103.9999999999999005
 31
0.0
  0
LINE
  5
19C7
  8
0
 10
121.3864999999999981
 20
96.9999999999999432
 30
0.0
 11
122.0
 21
97.6134999999999309
 31
0.0
  0
LINE
  5
19C8
  8
0
 10
122.0
 20
102.3864999999998986
 30
0.0
 11
121.3864999999999981
 21
102.9999999999999005
 31
0.0
  0
LINE
  5
19C9
  8
0
 10
114.0
 20
96.9999999999999432
 30
0.0
 11
121.3864999999999981
 21
96.9999999999999432
 31
0.0
  0
LINE
  5
19CA
  8
0
 10
121.3864999999999981
 20
102.9999999999999005
 30
0.0
 11
114.0
 21
102.9999999999999005
 31
0.0
  0
LINE
  5
19CB
  8
0
 10
100.0
 20
97.6499999999999488
 30
0.0
 11
114.0
 21
97.6499999999999488
 31
0.0
  0
LINE
  5
19CC
  8
0
 10
114.0
 20
102.3499999999998948
 30
0.0
 11
100.0
 21
102.3499999999998948
 31
0.0
  0
LINE
  5
19CD
  8
0
 10
81.7499999999995168
 20
87.4999999999999432
 30
0.0
 11
90.1000000000000369
 21
87.4999999999999432
 31
0.0
  0
LINE
  5
19CE
  8
0
 10
90.1000000000000369
 20
97.9850944538431037
 30
0.0
 11
81.7500000000000142
 21
97.9850944538431037
 31
0.0
  0
LINE
  5
19D0
  8
0
 10
90.1000000000000369
 20
99.9568975377787723
 30
0.0
 11
81.7500000000000142
 21
99.9568975377787723
 31
0.0
  0
LINE
  5
19D1
  8
0
 10
81.7500000000000142
 20
112.460791476407806
 30
0.0
 11
81.7500000000000142
 21
112.1068502561568039
 31
0.0
  0
LINE
  5
19D3
  8
0
 10
81.7500000000000142
 20
111.4644125910889016
 30
0.0
 11
81.7500000000000142
 21
110.4409439535137949
 31
0.0
  0
LINE
  5
19D5
  8
0
 10
81.7500000000000142
 20
109.2256867128355964
 30
0.0
 11
81.7500000000000142
 21
107.6435993655698979
 31
0.0
  0
LINE
  5
19D7
  8
0
 10
81.7500000000000142
 20
105.9872145279677937
 30
0.0
 11
81.7500000000000142
 21
104.017952183702306
 31
0.0
  0
LINE
  5
19D9
  8
0
 10
81.7500000000000142
 20
102.0999347477894048
 30
0.0
 11
81.7500000000000142
 21
99.9568975377787723
 31
0.0
  0
LINE
  5
19DA
  8
0
 10
81.7500000000000142
 20
97.9850944538431037
 30
0.0
 11
81.7500000000000142
 21
95.9005137124405138
 31
0.0
  0
LINE
  5
19DC
  8
0
 10
81.7499999999997442
 20
94.088600440303793
 30
0.0
 11
81.7500000000000142
 21
92.2883728364430596
 31
0.0
  0
LINE
  5
19DE
  8
0
 10
81.7500000000000142
 20
90.8326982938724257
 30
0.0
 11
81.7500000000000142
 21
89.5119064218412461
 31
0.0
  0
LINE
  5
19E0
  8
0
 10
81.7500000000004121
 20
88.570215532642024
 30
0.0
 11
81.7500000000000142
 21
87.8719876859724138
 31
0.0
  0
LINE
  5
19E2
  8
0
 10
81.7499999999995026
 20
87.5463272698289643
 30
0.0
 11
81.7499999999995168
 21
87.4999999999999432
 31
0.0
  0
LINE
  5
19E3
  8
0
 10
80.9999999999999574
 20
99.9999999999999147
 30
0.0
 11
81.0000000000000142
 21
111.7499999999999005
 31
0.0
  0
LINE
  5
19E4
  8
0
 10
81.0000000000000142
 20
88.2499999999999289
 30
0.0
 11
80.9999999999999574
 21
99.9999999999999147
 31
0.0
  0
LINE
  5
19E5
  8
0
 10
91.2500000000000142
 20
87.4899999999999238
 30
0.0
 11
91.2499999999999147
 21
112.5100000000000051
 31
0.0
  0
LINE
  5
19E6
  8
0
 10
92.0000000000000142
 20
88.239999999999938
 30
0.0
 11
91.9999999999999432
 21
111.7600000000000051
 31
0.0
  0
LINE
  5
19E7
  8
0
 10
90.1000000000000369
 20
87.4899999999999238
 30
0.0
 11
90.0999999999999233
 21
112.5099999999999056
 31
0.0
  0
LINE
  5
19E8
  8
0
 10
90.1000000000000369
 20
102.0999347477894048
 30
0.0
 11
81.7500000000000142
 21
102.0999347477894048
 31
0.0
  0
LINE
  5
19E9
  8
0
 10
90.1000000000000369
 20
104.017952183702306
 30
0.0
 11
81.7500000000000142
 21
104.017952183702306
 31
0.0
  0
LINE
  5
19EA
  8
0
 10
90.1000000000000369
 20
95.9005137124405138
 30
0.0
 11
81.7500000000000142
 21
95.9005137124405138
 31
0.0
  0
LINE
  5
19EB
  8
0
 10
90.1000000000000369
 20
94.088600440303793
 30
0.0
 11
81.7499999999997442
 21
94.088600440303793
 31
0.0
  0
LINE
  5
19EC
  8
0
 10
90.1000000000000369
 20
105.9872145279677937
 30
0.0
 11
81.7500000000000142
 21
105.9872145279677937
 31
0.0
  0
LINE
  5
19ED
  8
0
 10
90.1000000000000369
 20
107.6435993655698979
 30
0.0
 11
81.7500000000000142
 21
107.6435993655698979
 31
0.0
  0
LINE
  5
19EE
  8
0
 10
90.1000000000000369
 20
92.2883728364430596
 30
0.0
 11
81.7500000000000142
 21
92.2883728364430596
 31
0.0
  0
LINE
  5
19EF
  8
0
 10
90.1000000000000369
 20
90.8326982938724257
 30
0.0
 11
81.7500000000000142
 21
90.8326982938724257
 31
0.0
  0
LINE
  5
19F0
  8
0
 10
90.1000000000000369
 20
109.2256867128355964
 30
0.0
 11
81.7500000000000142
 21
109.2256867128355964
 31
0.0
  0
LINE
  5
19F1
  8
0
 10
90.1000000000000369
 20
110.4409439535137949
 30
0.0
 11
81.7500000000000142
 21
110.4409439535137949
 31
0.0
  0
LINE
  5
19F2
  8
0
 10
90.1000000000000369
 20
89.5119064218412461
 30
0.0
 11
81.7500000000000142
 21
89.5119064218412461
 31
0.0
  0
LINE
  5
19F3
  8
0
 10
99.0000000000000142
 20
92.7499999999999432
 30
0.0
 11
98.9999999999999574
 21
107.25
 31
0.0
  0
LINE
  5
19F4
  8
0
 10
98.2500000000000142
 20
91.9999999999999716
 30
0.0
 11
98.2500000000000142
 21
107.9999999999999005
 31
0.0
  0
LINE
  5
19F5
  8
0
 10
90.1000000000000369
 20
88.570215532642024
 30
0.0
 11
81.7500000000004121
 21
88.570215532642024
 31
0.0
  0
LINE
  5
19F6
  8
0
 10
90.1000000000000369
 20
111.4644125910889016
 30
0.0
 11
81.7500000000000142
 21
111.4644125910889016
 31
0.0
  0
LINE
  5
19F7
  8
0
 10
90.1000000000000369
 20
112.1068502561568039
 30
0.0
 11
81.7500000000000142
 21
112.1068502561568039
 31
0.0
  0
LINE
  5
19F8
  8
0
 10
90.1000000000000369
 20
87.8719876859724138
 30
0.0
 11
81.7500000000000142
 21
87.8719876859724138
 31
0.0
  0
LINE
  5
19F9
  8
0
 10
100.0
 20
95.9999999999999432
 30
0.0
 11
100.0
 21
103.9999999999999005
 31
0.0
  0
LINE
  5
19FA
  8
0
 10
90.1000000000000369
 20
112.460791476407806
 30
0.0
 11
81.7500000000000142
 21
112.460791476407806
 31
0.0
  0
LINE
  5
19FB
  8
0
 10
90.1000000000000369
 20
87.5463272698289643
 30
0.0
 11
81.7499999999995026
 21
87.5463272698289643
 31
0.0
  0
LINE
  5
19FC
  8
0
 10
122.0
 20
97.6134999999999309
 30
0.0
 11
122.0
 21
102.3864999999998986
 31
0.0
  0
LINE
  5
19FD
  8
0
 10
121.3864999999999981
 20
96.9999999999999289
 30
0.0
 11
121.3864999999999981
 21
103.0
 31
0.0
  0
LINE
  5
19FE
  8
0
 10
114.0
 20
96.9999999999999289
 30
0.0
 11
114.0
 21
102.9999999999999005
 31
0.0
  0
LINE
  5
19FF
  8
2
 10
82.6666666666666288
 20
91.5789473684209554
 30
0.0
 11
82.6666666666666714
 21
108.4210526315789025
 31
0.0
  0
LINE
  5
1A00
  8
2
 10
81.0000000000000142
 20
90.2031249999999289
 30
0.0
 11
82.666666666666714
 21
91.5789473684209838
 31
0.0
  0
LINE
  5
1A01
  8
2
 10
82.666666666666714
 20
108.4210526315789025
 30
0.0
 11
81.0000000000000142
 21
109.7968749999999005
 31
0.0
  0
LINE
  5
1A02
  8
0
 10
81.7500000000000711
 20
162.5
 30
0.0
 11
81.0000000000000568
 21
161.7500000000001137
 31
0.0
  0
LINE
  5
1A03
  8
0
 10
80.9999999999999574
 20
138.2500000000001137
 30
0.0
 11
81.7499999999999432
 21
137.5000000000001137
 31
0.0
  0
LINE
  5
1A04
  8
0
 10
90.0999999999999801
 20
137.4900000000000091
 30
0.0
 11
91.2499999999999574
 21
137.4900000000000091
 31
0.0
  0
LINE
  5
1A05
  8
0
 10
91.2500000000000711
 20
162.5099999999999909
 30
0.0
 11
90.1000000000000369
 21
162.5099999999999909
 31
0.0
  0
LINE
  5
1A06
  8
0
 10
91.2499999999999574
 20
137.4900000000000091
 30
0.0
 11
91.9999999999999858
 21
138.2400000000000091
 31
0.0
  0
LINE
  5
1A07
  8
0
 10
92.0000000000000853
 20
161.7599999999999909
 30
0.0
 11
91.2500000000000711
 21
162.5099999999999909
 31
0.0
  0
LINE
  5
1A08
  8
0
 10
91.9999999999999858
 20
142.0
 30
0.0
 11
98.2500000000000142
 21
142.0
 31
0.0
  0
LINE
  5
1A09
  8
0
 10
98.2500000000000426
 20
158.0
 30
0.0
 11
92.0000000000000426
 21
158.0
 31
0.0
  0
LINE
  5
1A0A
  8
0
 10
98.2500000000000142
 20
142.0
 30
0.0
 11
99.0000000000000142
 21
142.75
 31
0.0
  0
LINE
  5
1A0B
  8
0
 10
99.0000000000000568
 20
157.25
 30
0.0
 11
98.2500000000000426
 21
158.0
 31
0.0
  0
LINE
  5
1A0C
  8
0
 10
99.0000000000000142
 20
146.0
 30
0.0
 11
100.0
 21
146.0
 31
0.0
  0
LINE
  5
1A0D
  8
0
 10
100.0
 20
154.0
 30
0.0
 11
99.0000000000000142
 21
154.0
 31
0.0
  0
LINE
  5
1A0E
  8
0
 10
114.0
 20
147.0
 30
0.0
 11
121.3864999999999981
 21
146.9999999999998863
 31
0.0
  0
LINE
  5
1A0F
  8
0
 10
121.3864999999999981
 20
152.9999999999998863
 30
0.0
 11
114.0
 21
152.9999999999998863
 31
0.0
  0
LINE
  5
1A10
  8
0
 10
121.3864999999999981
 20
146.9999999999998863
 30
0.0
 11
122.0
 21
147.6134999999999025
 31
0.0
  0
LINE
  5
1A11
  8
0
 10
122.0
 20
152.3864999999998986
 30
0.0
 11
121.3864999999999981
 21
152.9999999999998863
 31
0.0
  0
LINE
  5
1A12
  8
0
 10
100.0
 20
147.6500000000000057
 30
0.0
 11
114.0
 21
147.649999999999892
 31
0.0
  0
LINE
  5
1A13
  8
0
 10
114.0
 20
152.3499999999999091
 30
0.0
 11
100.0
 21
152.3499999999999943
 31
0.0
  0
LINE
  5
1A14
  8
0
 10
90.1000000000000369
 20
162.5000000000001137
 30
0.0
 11
81.7500000000000142
 21
162.5000000000001137
 31
0.0
  0
LINE
  5
1A15
  8
0
 10
81.7500000000000142
 20
137.5000000000001137
 30
0.0
 11
90.1000000000000369
 21
137.5000000000001137
 31
0.0
  0
LINE
  5
1A17
  8
0
 10
81.7499999999996163
 20
159.8906718042132979
 30
0.0
 11
81.7500000000000142
 21
158.4342578023563135
 31
0.0
  0
LINE
  5
1A19
  8
0
 10
81.7500000000005258
 20
156.8728952676133872
 30
0.0
 11
81.7500000000000142
 21
154.981690871710299
 31
0.0
  0
LINE
  5
1A1B
  8
0
 10
81.7500000000006537
 20
153.1103338848097053
 30
0.0
 11
81.7500000000000142
 21
150.9892804362160916
 31
0.0
  0
LINE
  5
1A1D
  8
0
 10
81.7500000000000142
 20
149.0107195637839936
 30
0.0
 11
81.7500000000000142
 21
146.8896661151904937
 31
0.0
  0
LINE
  5
1A1F
  8
0
 10
81.7500000000000142
 20
145.0183091282898999
 30
0.0
 11
81.7500000000000142
 21
143.1271047323866981
 31
0.0
  0
LINE
  5
1A21
  8
0
 10
81.7500000000000142
 20
141.5657421976438002
 30
0.0
 11
81.7500000000000142
 21
140.1093281957867873
 31
0.0
  0
LINE
  5
1A23
  8
0
 10
81.7500000000000142
 20
139.0271579708769991
 30
0.0
 11
81.7500000000000142
 21
138.1633594187590859
 31
0.0
  0
LINE
  5
1A25
  8
0
 10
81.7500000000000142
 20
137.6776514391524131
 30
0.0
 11
81.7499999999999432
 21
137.4999999999998863
 31
0.0
  0
LINE
  5
1A26
  8
0
 10
81.7500000000000711
 20
162.5000000000001137
 30
0.0
 11
81.7500000000000142
 21
162.3223485608477858
 31
0.0
  0
LINE
  5
1A28
  8
0
 10
81.7500000000000142
 20
161.8366405812409994
 30
0.0
 11
81.7500000000000142
 21
160.9728420291230861
 31
0.0
  0
LINE
  5
1A29
  8
0
 10
80.9999999999999574
 20
138.2500000000001137
 30
0.0
 11
81.0000000000000568
 21
161.75
 31
0.0
  0
LINE
  5
1A2A
  8
0
 10
90.1000000000000369
 20
149.0107195637839936
 30
0.0
 11
81.7500000000000142
 21
149.0107195637839936
 31
0.0
  0
LINE
  5
1A2B
  8
0
 10
90.1000000000000369
 20
150.9892804362160916
 30
0.0
 11
81.7500000000000142
 21
150.9892804362160916
 31
0.0
  0
LINE
  5
1A2C
  8
0
 10
91.2499999999999574
 20
137.4900000000000091
 30
0.0
 11
91.2500000000000711
 21
162.5099999999999909
 31
0.0
  0
LINE
  5
1A2D
  8
0
 10
90.0999999999999801
 20
137.4900000000000091
 30
0.0
 11
90.1000000000000369
 21
162.5099999999999909
 31
0.0
  0
LINE
  5
1A2E
  8
0
 10
91.9999999999999858
 20
138.2400000000000091
 30
0.0
 11
92.0000000000000853
 21
161.7599999999999909
 31
0.0
  0
LINE
  5
1A2F
  8
0
 10
90.1000000000000369
 20
153.1103338848097053
 30
0.0
 11
81.7500000000006537
 21
153.1103338848097053
 31
0.0
  0
LINE
  5
1A30
  8
0
 10
90.1000000000000369
 20
146.8896661151904084
 30
0.0
 11
81.7500000000000142
 21
146.8896661151904937
 31
0.0
  0
LINE
  5
1A31
  8
0
 10
90.1000000000000369
 20
154.9816908717102137
 30
0.0
 11
81.7500000000000142
 21
154.981690871710299
 31
0.0
  0
LINE
  5
1A32
  8
0
 10
90.1000000000000369
 20
145.0183091282897863
 30
0.0
 11
81.7500000000000142
 21
145.0183091282898999
 31
0.0
  0
LINE
  5
1A33
  8
0
 10
90.1000000000000369
 20
156.8728952676133872
 30
0.0
 11
81.7500000000005258
 21
156.8728952676133872
 31
0.0
  0
LINE
  5
1A34
  8
0
 10
90.1000000000000369
 20
143.1271047323866981
 30
0.0
 11
81.7500000000000142
 21
143.1271047323866981
 31
0.0
  0
LINE
  5
1A35
  8
0
 10
90.1000000000000369
 20
158.4342578023563135
 30
0.0
 11
81.7500000000000142
 21
158.4342578023563135
 31
0.0
  0
LINE
  5
1A36
  8
0
 10
90.1000000000000369
 20
141.5657421976438002
 30
0.0
 11
81.7500000000000142
 21
141.5657421976438002
 31
0.0
  0
LINE
  5
1A37
  8
0
 10
90.1000000000000369
 20
159.8906718042132979
 30
0.0
 11
81.7499999999996163
 21
159.8906718042132979
 31
0.0
  0
LINE
  5
1A38
  8
0
 10
90.1000000000000369
 20
140.1093281957867873
 30
0.0
 11
81.7500000000000142
 21
140.1093281957867873
 31
0.0
  0
LINE
  5
1A39
  8
0
 10
98.2500000000000142
 20
142.0
 30
0.0
 11
98.2500000000000426
 21
158.0
 31
0.0
  0
LINE
  5
1A3A
  8
0
 10
99.0000000000000142
 20
142.75
 30
0.0
 11
99.0000000000000568
 21
157.25
 31
0.0
  0
LINE
  5
1A3B
  8
0
 10
90.1000000000000369
 20
139.0271579708769991
 30
0.0
 11
81.7500000000000142
 21
139.0271579708769991
 31
0.0
  0
LINE
  5
1A3C
  8
0
 10
90.1000000000000369
 20
160.9728420291230861
 30
0.0
 11
81.7500000000000142
 21
160.9728420291230861
 31
0.0
  0
LINE
  5
1A3D
  8
0
 10
90.1000000000000369
 20
161.8366405812409994
 30
0.0
 11
81.7500000000000142
 21
161.8366405812409994
 31
0.0
  0
LINE
  5
1A3E
  8
0
 10
90.1000000000000369
 20
138.1633594187590006
 30
0.0
 11
81.7500000000000142
 21
138.1633594187590859
 31
0.0
  0
LINE
  5
1A3F
  8
0
 10
90.1000000000000369
 20
137.6776514391522994
 30
0.0
 11
81.7500000000000142
 21
137.6776514391524131
 31
0.0
  0
LINE
  5
1A40
  8
0
 10
90.1000000000000369
 20
162.3223485608477858
 30
0.0
 11
81.7500000000000142
 21
162.3223485608477858
 31
0.0
  0
LINE
  5
1A41
  8
0
 10
100.0
 20
146.0
 30
0.0
 11
100.0
 21
154.0
 31
0.0
  0
LINE
  5
1A42
  8
0
 10
121.3864999999999981
 20
146.9999999999998863
 30
0.0
 11
121.3864999999999981
 21
152.9999999999998863
 31
0.0
  0
LINE
  5
1A43
  8
0
 10
114.0
 20
147.0
 30
0.0
 11
114.0
 21
153.0
 31
0.0
  0
LINE
  5
1A44
  8
0
 10
122.0
 20
147.6134999999999025
 30
0.0
 11
122.0
 21
152.3864999999998986
 31
0.0
  0
CIRCLE
  5
1A45
  8
3
 10
149.999999999999801
 20
99.9999999999999147
 30
0.0
 40
2.458500000000071
  0
CIRCLE
  5
1A46
  8
0
 10
149.999999999999801
 20
99.9999999999999147
 30
0.0
 40
3.0
  0
CIRCLE
  5
1A47
  8
0
 10
149.9999999999998863
 20
99.9999999999999147
 30
0.0
 40
4.0
  0
CIRCLE
  5
1A48
  8
0
 10
149.9999999999998863
 20
99.9999999999999147
 30
0.0
 40
7.25
  0
CIRCLE
  5
1A49
  8
0
 10
149.9999999999998863
 20
99.9999999999999147
 30
0.0
 40
8.0
  0
CIRCLE
  5
1A4A
  8
0
 10
149.9999999999998863
 20
99.9999999999999147
 30
0.0
 40
12.5099999999999891
  0
CIRCLE
  5
1A4B
  8
0
 10
149.9999999999998863
 20
99.9999999999999147
 30
0.0
 40
11.7599999999999998
  0
CIRCLE
  5
1A4C
  8
0
 10
149.9999999999998863
 20
99.9999999999999147
 30
0.0
 40
10.8695652173912798
  0
CIRCLE
  5
1A4D
  8
0
 10
149.9999999999998863
 20
99.9999999999999147
 30
0.0
 40
8.4210526315789593
  0
LINE
  5
1A4E
  8
0
 10
81.7499999999999432
 20
62.4999999999999432
 30
0.0
 11
80.9999999999999432
 21
61.7499999999999432
 31
0.0
  0
LINE
  5
1A4F
  8
0
 10
81.0000000000000568
 20
38.2499999999999432
 30
0.0
 11
81.7500000000000568
 21
37.4999999999999503
 31
0.0
  0
LINE
  5
1A50
  8
0
 10
91.2500000000000568
 20
37.4899999999999665
 30
0.0
 11
92.0000000000000568
 21
38.2399999999999807
 31
0.0
  0
LINE
  5
1A51
  8
0
 10
91.9999999999999716
 20
61.7599999999999767
 30
0.0
 11
91.2499999999999432
 21
62.5099999999999625
 31
0.0
  0
LINE
  5
1A52
  8
0
 10
90.1000000000000369
 20
37.4899999999999665
 30
0.0
 11
91.2500000000000568
 21
37.4899999999999665
 31
0.0
  0
LINE
  5
1A53
  8
0
 10
91.2499999999999432
 20
62.5099999999999696
 30
0.0
 11
90.0999999999999659
 21
62.5099999999999625
 31
0.0
  0
LINE
  5
1A54
  8
0
 10
92.0000000000000142
 20
41.9999999999999716
 30
0.0
 11
98.2500000000000142
 21
42.0
 31
0.0
  0
LINE
  5
1A55
  8
0
 10
98.2500000000000142
 20
58.0
 30
0.0
 11
91.9999999999999716
 21
57.9999999999999716
 31
0.0
  0
LINE
  5
1A56
  8
0
 10
98.2500000000000142
 20
42.0
 30
0.0
 11
99.0000000000000284
 21
42.75
 31
0.0
  0
LINE
  5
1A57
  8
0
 10
99.0
 20
57.25
 30
0.0
 11
98.2500000000000142
 21
58.0
 31
0.0
  0
LINE
  5
1A58
  8
0
 10
99.0
 20
46.0
 30
0.0
 11
100.0
 21
46.0
 31
0.0
  0
LINE
  5
1A59
  8
0
 10
100.0
 20
54.0
 30
0.0
 11
99.0
 21
54.0
 31
0.0
  0
LINE
  5
1A5A
  8
0
 10
114.0
 20
47.0000000000000497
 30
0.0
 11
121.3864999999999981
 21
47.0000000000000711
 31
0.0
  0
LINE
  5
1A5B
  8
0
 10
121.3864999999999981
 20
53.0000000000000711
 30
0.0
 11
114.0
 21
53.0000000000000568
 31
0.0
  0
LINE
  5
1A5C
  8
0
 10
121.3864999999999981
 20
47.0000000000000711
 30
0.0
 11
122.0
 21
47.6135000000000801
 31
0.0
  0
LINE
  5
1A5D
  8
0
 10
122.0
 20
52.3865000000000833
 30
0.0
 11
121.3864999999999981
 21
53.0000000000000711
 31
0.0
  0
LINE
  5
1A5E
  8
0
 10
100.0
 20
47.6499999999999986
 30
0.0
 11
114.0
 21
47.6500000000000483
 31
0.0
  0
LINE
  5
1A5F
  8
0
 10
114.0
 20
52.3500000000000512
 30
0.0
 11
100.0
 21
52.3500000000000014
 31
0.0
  0
LINE
  5
1A60
  8
0
 10
81.75
 20
37.4999999999998792
 30
0.0
 11
90.1000000000000369
 21
37.4999999999999005
 31
0.0
  0
LINE
  5
1A61
  8
0
 10
90.1000000000000369
 20
62.4999999999999574
 30
0.0
 11
81.75
 21
62.4999999999999218
 31
0.0
  0
LINE
  5
1A62
  8
0
 10
81.7499999999999432
 20
62.5000000000001421
 30
0.0
 11
81.75
 21
62.4999256868890569
 31
0.0
  0
LINE
  5
1A64
  8
0
 10
81.75
 20
62.3365374250664388
 30
0.0
 11
81.75
 21
61.808649888031681
 31
0.0
  0
LINE
  5
1A66
  8
0
 10
81.7499999999997158
 20
61.0138710381783085
 30
0.0
 11
81.75
 21
59.8377236437242175
 31
0.0
  0
LINE
  5
1A68
  8
0
 10
81.75
 20
58.4976808264861674
 30
0.0
 11
81.75
 21
56.8007273946090123
 31
0.0
  0
LINE
  5
1A6A
  8
0
 10
81.7500000000003837
 20
55.0606350421407313
 30
0.0
 11
81.75
 21
53.0267668081298567
 31
0.0
  0
LINE
  5
1A6C
  8
0
 10
81.7499999999994884
 20
51.0751909271360489
 30
0.0
 11
81.75
 21
48.924809072863809
 31
0.0
  0
LINE
  5
1A6E
  8
0
 10
81.7499999999997726
 20
46.9732331918700083
 30
0.0
 11
81.75
 21
44.9393649578591408
 31
0.0
  0
LINE
  5
1A70
  8
0
 10
81.75
 20
43.1992726053908527
 30
0.0
 11
81.75
 21
41.5023191735136834
 31
0.0
  0
LINE
  5
1A72
  8
0
 10
81.7500000000004547
 20
40.1622763562756617
 30
0.0
 11
81.75
 21
38.9861289618215565
 31
0.0
  0
LINE
  5
1A74
  8
0
 10
81.7499999999996589
 20
38.1913501119681982
 30
0.0
 11
81.75
 21
37.6634625749334404
 31
0.0
  0
LINE
  5
1A76
  8
0
 10
81.75
 20
37.5000743131108223
 30
0.0
 11
81.7500000000000568
 21
37.4999999999999432
 31
0.0
  0
LINE
  5
1A77
  8
0
 10
81.0000000000000568
 20
38.2499999999999432
 30
0.0
 11
80.9999999999999432
 21
61.7499999999999432
 31
0.0
  0
LINE
  5
1A78
  8
0
 10
90.1000000000000369
 20
51.0751909271360915
 30
0.0
 11
81.7499999999994884
 21
51.0751909271360489
 31
0.0
  0
LINE
  5
1A79
  8
0
 10
90.1000000000000369
 20
53.026766808129878
 30
0.0
 11
81.75
 21
53.0267668081298567
 31
0.0
  0
LINE
  5
1A7A
  8
0
 10
90.1000000000000369
 20
46.9732331918700297
 30
0.0
 11
81.7499999999997726
 21
46.9732331918700083
 31
0.0
  0
LINE
  5
1A7B
  8
0
 10
90.1000000000000369
 20
48.9248090728638303
 30
0.0
 11
81.75
 21
48.924809072863809
 31
0.0
  0
LINE
  5
1A7C
  8
0
 10
91.2500000000000568
 20
37.4899999999999665
 30
0.0
 11
91.2499999999999432
 21
62.5099999999999625
 31
0.0
  0
LINE
  5
1A7D
  8
0
 10
92.0000000000000568
 20
38.2399999999999807
 30
0.0
 11
91.9999999999999716
 21
61.7599999999999767
 31
0.0
  0
LINE
  5
1A7E
  8
0
 10
90.1000000000000369
 20
37.4899999999999665
 30
0.0
 11
90.0999999999999659
 21
62.5099999999999625
 31
0.0
  0
LINE
  5
1A7F
  8
0
 10
90.1000000000000369
 20
44.9393649578591621
 30
0.0
 11
81.75
 21
44.9393649578591408
 31
0.0
  0
LINE
  5
1A80
  8
0
 10
90.1000000000000369
 20
55.0606350421407527
 30
0.0
 11
81.7500000000003837
 21
55.0606350421407313
 31
0.0
  0
LINE
  5
1A81
  8
0
 10
90.1000000000000369
 20
56.8007273946090407
 30
0.0
 11
81.75
 21
56.8007273946090123
 31
0.0
  0
LINE
  5
1A82
  8
0
 10
90.1000000000000369
 20
43.1992726053908669
 30
0.0
 11
81.75
 21
43.1992726053908527
 31
0.0
  0
LINE
  5
1A83
  8
0
 10
90.1000000000000369
 20
41.5023191735137189
 30
0.0
 11
81.75
 21
41.5023191735136834
 31
0.0
  0
LINE
  5
1A84
  8
0
 10
90.1000000000000369
 20
58.4976808264862029
 30
0.0
 11
81.75
 21
58.4976808264861674
 31
0.0
  0
LINE
  5
1A85
  8
0
 10
90.1000000000000369
 20
40.1622763562756901
 30
0.0
 11
81.7500000000004547
 21
40.1622763562756617
 31
0.0
  0
LINE
  5
1A86
  8
0
 10
90.1000000000000369
 20
59.8377236437242388
 30
0.0
 11
81.75
 21
59.8377236437242175
 31
0.0
  0
LINE
  5
1A87
  8
0
 10
98.2500000000000142
 20
42.0000000000000071
 30
0.0
 11
98.2500000000000142
 21
58.0
 31
0.0
  0
LINE
  5
1A88
  8
0
 10
99.0000000000000284
 20
42.75
 30
0.0
 11
99.0
 21
57.25
 31
0.0
  0
LINE
  5
1A89
  8
0
 10
90.1000000000000369
 20
38.9861289618215778
 30
0.0
 11
81.75
 21
38.9861289618215565
 31
0.0
  0
LINE
  5
1A8A
  8
0
 10
90.1000000000000369
 20
61.0138710381783227
 30
0.0
 11
81.7499999999997158
 21
61.0138710381783085
 31
0.0
  0
LINE
  5
1A8B
  8
0
 10
90.1000000000000369
 20
38.1913501119682195
 30
0.0
 11
81.7499999999996589
 21
38.1913501119681982
 31
0.0
  0
LINE
  5
1A8C
  8
0
 10
90.1000000000000369
 20
61.8086498880317095
 30
0.0
 11
81.75
 21
61.808649888031681
 31
0.0
  0
LINE
  5
1A8D
  8
0
 10
90.1000000000000369
 20
37.6634625749334617
 30
0.0
 11
81.75
 21
37.6634625749334404
 31
0.0
  0
LINE
  5
1A8E
  8
0
 10
90.1000000000000369
 20
62.3365374250664601
 30
0.0
 11
81.75
 21
62.3365374250664388
 31
0.0
  0
LINE
  5
1A8F
  8
0
 10
100.0
 20
46.0
 30
0.0
 11
100.0
 21
54.0
 31
0.0
  0
LINE
  5
1A90
  8
0
 10
121.3864999999999981
 20
47.0000000000000711
 30
0.0
 11
121.3864999999999981
 21
53.0000000000000711
 31
0.0
  0
LINE
  5
1A91
  8
0
 10
114.0
 20
47.0000000000000426
 30
0.0
 11
114.0
 21
53.0000000000000568
 31
0.0
  0
LINE
  5
1A92
  8
0
 10
122.0
 20
47.6135000000000801
 30
0.0
 11
122.0
 21
52.3865000000000833
 31
0.0
  0
LINE
  5
1A93
  8
0
 10
90.1000000000000369
 20
37.5000743131108578
 30
0.0
 11
81.75
 21
37.5000743131108223
 31
0.0
  0
LINE
  5
1A94
  8
0
 10
90.1000000000000369
 20
62.4999256868890924
 30
0.0
 11
81.75
 21
62.4999256868890569
 31
0.0
  0
LINE
  5
1A95
  8
1
 10
78.5
 20
49.9999999999998508
 30
0.0
 11
124.5
 21
50.0000000000001705
 31
0.0
  0
LINE
  5
1A96
  8
3
 10
121.9279999999998978
 20
52.4585000000001074
 30
0.0
 11
114.0
 21
52.4585000000001003
 31
0.0
  0
LINE
  5
1A97
  8
3
 10
121.9279999999999973
 20
47.54150000000012
 30
0.0
 11
114.0
 21
47.5415000000000916
 31
0.0
  0
LINE
  5
1A98
  8
1
 10
78.5000000000000142
 20
99.9999999999996447
 30
0.0
 11
124.5
 21
99.9999999999999432
 31
0.0
  0
LINE
  5
1A99
  8
3
 10
121.9279999999998978
 20
102.4584999999999013
 30
0.0
 11
114.0
 21
102.4584999999998018
 31
0.0
  0
LINE
  5
1A9A
  8
3
 10
121.9280000000000967
 20
97.5414999999998997
 30
0.0
 11
114.0
 21
97.5414999999998855
 31
0.0
  0
LINE
  5
1A9B
  8
1
 10
78.5000000000000142
 20
149.9999999999996021
 30
0.0
 11
124.5
 21
149.9999999999998863
 31
0.0
  0
LINE
  5
1A9C
  8
3
 10
121.9279999999998978
 20
152.4584999999999013
 30
0.0
 11
114.0
 21
152.4584999999999013
 31
0.0
  0
LINE
  5
1A9D
  8
3
 10
121.9280000000000967
 20
147.5414999999998997
 30
0.0
 11
114.0
 21
147.5414999999998997
 31
0.0
  0
LINE
  5
1A9E
  8
1
 10
165.0099999999999056
 20
99.9999999999999147
 30
0.0
 11
134.9899999999998101
 21
99.9999999999999147
 31
0.0
  0
LINE
  5
1A9F
  8
1
 10
150.0
 20
115.0100000000000051
 30
0.0
 11
150.0
 21
84.9899999999998812
 31
0.0
  0
LINE
  5
1AA0
  8
1
 10
65.0099999999999341
 20
100.0
 30
0.0
 11
34.9899999999998386
 21
100.0
 31
0.0
  0
LINE
  5
1AA1
  8
1
 10
50.0
 20
115.0100000000000051
 30
0.0
 11
50.0
 21
84.9899999999999523
 31
0.0
  0
CIRCLE
  5
1AA2
  8
0
 10
49.9999999999998934
 20
100.0
 30
0.0
 40
11.75
  0
CIRCLE
  5
1AA3
  8
0
 10
49.9999999999998934
 20
100.0
 30
0.0
 40
9.796875
  0
CIRCLE
  5
1AA4
  8
0
 10
49.9999999999999218
 20
100.0
 30
0.0
 40
8.4210526315789291
  0
CIRCLE
  5
1AA5
  8
0
 10
49.9999999999999218
 20
100.0
 30
0.0
 40
12.5100000000000193
  0
CIRCLE
  5
1AA7
  8
3
 10
149.999999999999801
 20
99.9999999999999147
 30
0.0
 40
2.458500000000071
  0
ARC
  5
1AD6
  8
0
 10
49.9999999999998934
 20
113.1400001934717068
 30
0.0
 40
1.2000001095063371
 50
214.4722632163853007
 51
325.5277367836137046
  0
ARC
  5
1AD7
  8
0
 10
45.7334489118301804
 20
112.4280387389352001
 30
0.0
 40
1.2000001095063371
 50
233.4196316374379876
 51
344.4751052046664768
  0
ARC
  5
1AD8
  8
0
 10
41.9292448364248784
 20
110.3693064461450035
 30
0.0
 40
1.2000001095063371
 50
252.3670000584907029
 51
3.4224736257192698
  0
ARC
  5
1AD9
  8
0
 10
38.9996323136622181
 20
107.1868989035477
 30
0.0
 40
1.2000001095063371
 50
271.3143684795433046
 51
22.3698420467714989
  0
ARC
  5
1ADA
  8
0
 10
37.2620803180055304
 20
103.2256793485246931
 30
0.0
 40
1.2000001095063371
 50
290.2617369005960768
 51
41.3172104678243031
  0
ARC
  5
1ADB
  8
0
 10
36.9048795690812881
 20
98.9149073845168658
 30
0.0
 40
1.2000001095063371
 50
309.2091053216487921
 51
60.2645788888769829
  0
ARC
  5
1ADC
  8
0
 10
37.9667383105760976
 20
94.721722042343373
 30
0.0
 40
1.2000001095063371
 50
328.1564737427008822
 51
79.211947309929883
  0
ARC
  5
1ADD
  8
0
 10
40.3325876714130587
 20
91.1005200178030066
 30
0.0
 40
1.2000001095063371
 50
347.1038421637539955
 51
98.1593157309824704
  0
ARC
  5
1ADE
  8
0
 10
43.7460511634102502
 20
88.4437147389935205
 30
0.0
 40
1.2000001095063371
 50
6.0512105848061477
 51
117.106684152035001
  0
ARC
  5
1ADF
  8
0
 10
47.8372270518664635
 20
87.039212282455253
 30
0.0
 40
1.2000001095063371
 50
24.9985790058588897
 51
136.054052573087489
  0
ARC
  5
1AE0
  8
0
 10
52.1627729481329467
 20
87.0392122824552388
 30
0.0
 40
1.2000001095063371
 50
43.9459474269116228
 51
155.0014209941400054
  0
ARC
  5
1AE1
  8
0
 10
56.2539488365892026
 20
88.4437147389934353
 30
0.0
 40
1.2000001095063371
 50
62.8933158479642884
 51
173.948789415193005
  0
ARC
  5
1AE2
  8
0
 10
59.6674123285864226
 20
91.1005200178029071
 30
0.0
 40
1.2000001095063371
 50
81.8406842690167338
 51
192.896157836245095
  0
ARC
  5
1AE3
  8
0
 10
62.0332616894234121
 20
94.7217220423432025
 30
0.0
 40
1.2000001095063371
 50
100.788052690069307
 51
211.8435262572982083
  0
ARC
  5
1AE4
  8
0
 10
63.0951204309183211
 20
98.9149073845166953
 30
0.0
 40
1.2000001095063371
 50
119.7354211111218945
 51
230.7908946783508952
  0
ARC
  5
1AE5
  8
0
 10
62.7379196819941285
 20
103.2256793485244941
 30
0.0
 40
1.2000001095063371
 50
138.6827895321748088
 51
249.7382630994034969
  0
ARC
  5
1AE6
  8
0
 10
61.0003676863374693
 20
107.1868989035476005
 30
0.0
 40
1.2000001095063371
 50
157.6301579532276946
 51
268.6856315204558996
  0
ARC
  5
1AE7
  8
0
 10
58.0707551635748587
 20
110.369306446144904
 30
0.0
 40
1.2000001095063371
 50
176.5775263742798984
 51
287.6329999415085013
  0
ARC
  5
1AE8
  8
0
 10
54.2665510881695994
 20
112.4280387389351006
 30
0.0
 40
1.2000001095063371
 50
195.5248947953325001
 51
306.5803683625608755
  0
POLYLINE
  5
1AFF
  8
0
 66
     1
 10
0.0
 20
0.0
 30
0.0
  0
VERTEX
  5
1B84
  8
0
 10
81.75
 20
37.5000743131108507
 30
0.0
  0
VERTEX
  5
1B85
  8
0
 10
81.7292169121700454
 20
37.5209051666512821
 30
0.0
  0
VERTEX
  5
1B86
  8
0
 10
81.7086404272886284
 20
37.5415434805021206
 30
0.0
  0
VERTEX
  5
1B87
  8
0
 10
81.688274648803926
 20
37.561986974560547
 30
0.0
  0
VERTEX
  5
1B88
  8
0
 10
81.6681236801640296
 20
37.5822333687237418
 30
0.0
  0
VERTEX
  5
1B89
  8
0
 10
81.648191624817045
 20
37.6022803828888499
 30
0.0
  0
VERTEX
  5
1B8A
  8
0
 10
81.6284825862111489
 20
37.6221257369530875
 30
0.0
  0
VERTEX
  5
1B8B
  8
0
 10
81.6090006677944473
 20
37.6417671508136209
 30
0.0
  0
VERTEX
  5
1B8C
  8
0
 10
81.5897499730150741
 20
37.6612023443676165
 30
0.0
  0
VERTEX
  5
1B8D
  8
0
 10
81.5707346053211211
 20
37.680429037512269
 30
0.0
  0
VERTEX
  5
1B8E
  8
0
 10
81.5519586681607223
 20
37.6994449501447377
 30
0.0
  0
VERTEX
  5
1B8F
  8
0
 10
81.5334203245918445
 20
37.7182538497370174
 30
0.0
  0
VERTEX
  5
1B90
  8
0
 10
81.515108491916493
 20
37.7368696507651222
 30
0.0
  0
VERTEX
  5
1B91
  8
0
 10
81.4970409998080925
 20
37.7552777288720023
 30
0.0
  0
VERTEX
  5
1B92
  8
0
 10
81.4792381972349631
 20
37.7734609340605374
 30
0.0
  0
VERTEX
  5
1B93
  8
0
 10
81.4617204331653397
 20
37.79140211633365
 30
0.0
  0
VERTEX
  5
1B94
  8
0
 10
81.4445080565675141
 20
37.8090841256942198
 30
0.0
  0
VERTEX
  5
1B95
  8
0
 10
81.4276214164097496
 20
37.8264898121451409
 30
0.0
  0
VERTEX
  5
1B96
  8
0
 10
81.4110808616603236
 20
37.8436020256893002
 30
0.0
  0
VERTEX
  5
1B97
  8
0
 10
81.3949067412875138
 20
37.8604036163295774
 30
0.0
  0
VERTEX
  5
1B98
  8
0
 10
81.3791194042595976
 20
37.8768774340689021
 30
0.0
  0
VERTEX
  5
1B99
  8
0
 10
81.3637406440922746
 20
37.8930048498726819
 30
0.0
  0
VERTEX
  5
1B9A
  8
0
 10
81.3488238674381989
 20
37.908734978205338
 30
0.0
  0
VERTEX
  5
1B9B
  8
0
 10
81.3344068703810592
 20
37.9240331931666219
 30
0.0
  0
VERTEX
  5
1B9C
  8
0
 10
81.320514908028116
 20
37.9388777493761111
 30
0.0
  0
VERTEX
  5
1B9D
  8
0
 10
81.3071732354865588
 20
37.9532469014534826
 30
0.0
  0
VERTEX
  5
1B9E
  8
0
 10
81.2944071078635773
 20
37.9671189040183208
 30
0.0
  0
VERTEX
  5
1B9F
  8
0
 10
81.2822417802664035
 20
37.9804720116903027
 30
0.0
  0
VERTEX
  5
1BA0
  8
0
 10
81.2707025078022411
 20
37.9932844790890272
 30
0.0
  0
VERTEX
  5
1BA1
  8
0
 10
81.2598145455782515
 20
38.0055345608341497
 30
0.0
  0
VERTEX
  5
1BA2
  8
0
 10
81.2496031487016808
 20
38.0172005115452905
 30
0.0
  0
VERTEX
  5
1BA3
  8
0
 10
81.2400935722797612
 20
38.0282605858420766
 30
0.0
  0
VERTEX
  5
1BA4
  8
0
 10
81.2313304074893665
 20
38.0386709297391903
 30
0.0
  0
VERTEX
  5
1BA5
  8
0
 10
81.2233639074871263
 20
38.0483789351159487
 30
0.0
  0
VERTEX
  5
1BA6
  8
0
 10
81.2162098800571357
 20
38.057369776953017
 30
0.0
  0
VERTEX
  5
1BA7
  8
0
 10
81.2098837126730047
 20
38.0656291006739878
 30
0.0
  0
VERTEX
  5
1BA8
  8
0
 10
81.2044007928081157
 20
38.073142551702432
 30
0.0
  0
VERTEX
  5
1BA9
  8
0
 10
81.1997765079360931
 20
38.0798957754619067
 30
0.0
  0
VERTEX
  5
1BAA
  8
0
 10
81.1960262455303763
 20
38.0858744173760329
 30
0.0
  0
VERTEX
  5
1BAB
  8
0
 10
81.193165393064433
 20
38.0910641228683673
 30
0.0
  0
VERTEX
  5
1BAC
  8
0
 10
81.1912093380118876
 20
38.0954505373625025
 30
0.0
  0
VERTEX
  5
1BAD
  8
0
 10
81.1901734678461651
 20
38.0990193062819884
 30
0.0
  0
VERTEX
  5
1BAE
  8
0
 10
81.1900745373964412
 20
38.1017522476655301
 30
0.0
  0
VERTEX
  5
1BAF
  8
0
 10
81.1909238957230741
 20
38.1036219997403265
 30
0.0
  0
VERTEX
  5
1BB0
  8
0
 10
81.1927070111450462
 20
38.1046358265006333
 30
0.0
  0
VERTEX
  5
1BB1
  8
0
 10
81.1954066243426666
 20
38.1048059256714708
 30
0.0
  0
VERTEX
  5
1BB2
  8
0
 10
81.1990054759961311
 20
38.1041444949779091
 30
0.0
  0
VERTEX
  5
1BB3
  8
0
 10
81.2034863067857771
 20
38.1026637321449826
 30
0.0
  0
VERTEX
  5
1BB4
  8
0
 10
81.2088318573918286
 20
38.1003758348977115
 30
0.0
  0
VERTEX
  5
1BB5
  8
0
 10
81.215024868494595
 20
38.0972930009611801
 30
0.0
  0
VERTEX
  5
1BB6
  8
0
 10
81.2220480807743002
 20
38.0934274280603873
 30
0.0
  0
VERTEX
  5
1BB7
  8
0
 10
81.2298842349112249
 20
38.0887913139204102
 30
0.0
  0
VERTEX
  5
1BB8
  8
0
 10
81.2385159676108941
 20
38.0833969267216332
 30
0.0
  0
VERTEX
  5
1BB9
  8
0
 10
81.2479145737131887
 20
38.0772650897345599
 30
0.0
  0
VERTEX
  5
1BBA
  8
0
 10
81.2580439028855466
 20
38.0704243981749926
 30
0.0
  0
VERTEX
  5
1BBB
  8
0
 10
81.2688708815994971
 20
38.0629018884204982
 30
0.0
  0
VERTEX
  5
1BBC
  8
0
 10
81.2803624363264419
 20
38.0547245968486365
 30
0.0
  0
VERTEX
  5
1BBD
  8
0
 10
81.292485493537896
 20
38.0459195598370101
 30
0.0
  0
VERTEX
  5
1BBE
  8
0
 10
81.3052069797052752
 20
38.0365138137631718
 30
0.0
  0
VERTEX
  5
1BBF
  8
0
 10
81.3184938213000379
 20
38.0265343950046883
 30
0.0
  0
VERTEX
  5
1BC0
  8
0
 10
81.3323129447937134
 20
38.0160083399391624
 30
0.0
  0
VERTEX
  5
1BC1
  8
0
 10
81.3466312766577175
 20
38.0049626849441395
 30
0.0
  0
VERTEX
  5
1BC2
  8
0
 10
81.3614157433634944
 20
37.9934244663972223
 30
0.0
  0
VERTEX
  5
1BC3
  8
0
 10
81.3766356770387631
 20
37.9814198659639999
 30
0.0
  0
VERTEX
  5
1BC4
  8
0
 10
81.3922735456391848
 20
37.9689663252008813
 30
0.0
  0
VERTEX
  5
1BC5
  8
0
 10
81.4083152734247335
 20
37.9560762339888811
 30
0.0
  0
VERTEX
  5
1BC6
  8
0
 10
81.4247467145232804
 20
37.9427619240030012
 30
0.0
  0
VERTEX
  5
1BC7
  8
0
 10
81.4415537230626683
 20
37.9290357269182579
 30
0.0
  0
VERTEX
  5
1BC8
  8
0
 10
81.4587221531708252
 20
37.9149099744097029
 30
0.0
  0
VERTEX
  5
1BC9
  8
0
 10
81.4762378589755656
 20
37.9003969981523099
 30
0.0
  0
VERTEX
  5
1BCA
  8
0
 10
81.4940866946048459
 20
37.8855091298211306
 30
0.0
  0
VERTEX
  5
1BCB
  8
0
 10
81.5122545141865089
 20
37.8702587010911671
 30
0.0
  0
VERTEX
  5
1BCC
  8
0
 10
81.5307271718484117
 20
37.8546580436374498
 30
0.0
  0
VERTEX
  5
1BCD
  8
0
 10
81.549490521718468
 20
37.8387194891349878
 30
0.0
  0
VERTEX
  5
1BCE
  8
0
 10
81.568530417924535
 20
37.8224553692587975
 30
0.0
  0
VERTEX
  5
1BCF
  8
0
 10
81.5878327145944979
 20
37.805878015683902
 30
0.0
  0
VERTEX
  5
1BD0
  8
0
 10
81.6073832658562424
 20
37.7889997600853107
 30
0.0
  0
VERTEX
  5
1BD1
  8
0
 10
81.6271679258376253
 20
37.771832934138061
 30
0.0
  0
VERTEX
  5
1BD2
  8
0
 10
81.6471725486665747
 20
37.7543898695171478
 30
0.0
  0
VERTEX
  5
1BD3
  8
0
 10
81.667382988470905
 20
37.7366828978976017
 30
0.0
  0
VERTEX
  5
1BD4
  8
0
 10
81.6877850993785444
 20
37.718724350954453
 30
0.0
  0
VERTEX
  5
1BD5
  8
0
 10
81.7083647355173639
 20
37.7005265603626896
 30
0.0
  0
VERTEX
  5
1BD6
  8
0
 10
81.7291077510152206
 20
37.682101857797349
 30
0.0
  0
VERTEX
  5
1BD7
  8
0
 10
81.75
 20
37.6634625749334475
 30
0.0
  0
SEQEND
  5
1BD8
  8
0
  0
POLYLINE
  5
1B00
  8
0
 66
     1
 10
0.0
 20
0.0
 30
0.0
  0
VERTEX
  5
1BD9
  8
0
 10
81.7499999999998863
 20
38.1913501119683687
 30
0.0
  0
VERTEX
  5
1BDA
  8
0
 10
81.7292168607344962
 20
38.2150054372098822
 30
0.0
  0
VERTEX
  5
1BDB
  8
0
 10
81.7086403332755538
 20
38.2386238802246083
 30
0.0
  0
VERTEX
  5
1BDC
  8
0
 10
81.6882745209290704
 20
38.262205602708427
 30
0.0
  0
VERTEX
  5
1BDD
  8
0
 10
81.668123527000958
 20
38.2857507663572534
 30
0.0
  0
VERTEX
  5
1BDE
  8
0
 10
81.6481914547971428
 20
38.3092595328669674
 30
0.0
  0
VERTEX
  5
1BDF
  8
0
 10
81.6284824076235651
 20
38.3327320639334772
 30
0.0
  0
VERTEX
  5
1BE0
  8
0
 10
81.6090004887860658
 20
38.3561685212526768
 30
0.0
  0
VERTEX
  5
1BE1
  8
0
 10
81.5897498015907132
 20
38.3795690665204816
 30
0.0
  0
VERTEX
  5
1BE2
  8
0
 10
81.5707344493433766
 20
38.4029338614327713
 30
0.0
  0
VERTEX
  5
1BE3
  8
0
 10
81.5519585353499536
 20
38.42626306768544
 30
0.0
  0
VERTEX
  5
1BE4
  8
0
 10
81.5334202257490261
 20
38.4495648595919022
 30
0.0
  0
VERTEX
  5
1BE5
  8
0
 10
81.5151084470088847
 20
38.4728633143932797
 30
0.0
  0
VERTEX
  5
1BE6
  8
0
 10
81.4970410235878546
 20
38.4961476945336187
 30
0.0
  0
VERTEX
  5
1BE7
  8
0
 10
81.4792382979292853
 20
38.5194040471036132
 30
0.0
  0
VERTEX
  5
1BE8
  8
0
 10
81.4617206124765261
 20
38.5426184191939427
 30
0.0
  0
VERTEX
  5
1BE9
  8
0
 10
81.4445083096728979
 20
38.5657768578953011
 30
0.0
  0
VERTEX
  5
1BEA
  8
0
 10
81.4276217319617786
 20
38.5888654102983821
 30
0.0
  0
VERTEX
  5
1BEB
  8
0
 10
81.4110812217864748
 20
38.6118701234938584
 30
0.0
  0
VERTEX
  5
1BEC
  8
0
 10
81.3949071215903359
 20
38.6347770445724521
 30
0.0
  0
VERTEX
  5
1BED
  8
0
 10
81.379119773816754
 20
38.6575722206248074
 30
0.0
  0
VERTEX
  5
1BEE
  8
0
 10
81.3637409676394725
 20
38.6802396732369829
 30
0.0
  0
VERTEX
  5
1BEF
  8
0
 10
81.3488241515238855
 20
38.7027189632560322
 30
0.0
  0
VERTEX
  5
1BF0
  8
0
 10
81.3344071357586813
 20
38.7249712087391984
 30
0.0
  0
VERTEX
  5
1BF1
  8
0
 10
81.3205151701208138
 20
38.7469750642347535
 30
0.0
  0
VERTEX
  5
1BF2
  8
0
 10
81.3071735043871939
 20
38.7687091842909766
 30
0.0
  0
VERTEX
  5
1BF3
  8
0
 10
81.2944073883348466
 20
38.7901522234561469
 30
0.0
  0
VERTEX
  5
1BF4
  8
0
 10
81.282242071740697
 20
38.8112828362785294
 30
0.0
  0
VERTEX
  5
1BF5
  8
0
 10
81.2707028043816422
 20
38.8320796773064103
 30
0.0
  0
VERTEX
  5
1BF6
  8
0
 10
81.2598148360346642
 20
38.8525214010880617
 30
0.0
  0
VERTEX
  5
1BF7
  8
0
 10
81.2496034164766741
 20
38.8725866621717486
 30
0.0
  0
VERTEX
  5
1BF8
  8
0
 10
81.240093795484654
 20
38.8922541151057573
 30
0.0
  0
VERTEX
  5
1BF9
  8
0
 10
81.2313305761129243
 20
38.9114625981990869
 30
0.0
  0
VERTEX
  5
1BFA
  8
0
 10
81.2233640352660302
 20
38.9301291200023982
 30
0.0
  0
VERTEX
  5
1BFB
  8
0
 10
81.2162099786196165
 20
38.9482344757660996
 30
0.0
  0
VERTEX
  5
1BFC
  8
0
 10
81.2098837911950682
 20
38.9657602810278192
 30
0.0
  0
VERTEX
  5
1BFD
  8
0
 10
81.2044008580137131
 20
38.9826881513251706
 30
0.0
  0
VERTEX
  5
1BFE
  8
0
 10
81.1997765640969078
 20
38.9989997021958033
 30
0.0
  0
VERTEX
  5
1BFF
  8
0
 10
81.1960262944660087
 20
39.0146765491773166
 30
0.0
  0
VERTEX
  5
1C00
  8
0
 10
81.1931654341423723
 20
39.0297003078073601
 30
0.0
  0
VERTEX
  5
1C01
  8
0
 10
81.1912093681473266
 20
39.0440525936235403
 30
0.0
  0
VERTEX
  5
1C02
  8
0
 10
81.1901734815022138
 20
39.0577150221634994
 30
0.0
  0
VERTEX
  5
1C03
  8
0
 10
81.1900745276362841
 20
39.0706556056279908
 30
0.0
  0
VERTEX
  5
1C04
  8
0
 10
81.1909238605878159
 20
39.0827816524330913
 30
0.0
  0
VERTEX
  5
1C05
  8
0
 10
81.1927069501305567
 20
39.0940798633012108
 30
0.0
  0
VERTEX
  5
1C06
  8
0
 10
81.1954065374712854
 20
39.1045513548360333
 30
0.0
  0
VERTEX
  5
1C07
  8
0
 10
81.1990053638169513
 20
39.1141972436412075
 30
0.0
  0
VERTEX
  5
1C08
  8
0
 10
81.2034861703744042
 20
39.1230186463204532
 30
0.0
  0
VERTEX
  5
1C09
  8
0
 10
81.2088316983505649
 20
39.1310166794774403
 30
0.0
  0
VERTEX
  5
1C0A
  8
0
 10
81.2150246889522691
 20
39.1381924597158388
 30
0.0
  0
VERTEX
  5
1C0B
  8
0
 10
81.222047883386395
 20
39.1445471036393613
 30
0.0
  0
VERTEX
  5
1C0C
  8
0
 10
81.2298840228598777
 20
39.1500817278516493
 30
0.0
  0
VERTEX
  5
1C0D
  8
0
 10
81.2385157445286836
 20
39.1547974644631722
 30
0.0
  0
VERTEX
  5
1C0E
  8
0
 10
81.2479143379615181
 20
39.1587003779906127
 30
0.0
  0
VERTEX
  5
1C0F
  8
0
 10
81.258043650215825
 20
39.1618078060924901
 30
0.0
  0
VERTEX
  5
1C10
  8
0
 10
81.2688706089726907
 20
39.1641385880881714
 30
0.0
  0
VERTEX
  5
1C11
  8
0
 10
81.280362141913244
 20
39.1657115632970871
 30
0.0
  0
VERTEX
  5
1C12
  8
0
 10
81.2924851767185714
 20
39.1665455710386183
 30
0.0
  0
VERTEX
  5
1C13
  8
0
 10
81.3052066410697876
 20
39.1666594506321672
 30
0.0
  0
VERTEX
  5
1C14
  8
0
 10
81.3184934626480356
 20
39.1660720413971291
 30
0.0
  0
VERTEX
  5
1C15
  8
0
 10
81.3323125691343733
 20
39.1648021826529131
 30
0.0
  0
VERTEX
  5
1C16
  8
0
 10
81.3466308882100009
 20
39.1628687137189004
 30
0.0
  0
VERTEX
  5
1C17
  8
0
 10
81.3614153475559192
 20
39.1602904739144932
 30
0.0
  0
VERTEX
  5
1C18
  8
0
 10
81.3766352770360584
 20
39.157092237531721
 30
0.0
  0
VERTEX
  5
1C19
  8
0
 10
81.3922731372585702
 20
39.1533041566316911
 30
0.0
  0
VERTEX
  5
1C1A
  8
0
 10
81.4083148531780409
 20
39.1489395356472514
 30
0.0
  0
VERTEX
  5
1C1B
  8
0
 10
81.4247462800015285
 20
39.1440109543664292
 30
0.0
  0
VERTEX
  5
1C1C
  8
0
 10
81.4415532729361757
 20
39.1385309925772091
 30
0.0
  0
VERTEX
  5
1C1D
  8
0
 10
81.4587216871890405
 20
39.1325122300676327
 30
0.0
  0
VERTEX
  5
1C1E
  8
0
 10
81.4762373779672657
 20
39.1259672466256632
 30
0.0
  0
VERTEX
  5
1C1F
  8
0
 10
81.4940862004779234
 20
39.1189086220393065
 30
0.0
  0
VERTEX
  5
1C20
  8
0
 10
81.5122540099281423
 20
39.1113489360966113
 30
0.0
  0
VERTEX
  5
1C21
  8
0
 10
81.5307266615249944
 20
39.1033007685855409
 30
0.0
  0
VERTEX
  5
1C22
  8
0
 10
81.54949001047558
 20
39.0947766992941226
 30
0.0
  0
VERTEX
  5
1C23
  8
0
 10
81.5685299119870422
 20
39.085789308010348
 30
0.0
  0
VERTEX
  5
1C24
  8
0
 10
81.5878322212664244
 20
39.0763511745222374
 30
0.0
  0
VERTEX
  5
1C25
  8
0
 10
81.607382793520884
 20
39.0664748786177825
 30
0.0
  0
VERTEX
  5
1C26
  8
0
 10
81.627167483957507
 20
39.0561730000850034
 30
0.0
  0
VERTEX
  5
1C27
  8
0
 10
81.6471721477833512
 20
39.0454581187118919
 30
0.0
  0
VERTEX
  5
1C28
  8
0
 10
81.6673826402055454
 20
39.0343428142864468
 30
0.0
  0
VERTEX
  5
1C29
  8
0
 10
81.6877848164312041
 20
39.0228396665967026
 30
0.0
  0
VERTEX
  5
1C2A
  8
0
 10
81.7083645316674563
 20
39.0109612554306295
 30
0.0
  0
VERTEX
  5
1C2B
  8
0
 10
81.7291076411213453
 20
38.9987201605762621
 30
0.0
  0
VERTEX
  5
1C2C
  8
0
 10
81.75
 20
38.986128961821592
 30
0.0
  0
SEQEND
  5
1C2D
  8
0
  0
POLYLINE
  5
1B01
  8
0
 66
     1
 10
0.0
 20
0.0
 30
0.0
  0
VERTEX
  5
1C2E
  8
0
 10
81.7500000000002274
 20
40.1622763562754699
 30
0.0
  0
VERTEX
  5
1C2F
  8
0
 10
81.7292168605375338
 20
40.1861926803246874
 30
0.0
  0
VERTEX
  5
1C30
  8
0
 10
81.7086403333390194
 20
40.210231784637017
 30
0.0
  0
VERTEX
  5
1C31
  8
0
 10
81.6882745217003361
 20
40.2343962550471019
 30
0.0
  0
VERTEX
  5
1C32
  8
0
 10
81.6681235289171923
 20
40.2586886773895785
 30
0.0
  0
VERTEX
  5
1C33
  8
0
 10
81.6481914582853534
 20
40.2831116374991112
 30
0.0
  0
VERTEX
  5
1C34
  8
0
 10
81.628482413100528
 20
40.307667721210322
 30
0.0
  0
VERTEX
  5
1C35
  8
0
 10
81.6090004966584388
 20
40.3323595143578686
 30
0.0
  0
VERTEX
  5
1C36
  8
0
 10
81.5897498122547802
 20
40.3571896027763728
 30
0.0
  0
VERTEX
  5
1C37
  8
0
 10
81.5707344631853175
 20
40.3821605723005135
 30
0.0
  0
VERTEX
  5
1C38
  8
0
 10
81.5519585527457309
 20
40.4072750087648913
 30
0.0
  0
VERTEX
  5
1C39
  8
0
 10
81.5334202472604659
 20
40.4325446104214024
 30
0.0
  0
VERTEX
  5
1C3A
  8
0
 10
81.5151084737528606
 20
40.4580010168249373
 30
0.0
  0
VERTEX
  5
1C3B
  8
0
 10
81.4970410563592225
 20
40.4836385359181818
 30
0.0
  0
VERTEX
  5
1C3C
  8
0
 10
81.4792383371210747
 20
40.5094479177729667
 30
0.0
  0
VERTEX
  5
1C3D
  8
0
 10
81.4617206580800541
 20
40.5354199124610872
 30
0.0
  0
VERTEX
  5
1C3E
  8
0
 10
81.4445083612776557
 20
40.5615452700543386
 30
0.0
  0
VERTEX
  5
1C3F
  8
0
 10
81.4276217887555163
 20
40.5878147406245375
 30
0.0
  0
VERTEX
  5
1C40
  8
0
 10
81.4110812825551449
 20
40.6142190742434934
 30
0.0
  0
VERTEX
  5
1C41
  8
0
 10
81.3949071847181642
 20
40.6407490209830016
 30
0.0
  0
VERTEX
  5
1C42
  8
0
 10
81.379119837286126
 20
40.6673953309148786
 30
0.0
  0
VERTEX
  5
1C43
  8
0
 10
81.3637410291626253
 20
40.6941464037029874
 30
0.0
  0
VERTEX
  5
1C44
  8
0
 10
81.3488242113230058
 20
40.7209388357486404
 30
0.0
  0
VERTEX
  5
1C45
  8
0
 10
81.3344071948940837
 20
40.7477337159102575
 30
0.0
  0
VERTEX
  5
1C46
  8
0
 10
81.3205152293120932
 20
40.7745124066271671
 30
0.0
  0
VERTEX
  5
1C47
  8
0
 10
81.3071735640131834
 20
40.8012562703386834
 30
0.0
  0
VERTEX
  5
1C48
  8
0
 10
81.2944074484336454
 20
40.8279466694840991
 30
0.0
  0
VERTEX
  5
1C49
  8
0
 10
81.2822421320096282
 20
40.8545649665027213
 30
0.0
  0
VERTEX
  5
1C4A
  8
0
 10
81.2707028641773235
 20
40.8810925238338569
 30
0.0
  0
VERTEX
  5
1C4B
  8
0
 10
81.2598148943729939
 20
40.9075107039168202
 30
0.0
  0
VERTEX
  5
1C4C
  8
0
 10
81.2496034720327458
 20
40.9338008691909323
 30
0.0
  0
VERTEX
  5
1C4D
  8
0
 10
81.2400938465928846
 20
40.9599443820954718
 30
0.0
  0
VERTEX
  5
1C4E
  8
0
 10
81.2313306218364914
 20
40.9858694131547168
 30
0.0
  0
VERTEX
  5
1C4F
  8
0
 10
81.2233640761405553
 20
41.0114716047572117
 30
0.0
  0
VERTEX
  5
1C50
  8
0
 10
81.2162100150504642
 20
41.036729451214967
 30
0.0
  0
VERTEX
  5
1C51
  8
0
 10
81.2098838234358595
 20
41.0616225277350182
 30
0.0
  0
VERTEX
  5
1C52
  8
0
 10
81.2044008861664537
 20
41.0861304095244222
 30
0.0
  0
VERTEX
  5
1C53
  8
0
 10
81.1997765881118312
 20
41.1102326717902216
 30
0.0
  0
VERTEX
  5
1C54
  8
0
 10
81.1960263141417187
 20
41.1339088897394518
 30
0.0
  0
VERTEX
  5
1C55
  8
0
 10
81.1931654491258143
 20
41.1571386385791627
 30
0.0
  0
VERTEX
  5
1C56
  8
0
 10
81.191209377933717
 20
41.1799014935163967
 30
0.0
  0
VERTEX
  5
1C57
  8
0
 10
81.1901734854351105
 20
41.2021770297582108
 30
0.0
  0
VERTEX
  5
1C58
  8
0
 10
81.1900745249802753
 20
41.2239229188514713
 30
0.0
  0
VERTEX
  5
1C59
  8
0
 10
81.1909238509716147
 20
41.2449911913265197
 30
0.0
  0
VERTEX
  5
1C5A
  8
0
 10
81.1927069333079885
 20
41.2653494273457326
 30
0.0
  0
VERTEX
  5
1C5B
  8
0
 10
81.1954065132575806
 20
41.2849875415410565
 30
0.0
  0
VERTEX
  5
1C5C
  8
0
 10
81.1990053320886318
 20
41.3038954485444378
 30
0.0
  0
VERTEX
  5
1C5D
  8
0
 10
81.2034861310693543
 20
41.3220630629878087
 30
0.0
  0
VERTEX
  5
1C5E
  8
0
 10
81.2088316514679036
 20
41.3394802995031085
 30
0.0
  0
VERTEX
  5
1C5F
  8
0
 10
81.2150246345525204
 20
41.3561370727222766
 30
0.0
  0
VERTEX
  5
1C60
  8
0
 10
81.2220478215914454
 20
41.3720232972772592
 30
0.0
  0
VERTEX
  5
1C61
  8
0
 10
81.2298839538528341
 20
41.3871288877999675
 30
0.0
  0
VERTEX
  5
1C62
  8
0
 10
81.2385156685486152
 20
41.401443717748009
 30
0.0
  0
VERTEX
  5
1C63
  8
0
 10
81.2479142549003939
 20
41.4149584319472126
 30
0.0
  0
VERTEX
  5
1C64
  8
0
 10
81.2580435597945865
 20
41.4276772299719127
 30
0.0
  0
VERTEX
  5
1C65
  8
0
 10
81.2688705110066536
 20
41.4396087134837501
 30
0.0
  0
VERTEX
  5
1C66
  8
0
 10
81.2803620363119705
 20
41.450761484144401
 30
0.0
  0
VERTEX
  5
1C67
  8
0
 10
81.2924850634860263
 20
41.4611441436154777
 30
0.0
  0
VERTEX
  5
1C68
  8
0
 10
81.3052065203042957
 20
41.4707652935586495
 30
0.0
  0
VERTEX
  5
1C69
  8
0
 10
81.3184933345422536
 20
41.479633535635557
 30
0.0
  0
VERTEX
  5
1C6A
  8
0
 10
81.3323124339752184
 20
41.487757471507841
 30
0.0
  0
VERTEX
  5
1C6B
  8
0
 10
81.3466307463788354
 20
41.4951457028371493
 30
0.0
  0
VERTEX
  5
1C6C
  8
0
 10
81.3614151995283805
 20
41.5018068312851298
 30
0.0
  0
VERTEX
  5
1C6D
  8
0
 10
81.3766351229368752
 20
41.5077615373014126
 30
0.0
  0
VERTEX
  5
1C6E
  8
0
 10
81.392272976340081
 20
41.5130494102323411
 30
0.0
  0
VERTEX
  5
1C6F
  8
0
 10
81.4083146849732344
 20
41.5176832278488988
 30
0.0
  0
VERTEX
  5
1C70
  8
0
 10
81.424746104376112
 20
41.5216744556662789
 30
0.0
  0
VERTEX
  5
1C71
  8
0
 10
81.441553090088405
 20
41.5250345591996535
 30
0.0
  0
VERTEX
  5
1C72
  8
0
 10
81.4587214976498757
 20
41.527775003964237
 30
0.0
  0
VERTEX
  5
1C73
  8
0
 10
81.4762371826002578
 20
41.5299072554752371
 30
0.0
  0
VERTEX
  5
1C74
  8
0
 10
81.4940860004793421
 20
41.5314427792478469
 30
0.0
  0
VERTEX
  5
1C75
  8
0
 10
81.5122538068268341
 20
41.5323930407972597
 30
0.0
  0
VERTEX
  5
1C76
  8
0
 10
81.5307264571824817
 20
41.5327695056386901
 30
0.0
  0
VERTEX
  5
1C77
  8
0
 10
81.5494898070860472
 20
41.53258363928731
 30
0.0
  0
VERTEX
  5
1C78
  8
0
 10
81.5685297120772361
 20
41.5318469072583483
 30
0.0
  0
VERTEX
  5
1C79
  8
0
 10
81.5878320276958249
 20
41.5305707750669768
 30
0.0
  0
VERTEX
  5
1C7A
  8
0
 10
81.6073826094815473
 20
41.5287667082284173
 30
0.0
  0
VERTEX
  5
1C7B
  8
0
 10
81.6271673129741657
 20
41.5264461722578702
 30
0.0
  0
VERTEX
  5
1C7C
  8
0
 10
81.6471719937134139
 20
41.5236206326705073
 30
0.0
  0
VERTEX
  5
1C7D
  8
0
 10
81.6673825072389974
 20
41.5203015549815504
 30
0.0
  0
VERTEX
  5
1C7E
  8
0
 10
81.6877847090907352
 20
41.5165004047061927
 30
0.0
  0
VERTEX
  5
1C7F
  8
0
 10
81.7083644548083043
 20
41.5122286473596205
 30
0.0
  0
VERTEX
  5
1C80
  8
0
 10
81.7291075999314671
 20
41.5074977484570624
 30
0.0
  0
VERTEX
  5
1C81
  8
0
 10
81.75
 20
41.5023191735136905
 30
0.0
  0
SEQEND
  5
1C82
  8
0
  0
POLYLINE
  5
1B02
  8
0
 66
     1
 10
0.0
 20
0.0
 30
0.0
  0
VERTEX
  5
1C83
  8
0
 10
81.75
 20
43.1992726053908598
 30
0.0
  0
VERTEX
  5
1C84
  8
0
 10
81.7292169120275673
 20
43.2208581690324465
 30
0.0
  0
VERTEX
  5
1C85
  8
0
 10
81.708640428656139
 20
43.242712876443882
 30
0.0
  0
VERTEX
  5
1C86
  8
0
 10
81.6882746532963608
 20
43.2648414577884992
 30
0.0
  0
VERTEX
  5
1C87
  8
0
 10
81.668123689358822
 20
43.2872486432296313
 30
0.0
  0
VERTEX
  5
1C88
  8
0
 10
81.6481916402541117
 20
43.3099391629306112
 30
0.0
  0
VERTEX
  5
1C89
  8
0
 10
81.6284826093928189
 20
43.332917747054772
 30
0.0
  0
VERTEX
  5
1C8A
  8
0
 10
81.6090007001855611
 20
43.3561891257654466
 30
0.0
  0
VERTEX
  5
1C8B
  8
0
 10
81.5897500160429274
 20
43.379758029225961
 30
0.0
  0
VERTEX
  5
1C8C
  8
0
 10
81.5707346603755354
 20
43.4036291875996625
 30
0.0
  0
VERTEX
  5
1C8D
  8
0
 10
81.5519587365939742
 20
43.4278073310498698
 30
0.0
  0
VERTEX
  5
1C8E
  8
0
 10
81.5334204084332725
 20
43.4523064200388873
 30
0.0
  0
VERTEX
  5
1C8F
  8
0
 10
81.515108595216816
 20
43.4771622445841928
 30
0.0
  0
VERTEX
  5
1C90
  8
0
 10
81.4970411254434737
 20
43.5023747673646071
 30
0.0
  0
VERTEX
  5
1C91
  8
0
 10
81.4792383466162562
 20
43.527940433982053
 30
0.0
  0
VERTEX
  5
1C92
  8
0
 10
81.4617206062381456
 20
43.5538556900383611
 30
0.0
  0
VERTEX
  5
1C93
  8
0
 10
81.4445082518121808
 20
43.5801169811353901
 30
0.0
  0
VERTEX
  5
1C94
  8
0
 10
81.4276216308413439
 20
43.6067207528749989
 30
0.0
  0
VERTEX
  5
1C95
  8
0
 10
81.4110810908286453
 20
43.6336634508590606
 30
0.0
  0
VERTEX
  5
1C96
  8
0
 10
81.3949069792770672
 20
43.6609415206893985
 30
0.0
  0
VERTEX
  5
1C97
  8
0
 10
81.3791196436896769
 20
43.6885514079679069
 30
0.0
  0
VERTEX
  5
1C98
  8
0
 10
81.3637408765964096
 20
43.7164871413576535
 30
0.0
  0
VERTEX
  5
1C99
  8
0
 10
81.3488240937913929
 20
43.7446892939718026
 30
0.0
  0
VERTEX
  5
1C9A
  8
0
 10
81.3344070944082773
 20
43.7731231635347982
 30
0.0
  0
VERTEX
  5
1C9B
  8
0
 10
81.3205151323089552
 20
43.8017748282790507
 30
0.0
  0
VERTEX
  5
1C9C
  8
0
 10
81.3071734613554895
 20
43.8306303664370134
 30
0.0
  0
VERTEX
  5
1C9D
  8
0
 10
81.2944073354097867
 20
43.8596758562411324
 30
0.0
  0
VERTEX
  5
1C9E
  8
0
 10
81.2822420083338386
 20
43.8888973759238468
 30
0.0
  0
VERTEX
  5
1C9F
  8
0
 10
81.2707027339895944
 20
43.9182810037176026
 30
0.0
  0
VERTEX
  5
1CA0
  8
0
 10
81.2598147662390602
 20
43.9478128178548175
 30
0.0
  0
VERTEX
  5
1CA1
  8
0
 10
81.2496033589441709
 20
43.9774788965679733
 30
0.0
  0
VERTEX
  5
1CA2
  8
0
 10
81.2400937659668756
 20
44.0072653180895017
 30
0.0
  0
VERTEX
  5
1CA3
  8
0
 10
81.2313305811418616
 20
44.0370974076892381
 30
0.0
  0
VERTEX
  5
1CA4
  8
0
 10
81.2233640629985985
 20
44.0668608186950195
 30
0.0
  0
VERTEX
  5
1CA5
  8
0
 10
81.2162100188456861
 20
44.0965340638428671
 30
0.0
  0
VERTEX
  5
1CA6
  8
0
 10
81.2098838356031933
 20
44.1260968792091504
 30
0.0
  0
VERTEX
  5
1CA7
  8
0
 10
81.2044009001912457
 20
44.1555290008702528
 30
0.0
  0
VERTEX
  5
1CA8
  8
0
 10
81.1997765995299403
 20
44.1848101649025296
 30
0.0
  0
VERTEX
  5
1CA9
  8
0
 10
81.1960263205393034
 20
44.2139201073823571
 30
0.0
  0
VERTEX
  5
1CAA
  8
0
 10
81.1931654501394888
 20
44.2428385643861191
 30
0.0
  0
VERTEX
  5
1CAB
  8
0
 10
81.1912093752505655
 20
44.2715452719901776
 30
0.0
  0
VERTEX
  5
1CAC
  8
0
 10
81.1901734827926163
 20
44.3000199662709306
 30
0.0
  0
VERTEX
  5
1CAD
  8
0
 10
81.1900745273080275
 20
44.3282145650303008
 30
0.0
  0
VERTEX
  5
1CAE
  8
0
 10
81.190923859196829
 20
44.3559419186471473
 30
0.0
  0
VERTEX
  5
1CAF
  8
0
 10
81.1927069472412768
 20
44.3831540061265031
 30
0.0
  0
VERTEX
  5
1CB0
  8
0
 10
81.1954065323510008
 20
44.4098306274088301
 30
0.0
  0
VERTEX
  5
1CB1
  8
0
 10
81.1990053554355882
 20
44.4359515824345976
 30
0.0
  0
VERTEX
  5
1CB2
  8
0
 10
81.2034861574045834
 20
44.4614966711442605
 30
0.0
  0
VERTEX
  5
1CB3
  8
0
 10
81.2088316791676164
 20
44.4864456934782808
 30
0.0
  0
VERTEX
  5
1CB4
  8
0
 10
81.2150246616342315
 20
44.5107784493771206
 30
0.0
  0
VERTEX
  5
1CB5
  8
0
 10
81.2220478457140302
 20
44.5344747387812419
 30
0.0
  0
VERTEX
  5
1CB6
  8
0
 10
81.2298839723165571
 20
44.5575143616310783
 30
0.0
  0
VERTEX
  5
1CB7
  8
0
 10
81.2385156783571176
 20
44.5798770247305427
 30
0.0
  0
VERTEX
  5
1CB8
  8
0
 10
81.2479142574046307
 20
44.6015389822526274
 30
0.0
  0
VERTEX
  5
1CB9
  8
0
 10
81.2580435585011855
 20
44.6224908510282106
 30
0.0
  0
VERTEX
  5
1CBA
  8
0
 10
81.2688705084661649
 20
44.6427300612788471
 30
0.0
  0
VERTEX
  5
1CBB
  8
0
 10
81.2803620341188946
 20
44.6622540432261701
 30
0.0
  0
VERTEX
  5
1CBC
  8
0
 10
81.2924850622787858
 20
44.6810602270917769
 30
0.0
  0
VERTEX
  5
1CBD
  8
0
 10
81.3052065197652354
 20
44.6991460430972509
 30
0.0
  0
VERTEX
  5
1CBE
  8
0
 10
81.318493333397555
 20
44.7165089214642109
 30
0.0
  0
VERTEX
  5
1CBF
  8
0
 10
81.3323124299951417
 20
44.73314629241424
 30
0.0
  0
VERTEX
  5
1CC0
  8
0
 10
81.3466307363774206
 20
44.7490555861689572
 30
0.0
  0
VERTEX
  5
1CC1
  8
0
 10
81.3614151793636893
 20
44.7642342329499527
 30
0.0
  0
VERTEX
  5
1CC2
  8
0
 10
81.3766350897610238
 20
44.7786965791968328
 30
0.0
  0
VERTEX
  5
1CC3
  8
0
 10
81.3922729322623155
 20
44.792487366846089
 30
0.0
  0
VERTEX
  5
1CC4
  8
0
 10
81.4083146321975732
 20
44.8056174626621271
 30
0.0
  0
VERTEX
  5
1CC5
  8
0
 10
81.4247460449594342
 20
44.8180959754817465
 30
0.0
  0
VERTEX
  5
1CC6
  8
0
 10
81.4415530259408058
 20
44.8299320141418107
 30
0.0
  0
VERTEX
  5
1CC7
  8
0
 10
81.4587214305343821
 20
44.8411346874791406
 30
0.0
  0
VERTEX
  5
1CC8
  8
0
 10
81.4762371141329993
 20
44.8517131043305923
 30
0.0
  0
VERTEX
  5
1CC9
  8
0
 10
81.4940859321294226
 20
44.8616763735329585
 30
0.0
  0
VERTEX
  5
1CCA
  8
0
 10
81.5122537399164031
 20
44.8710336039231024
 30
0.0
  0
VERTEX
  5
1CCB
  8
0
 10
81.5307263928868053
 20
44.8797939043378733
 30
0.0
  0
VERTEX
  5
1CCC
  8
0
 10
81.5494897464333519
 20
44.8879663836140708
 30
0.0
  0
VERTEX
  5
1CCD
  8
0
 10
81.5685296559488222
 20
44.8955601505885369
 30
0.0
  0
VERTEX
  5
1CCE
  8
0
 10
81.5878319768260383
 20
44.9025843140981493
 30
0.0
  0
VERTEX
  5
1CCF
  8
0
 10
81.6073825644577653
 20
44.9090479829796791
 30
0.0
  0
VERTEX
  5
1CD0
  8
0
 10
81.6271672742367969
 20
44.9149602660700111
 30
0.0
  0
VERTEX
  5
1CD1
  8
0
 10
81.6471719615558698
 20
44.9203302722059519
 30
0.0
  0
VERTEX
  5
1CD2
  8
0
 10
81.6673824818078344
 20
44.9251671102243435
 30
0.0
  0
VERTEX
  5
1CD3
  8
0
 10
81.6877846903854561
 20
44.9294798889620282
 30
0.0
  0
VERTEX
  5
1CD4
  8
0
 10
81.7083644426814715
 20
44.9332777172558266
 30
0.0
  0
VERTEX
  5
1CD5
  8
0
 10
81.729107594088731
 20
44.9365697039425811
 30
0.0
  0
VERTEX
  5
1CD6
  8
0
 10
81.7499999999999716
 20
44.9393649578591408
 30
0.0
  0
SEQEND
  5
1CD7
  8
0
  0
POLYLINE
  5
1B03
  8
0
 66
     1
 10
0.0
 20
0.0
 30
0.0
  0
VERTEX
  5
1CD8
  8
0
 10
81.7499999999999147
 20
46.9732331918700865
 30
0.0
  0
VERTEX
  5
1CD9
  8
0
 10
81.7292170531174236
 20
46.9901488071033526
 30
0.0
  0
VERTEX
  5
1CDA
  8
0
 10
81.708640689400184
 20
47.0074507668259685
 30
0.0
  0
VERTEX
  5
1CDB
  8
0
 10
81.6882750125834747
 20
47.0251454340959825
 30
0.0
  0
VERTEX
  5
1CDC
  8
0
 10
81.6681241264025886
 20
47.0432391719714076
 30
0.0
  0
VERTEX
  5
1CDD
  8
0
 10
81.648192134592847
 20
47.0617383435103207
 30
0.0
  0
VERTEX
  5
1CDE
  8
0
 10
81.628483140889557
 20
47.0806493117707205
 30
0.0
  0
VERTEX
  5
1CDF
  8
0
 10
81.6090012490279975
 20
47.0999784398106911
 30
0.0
  0
VERTEX
  5
1CE0
  8
0
 10
81.589750562743518
 20
47.1197320906882311
 30
0.0
  0
VERTEX
  5
1CE1
  8
0
 10
81.5707351857713832
 20
47.139916627461389
 30
0.0
  0
VERTEX
  5
1CE2
  8
0
 10
81.5519592218468858
 20
47.1605384131882275
 30
0.0
  0
VERTEX
  5
1CE3
  8
0
 10
81.5334208274382348
 20
47.1816121678652465
 30
0.0
  0
VERTEX
  5
1CE4
  8
0
 10
81.5151089002597331
 20
47.203173981493002
 30
0.0
  0
VERTEX
  5
1CE5
  8
0
 10
81.497041281070409
 20
47.2252294642082191
 30
0.0
  0
VERTEX
  5
1CE6
  8
0
 10
81.4792383327183671
 20
47.2477811273756672
 30
0.0
  0
VERTEX
  5
1CE7
  8
0
 10
81.4617204180518542
 20
47.2708314823601725
 30
0.0
  0
VERTEX
  5
1CE8
  8
0
 10
81.444507899918932
 20
47.2943830405265189
 30
0.0
  0
VERTEX
  5
1CE9
  8
0
 10
81.4276211411678048
 20
47.3184383132395112
 30
0.0
  0
VERTEX
  5
1CEA
  8
0
 10
81.4110805046465771
 20
47.3429998118639475
 30
0.0
  0
VERTEX
  5
1CEB
  8
0
 10
81.3949063532034529
 20
47.3680700477646184
 30
0.0
  0
VERTEX
  5
1CEC
  8
0
 10
81.3791190496865511
 20
47.3936515323063432
 30
0.0
  0
VERTEX
  5
1CED
  8
0
 10
81.3637403968176045
 20
47.4197445611732533
 30
0.0
  0
VERTEX
  5
1CEE
  8
0
 10
81.3488237116080199
 20
47.4463002367985709
 30
0.0
  0
VERTEX
  5
1CEF
  8
0
 10
81.3344067595347866
 20
47.4732918588506294
 30
0.0
  0
VERTEX
  5
1CF0
  8
0
 10
81.3205148069126835
 20
47.5007117090991926
 30
0.0
  0
VERTEX
  5
1CF1
  8
0
 10
81.3071731200565466
 20
47.5285520693139887
 30
0.0
  0
VERTEX
  5
1CF2
  8
0
 10
81.2944069652810981
 20
47.5568052212647672
 30
0.0
  0
VERTEX
  5
1CF3
  8
0
 10
81.2822416089011313
 20
47.5854634467212918
 30
0.0
  0
VERTEX
  5
1CF4
  8
0
 10
81.2707023172314678
 20
47.6145190274532908
 30
0.0
  0
VERTEX
  5
1CF5
  8
0
 10
81.259814356586844
 20
47.6439642452304994
 30
0.0
  0
VERTEX
  5
1CF6
  8
0
 10
81.2496029932820818
 20
47.6737913818226815
 30
0.0
  0
VERTEX
  5
1CF7
  8
0
 10
81.2400934936319032
 20
47.7039927189995723
 30
0.0
  0
VERTEX
  5
1CF8
  8
0
 10
81.2313304235138247
 20
47.7344989042667081
 30
0.0
  0
VERTEX
  5
1CF9
  8
0
 10
81.223363985664804
 20
47.7651981229127784
 30
0.0
  0
VERTEX
  5
1CFA
  8
0
 10
81.2162099923502296
 20
47.796071211413981
 30
0.0
  0
VERTEX
  5
1CFB
  8
0
 10
81.2098838362542068
 20
47.8271002374895673
 30
0.0
  0
VERTEX
  5
1CFC
  8
0
 10
81.2044009100608832
 20
47.8582672688588033
 30
0.0
  0
VERTEX
  5
1CFD
  8
0
 10
81.1997766064543498
 20
47.8895543732409266
 30
0.0
  0
VERTEX
  5
1CFE
  8
0
 10
81.1960263181187543
 20
47.9209436183551816
 30
0.0
  0
VERTEX
  5
1CFF
  8
0
 10
81.1931654377381733
 20
47.9524170719208271
 30
0.0
  0
VERTEX
  5
1D00
  8
0
 10
81.1912093579967546
 20
47.9839568016571221
 30
0.0
  0
VERTEX
  5
1D01
  8
0
 10
81.1901734715786176
 20
48.0155448752832967
 30
0.0
  0
VERTEX
  5
1D02
  8
0
 10
81.190074536368158
 20
48.0471326688741982
 30
0.0
  0
VERTEX
  5
1D03
  8
0
 10
81.1909238914443563
 20
48.0785142726536208
 30
0.0
  0
VERTEX
  5
1D04
  8
0
 10
81.1927070024078432
 20
48.1096312809779576
 30
0.0
  0
VERTEX
  5
1D05
  8
0
 10
81.1954066091249445
 20
48.1404555545559489
 30
0.0
  0
VERTEX
  5
1D06
  8
0
 10
81.199005451461943
 20
48.1709589540962781
 30
0.0
  0
VERTEX
  5
1D07
  8
0
 10
81.2034862692852073
 20
48.2011133403076713
 30
0.0
  0
VERTEX
  5
1D08
  8
0
 10
81.2088318024610061
 20
48.23089057389884
 30
0.0
  0
VERTEX
  5
1D09
  8
0
 10
81.2150247908556793
 20
48.2602625155785034
 30
0.0
  0
VERTEX
  5
1D0A
  8
0
 10
81.2220479743355241
 20
48.289201026055359
 30
0.0
  0
VERTEX
  5
1D0B
  8
0
 10
81.2298840927668948
 20
48.3176779660381399
 30
0.0
  0
VERTEX
  5
1D0C
  8
0
 10
81.238515782196572
 20
48.3456650619099122
 30
0.0
  0
VERTEX
  5
1D0D
  8
0
 10
81.2479143484372912
 20
48.3731267917163095
 30
0.0
  0
VERTEX
  5
1D0E
  8
0
 10
81.258043646601152
 20
48.4000412334295476
 30
0.0
  0
VERTEX
  5
1D0F
  8
0
 10
81.2688706007969444
 20
48.4263949191027265
 30
0.0
  0
VERTEX
  5
1D10
  8
0
 10
81.2803621351332879
 20
48.4521743807889678
 30
0.0
  0
VERTEX
  5
1D11
  8
0
 10
81.2924851737190011
 20
48.4773661505413784
 30
0.0
  0
VERTEX
  5
1D12
  8
0
 10
81.3052066406627887
 20
48.501956760413087
 30
0.0
  0
VERTEX
  5
1D13
  8
0
 10
81.3184934600733271
 20
48.5259327424572007
 30
0.0
  0
VERTEX
  5
1D14
  8
0
 10
81.3323125560594349
 20
48.5492806287268408
 30
0.0
  0
VERTEX
  5
1D15
  8
0
 10
81.3466308527297883
 20
48.5719869512751501
 30
0.0
  0
VERTEX
  5
1D16
  8
0
 10
81.3614152741931065
 20
48.5940382421552073
 30
0.0
  0
VERTEX
  5
1D17
  8
0
 10
81.3766351551510922
 20
48.6154409634779867
 30
0.0
  0
VERTEX
  5
1D18
  8
0
 10
81.3922729747390576
 20
48.6362401817243679
 30
0.0
  0
VERTEX
  5
1D19
  8
0
 10
81.4083146582614177
 20
48.6564436754047875
 30
0.0
  0
VERTEX
  5
1D1A
  8
0
 10
81.4247460603722004
 20
48.6760572089157435
 30
0.0
  0
VERTEX
  5
1D1B
  8
0
 10
81.4415530357253488
 20
48.6950865466536911
 30
0.0
  0
VERTEX
  5
1D1C
  8
0
 10
81.458721438974905
 20
48.7135374530151282
 30
0.0
  0
VERTEX
  5
1D1D
  8
0
 10
81.4762371247748547
 20
48.7314156923965385
 30
0.0
  0
VERTEX
  5
1D1E
  8
0
 10
81.4940859477791832
 20
48.7487270291944199
 30
0.0
  0
VERTEX
  5
1D1F
  8
0
 10
81.5122537626418335
 20
48.7654772278052207
 30
0.0
  0
VERTEX
  5
1D20
  8
0
 10
81.5307264240169047
 20
48.7816720526254528
 30
0.0
  0
VERTEX
  5
1D21
  8
0
 10
81.5494897865582971
 20
48.7973172680515788
 30
0.0
  0
VERTEX
  5
1D22
  8
0
 10
81.5685297049200244
 20
48.8124186384801106
 30
0.0
  0
VERTEX
  5
1D23
  8
0
 10
81.5878320337561149
 20
48.8269819283074966
 30
0.0
  0
VERTEX
  5
1D24
  8
0
 10
81.6073826277205114
 20
48.8410129019302275
 30
0.0
  0
VERTEX
  5
1D25
  8
0
 10
81.6271673414672563
 20
48.8545173237448012
 30
0.0
  0
VERTEX
  5
1D26
  8
0
 10
81.6471720296502639
 20
48.8675009581477013
 30
0.0
  0
VERTEX
  5
1D27
  8
0
 10
81.6673825469236476
 20
48.8799695695353904
 30
0.0
  0
VERTEX
  5
1D28
  8
0
 10
81.6877847479412793
 20
48.8919289223043592
 30
0.0
  0
VERTEX
  5
1D29
  8
0
 10
81.7083644873572439
 20
48.9033847808511126
 30
0.0
  0
VERTEX
  5
1D2A
  8
0
 10
81.7291076198254842
 20
48.914342909572099
 30
0.0
  0
VERTEX
  5
1D2B
  8
0
 10
81.7499999999999716
 20
48.9248090728638232
 30
0.0
  0
SEQEND
  5
1D2C
  8
0
  0
POLYLINE
  5
1B04
  8
0
 66
     1
 10
0.0
 20
0.0
 30
0.0
  0
VERTEX
  5
1D2D
  8
0
 10
81.7499999999998153
 20
51.0751909271361484
 30
0.0
  0
VERTEX
  5
1D2E
  8
0
 10
81.7292168934771723
 20
51.0856037555011113
 30
0.0
  0
VERTEX
  5
1D2F
  8
0
 10
81.7086403931050143
 20
51.096478243567077
 30
0.0
  0
VERTEX
  5
1D30
  8
0
 10
81.6882746022802166
 20
51.1078216950022721
 30
0.0
  0
VERTEX
  5
1D31
  8
0
 10
81.6681236243995983
 20
51.1196414134748807
 30
0.0
  0
VERTEX
  5
1D32
  8
0
 10
81.6481915628600348
 20
51.1319447026531293
 30
0.0
  0
VERTEX
  5
1D33
  8
0
 10
81.6284825210583449
 20
51.1447388662052305
 30
0.0
  0
VERTEX
  5
1D34
  8
0
 10
81.6090006023913759
 20
51.1580312077993611
 30
0.0
  0
VERTEX
  5
1D35
  8
0
 10
81.5897499102559607
 20
51.1718290311037833
 30
0.0
  0
VERTEX
  5
1D36
  8
0
 10
81.5707345480489607
 20
51.1861396397866386
 30
0.0
  0
VERTEX
  5
1D37
  8
0
 10
81.551958619167209
 20
51.2009703375162033
 30
0.0
  0
VERTEX
  5
1D38
  8
0
 10
81.5334202877808423
 20
51.2163349788207185
 30
0.0
  0
VERTEX
  5
1D39
  8
0
 10
81.5151084745012469
 20
51.2322659597275134
 30
0.0
  0
VERTEX
  5
1D3A
  8
0
 10
81.4970410071189519
 20
51.2487739654211367
 30
0.0
  0
VERTEX
  5
1D3B
  8
0
 10
81.4792382322465585
 20
51.2658673473334687
 30
0.0
  0
VERTEX
  5
1D3C
  8
0
 10
81.4617204964966675
 20
51.2835544568963968
 30
0.0
  0
VERTEX
  5
1D3D
  8
0
 10
81.4445081464817946
 20
51.3018436455418083
 30
0.0
  0
VERTEX
  5
1D3E
  8
0
 10
81.4276215288145693
 20
51.3207432647015693
 30
0.0
  0
VERTEX
  5
1D3F
  8
0
 10
81.411080990107493
 20
51.3402616658076028
 30
0.0
  0
VERTEX
  5
1D40
  8
0
 10
81.3949068769732094
 20
51.3604072002917391
 30
0.0
  0
VERTEX
  5
1D41
  8
0
 10
81.3791195360242625
 20
51.3811882195859013
 30
0.0
  0
VERTEX
  5
1D42
  8
0
 10
81.3637407592089232
 20
51.402611282998059
 30
0.0
  0
VERTEX
  5
1D43
  8
0
 10
81.3488239682785093
 20
51.4246429794078708
 30
0.0
  0
VERTEX
  5
1D44
  8
0
 10
81.3344069644468561
 20
51.4472674024572996
 30
0.0
  0
VERTEX
  5
1D45
  8
0
 10
81.32051500089716
 20
51.4704839340061611
 30
0.0
  0
VERTEX
  5
1D46
  8
0
 10
81.3071733308127307
 20
51.4942919559142496
 30
0.0
  0
VERTEX
  5
1D47
  8
0
 10
81.2944072073767927
 20
51.5186908500413807
 30
0.0
  0
VERTEX
  5
1D48
  8
0
 10
81.2822418837726275
 20
51.543679998247363
 30
0.0
  0
VERTEX
  5
1D49
  8
0
 10
81.2707026131835164
 20
51.5692587823920121
 30
0.0
  0
VERTEX
  5
1D4A
  8
0
 10
81.259814648792684
 20
51.5954265843351294
 30
0.0
  0
VERTEX
  5
1D4B
  8
0
 10
81.2496032437834401
 20
51.6221827859365305
 30
0.0
  0
VERTEX
  5
1D4C
  8
0
 10
81.2400936513389951
 20
51.6495267690560311
 30
0.0
  0
VERTEX
  5
1D4D
  8
0
 10
81.2313304669247032
 20
51.6774018106684707
 30
0.0
  0
VERTEX
  5
1D4E
  8
0
 10
81.2233639522709723
 20
51.7057103821464068
 30
0.0
  0
VERTEX
  5
1D4F
  8
0
 10
81.216209914400622
 20
51.7344377823217769
 30
0.0
  0
VERTEX
  5
1D50
  8
0
 10
81.2098837399018549
 20
51.7635704212434575
 30
0.0
  0
VERTEX
  5
1D51
  8
0
 10
81.2044008153628738
 20
51.7930947089603109
 30
0.0
  0
VERTEX
  5
1D52
  8
0
 10
81.199776527371796
 20
51.8229970555211992
 30
0.0
  0
VERTEX
  5
1D53
  8
0
 10
81.1960262625168241
 20
51.8532638709749989
 30
0.0
  0
VERTEX
  5
1D54
  8
0
 10
81.1931654073860756
 20
51.8838815653705581
 30
0.0
  0
VERTEX
  5
1D55
  8
0
 10
81.1912093485677957
 20
51.9148365487567673
 30
0.0
  0
VERTEX
  5
1D56
  8
0
 10
81.1901734726501161
 20
51.9461152311824819
 30
0.0
  0
VERTEX
  5
1D57
  8
0
 10
81.1900745339564764
 20
51.9776737137737967
 30
0.0
  0
VERTEX
  5
1D58
  8
0
 10
81.1909238833421227
 20
52.0093092761404918
 30
0.0
  0
VERTEX
  5
1D59
  8
0
 10
81.1927069896498637
 20
52.0409594228799932
 30
0.0
  0
VERTEX
  5
1D5A
  8
0
 10
81.1954065937489418
 20
52.0725911589677608
 30
0.0
  0
VERTEX
  5
1D5B
  8
0
 10
81.199005436508557
 20
52.1041714893792829
 30
0.0
  0
VERTEX
  5
1D5C
  8
0
 10
81.2034862587978807
 20
52.135667419089998
 30
0.0
  0
VERTEX
  5
1D5D
  8
0
 10
81.2088318014862267
 20
52.1670459530754016
 30
0.0
  0
VERTEX
  5
1D5E
  8
0
 10
81.2150248054426953
 20
52.1982740963109322
 30
0.0
  0
VERTEX
  5
1D5F
  8
0
 10
81.2220480115366001
 20
52.229318853772071
 30
0.0
  0
VERTEX
  5
1D60
  8
0
 10
81.2298841606371411
 20
52.2601472304342778
 30
0.0
  0
VERTEX
  5
1D61
  8
0
 10
81.2385158896112785
 20
52.2907260686609732
 30
0.0
  0
VERTEX
  5
1D62
  8
0
 10
81.2479144913967843
 20
52.3210118202344816
 30
0.0
  0
VERTEX
  5
1D63
  8
0
 10
81.2580438147192154
 20
52.3509723336673716
 30
0.0
  0
VERTEX
  5
1D64
  8
0
 10
81.2688707864859623
 20
52.3805847143143524
 30
0.0
  0
VERTEX
  5
1D65
  8
0
 10
81.2803623336043302
 20
52.4098260675301404
 30
0.0
  0
VERTEX
  5
1D66
  8
0
 10
81.2924853829817664
 20
52.438673498669452
 30
0.0
  0
VERTEX
  5
1D67
  8
0
 10
81.3052068615255905
 20
52.4671041130869966
 30
0.0
  0
VERTEX
  5
1D68
  8
0
 10
81.318493696143193
 20
52.4950950161374905
 30
0.0
  0
VERTEX
  5
1D69
  8
0
 10
81.3323128137419644
 20
52.522623313175643
 30
0.0
  0
VERTEX
  5
1D6A
  8
0
 10
81.3466311412292384
 20
52.5496661095561777
 30
0.0
  0
VERTEX
  5
1D6B
  8
0
 10
81.3614156055124056
 20
52.5762005106337895
 30
0.0
  0
VERTEX
  5
1D6C
  8
0
 10
81.3766355379105164
 20
52.6022243846916666
 30
0.0
  0
VERTEX
  5
1D6D
  8
0
 10
81.3922734037438858
 20
52.6277781936109434
 30
0.0
  0
VERTEX
  5
1D6E
  8
0
 10
81.408315127513518
 20
52.6528657835469573
 30
0.0
  0
VERTEX
  5
1D6F
  8
0
 10
81.4247465637260177
 20
52.6774889508610116
 30
0.0
  0
VERTEX
  5
1D70
  8
0
 10
81.4415535668879755
 20
52.7016494919143881
 30
0.0
  0
VERTEX
  5
1D71
  8
0
 10
81.4587219915059961
 20
52.725349203068383
 30
0.0
  0
VERTEX
  5
1D72
  8
0
 10
81.4762376920866842
 20
52.7485898806842783
 30
0.0
  0
VERTEX
  5
1D73
  8
0
 10
81.4940865231367013
 20
52.7713733211233773
 30
0.0
  0
VERTEX
  5
1D74
  8
0
 10
81.5122543391626095
 20
52.7937013207469619
 30
0.0
  0
VERTEX
  5
1D75
  8
0
 10
81.5307269946710136
 20
52.8155756759163282
 30
0.0
  0
VERTEX
  5
1D76
  8
0
 10
81.549490344168575
 20
52.8369981829927582
 30
0.0
  0
VERTEX
  5
1D77
  8
0
 10
81.568530242161799
 20
52.8579706383375481
 30
0.0
  0
VERTEX
  5
1D78
  8
0
 10
81.5878325431574467
 20
52.878494838312001
 30
0.0
  0
VERTEX
  5
1D79
  8
0
 10
81.6073831016619948
 20
52.898572579277392
 30
0.0
  0
VERTEX
  5
1D7A
  8
0
 10
81.6271677721821618
 20
52.9182056575950028
 30
0.0
  0
VERTEX
  5
1D7B
  8
0
 10
81.6471724092244528
 20
52.9373958696261511
 30
0.0
  0
VERTEX
  5
1D7C
  8
0
 10
81.6673828672955722
 20
52.9561450117320973
 30
0.0
  0
VERTEX
  5
1D7D
  8
0
 10
81.6877850009020676
 20
52.9744548802741733
 30
0.0
  0
VERTEX
  5
1D7E
  8
0
 10
81.7083646645505439
 20
52.9923272716136182
 30
0.0
  0
VERTEX
  5
1D7F
  8
0
 10
81.7291077127476626
 20
53.0097639821117568
 30
0.0
  0
VERTEX
  5
1D80
  8
0
 10
81.75
 20
53.0267668081298709
 30
0.0
  0
SEQEND
  5
1D81
  8
0
  0
POLYLINE
  5
1B05
  8
0
 66
     1
 10
0.0
 20
0.0
 30
0.0
  0
VERTEX
  5
1D82
  8
0
 10
81.7500000000001563
 20
55.0606350421407029
 30
0.0
  0
VERTEX
  5
1D83
  8
0
 10
81.7292168563215569
 20
55.0634165652460865
 30
0.0
  0
VERTEX
  5
1D84
  8
0
 10
81.7086403252632749
 20
55.0666850466479971
 30
0.0
  0
VERTEX
  5
1D85
  8
0
 10
81.6882745101178784
 20
55.0704479401745104
 30
0.0
  0
VERTEX
  5
1D86
  8
0
 10
81.6681235141777933
 20
55.0747126996537233
 30
0.0
  0
VERTEX
  5
1D87
  8
0
 10
81.6481914407355873
 20
55.0794867789137328
 30
0.0
  0
VERTEX
  5
1D88
  8
0
 10
81.6284823930837149
 20
55.0847776317826074
 30
0.0
  0
VERTEX
  5
1D89
  8
0
 10
81.6090004745147155
 20
55.0905927120884797
 30
0.0
  0
VERTEX
  5
1D8A
  8
0
 10
81.5897497883210434
 20
55.0969394736594182
 30
0.0
  0
VERTEX
  5
1D8B
  8
0
 10
81.5707344377952666
 20
55.103825370323527
 30
0.0
  0
VERTEX
  5
1D8C
  8
0
 10
81.5519585262298108
 20
55.111257855908903
 30
0.0
  0
VERTEX
  5
1D8D
  8
0
 10
81.5334202200497771
 20
55.1192484314155706
 30
0.0
  0
VERTEX
  5
1D8E
  8
0
 10
81.5151084465763631
 20
55.1278223255501771
 30
0.0
  0
VERTEX
  5
1D8F
  8
0
 10
81.4970410297819541
 20
55.1369941240754002
 30
0.0
  0
VERTEX
  5
1D90
  8
0
 10
81.4792383115021153
 20
55.1467770919708329
 30
0.0
  0
VERTEX
  5
1D91
  8
0
 10
81.4617206335722983
 20
55.1571844942161604
 30
0.0
  0
VERTEX
  5
1D92
  8
0
 10
81.4445083378280259
 20
55.1682295957909972
 30
0.0
  0
VERTEX
  5
1D93
  8
0
 10
81.4276217661048634
 20
55.1799256616749929
 30
0.0
  0
VERTEX
  5
1D94
  8
0
 10
81.4110812602382765
 20
55.1922859568477406
 30
0.0
  0
VERTEX
  5
1D95
  8
0
 10
81.3949071620638165
 20
55.2053237462889186
 30
0.0
  0
VERTEX
  5
1D96
  8
0
 10
81.3791198134169633
 20
55.2190522949781268
 30
0.0
  0
VERTEX
  5
1D97
  8
0
 10
81.3637410030667354
 20
55.2334837016309308
 30
0.0
  0
VERTEX
  5
1D98
  8
0
 10
81.3488241833651102
 20
55.2486038175893412
 30
0.0
  0
VERTEX
  5
1D99
  8
0
 10
81.3344071659193872
 20
55.2644093011774089
 30
0.0
  0
VERTEX
  5
1D9A
  8
0
 10
81.3205152000084581
 20
55.2809066749983984
 30
0.0
  0
VERTEX
  5
1D9B
  8
0
 10
81.3071735349110725
 20
55.298102461655553
 30
0.0
  0
VERTEX
  5
1D9C
  8
0
 10
81.2944074199061504
 20
55.3160031837521231
 30
0.0
  0
VERTEX
  5
1D9D
  8
0
 10
81.2822421042724841
 20
55.3346153638913592
 30
0.0
  0
VERTEX
  5
1D9E
  8
0
 10
81.2707028372889653
 20
55.3539455246765328
 30
0.0
  0
VERTEX
  5
1D9F
  8
0
 10
81.2598148682343719
 20
55.3740001887108519
 30
0.0
  0
VERTEX
  5
1DA0
  8
0
 10
81.2496034463875532
 20
55.3947858785976095
 30
0.0
  0
VERTEX
  5
1DA1
  8
0
 10
81.2400938210274148
 20
55.416309116940063
 30
0.0
  0
VERTEX
  5
1DA2
  8
0
 10
81.2313305963142227
 20
55.4385320452460988
 30
0.0
  0
VERTEX
  5
1DA3
  8
0
 10
81.2233640513659338
 20
55.4613821449286988
 30
0.0
  0
VERTEX
  5
1DA4
  8
0
 10
81.2162099916617706
 20
55.4848507448564376
 30
0.0
  0
VERTEX
  5
1DA5
  8
0
 10
81.2098838019945362
 20
55.5089300423291192
 30
0.0
  0
VERTEX
  5
1DA6
  8
0
 10
81.2044008671571476
 20
55.5336122346464975
 30
0.0
  0
VERTEX
  5
1DA7
  8
0
 10
81.1997765719423938
 20
55.5588895191083694
 30
0.0
  0
VERTEX
  5
1DA8
  8
0
 10
81.1960263011432346
 20
55.5847540930145101
 30
0.0
  0
VERTEX
  5
1DA9
  8
0
 10
81.1931654395524163
 20
55.611198153664688
 30
0.0
  0
VERTEX
  5
1DAA
  8
0
 10
81.1912093719628558
 20
55.6382138983586927
 30
0.0
  0
VERTEX
  5
1DAB
  8
0
 10
81.1901734831674275
 20
55.6657935243962783
 30
0.0
  0
VERTEX
  5
1DAC
  8
0
 10
81.1900745264658354
 20
55.6939026154457224
 30
0.0
  0
VERTEX
  5
1DAD
  8
0
 10
81.1909238563673767
 20
55.7223637548404724
 30
0.0
  0
VERTEX
  5
1DAE
  8
0
 10
81.1927069427857333
 20
55.7511171440178828
 30
0.0
  0
VERTEX
  5
1DAF
  8
0
 10
81.1954065269806051
 20
55.7801284944716116
 30
0.0
  0
VERTEX
  5
1DB0
  8
0
 10
81.199005350211479
 20
55.8093635176953029
 30
0.0
  0
VERTEX
  5
1DB1
  8
0
 10
81.2034861537380834
 20
55.8387879251826007
 30
0.0
  0
VERTEX
  5
1DB2
  8
0
 10
81.2088316788199336
 20
55.868367428427149
 30
0.0
  0
VERTEX
  5
1DB3
  8
0
 10
81.2150246667166869
 20
55.8980677389225917
 30
0.0
  0
VERTEX
  5
1DB4
  8
0
 10
81.2220478586879437
 20
55.9278545681625729
 30
0.0
  0
VERTEX
  5
1DB5
  8
0
 10
81.2298839959933332
 20
55.9576936276407366
 30
0.0
  0
VERTEX
  5
1DB6
  8
0
 10
81.2385157158342963
 20
55.9875504561903625
 30
0.0
  0
VERTEX
  5
1DB7
  8
0
 10
81.2479143072858108
 20
56.0173782351786116
 30
0.0
  0
VERTEX
  5
1DB8
  8
0
 10
81.2580436171607801
 20
56.0471380925765672
 30
0.0
  0
VERTEX
  5
1DB9
  8
0
 10
81.2688705732555263
 20
56.0768001837743597
 30
0.0
  0
VERTEX
  5
1DBA
  8
0
 10
81.2803621033663575
 20
56.1063346641621195
 30
0.0
  0
VERTEX
  5
1DBB
  8
0
 10
81.2924851352896241
 20
56.1357116891299626
 30
0.0
  0
VERTEX
  5
1DBC
  8
0
 10
81.3052065968216056
 20
56.1649014140680194
 30
0.0
  0
VERTEX
  5
1DBD
  8
0
 10
81.3184934157586241
 20
56.1938739943664203
 30
0.0
  0
VERTEX
  5
1DBE
  8
0
 10
81.3323125198970729
 20
56.2225995854153027
 30
0.0
  0
VERTEX
  5
1DBF
  8
0
 10
81.3466308370331888
 20
56.2510483426047685
 30
0.0
  0
VERTEX
  5
1DC0
  8
0
 10
81.361415294963308
 20
56.2791904213249623
 30
0.0
  0
VERTEX
  5
1DC1
  8
0
 10
81.3766352233135564
 20
56.3070153299157923
 30
0.0
  0
VERTEX
  5
1DC2
  8
0
 10
81.3922730819541442
 20
56.3345545564162933
 30
0.0
  0
VERTEX
  5
1DC3
  8
0
 10
81.4083147959345297
 20
56.3618075987207092
 30
0.0
  0
VERTEX
  5
1DC4
  8
0
 10
81.424746220596262
 20
56.3887720906289971
 30
0.0
  0
VERTEX
  5
1DC5
  8
0
 10
81.4415532112808762
 20
56.4154456659410926
 30
0.0
  0
VERTEX
  5
1DC6
  8
0
 10
81.4587216233298079
 20
56.4418259584569597
 30
0.0
  0
VERTEX
  5
1DC7
  8
0
 10
81.4762373120845353
 20
56.4679106019765271
 30
0.0
  0
VERTEX
  5
1DC8
  8
0
 10
81.4940861328866504
 20
56.4936972302997518
 30
0.0
  0
VERTEX
  5
1DC9
  8
0
 10
81.512253941077546
 20
56.5191834772265693
 30
0.0
  0
VERTEX
  5
1DCA
  8
0
 10
81.5307265919987856
 20
56.5443669765569297
 30
0.0
  0
VERTEX
  5
1DCB
  8
0
 10
81.5494899409918048
 20
56.5692453620907827
 30
0.0
  0
VERTEX
  5
1DCC
  8
0
 10
81.5685298433981245
 20
56.5938162676280498
 30
0.0
  0
VERTEX
  5
1DCD
  8
0
 10
81.5878321545592371
 20
56.6180773269687094
 30
0.0
  0
VERTEX
  5
1DCE
  8
0
 10
81.6073827298166492
 20
56.6420261739126971
 30
0.0
  0
VERTEX
  5
1DCF
  8
0
 10
81.627167424511839
 20
56.6656604422599415
 30
0.0
  0
VERTEX
  5
1DD0
  8
0
 10
81.6471720939863133
 20
56.6889777658104066
 30
0.0
  0
VERTEX
  5
1DD1
  8
0
 10
81.6673825935815501
 20
56.7119757783640281
 30
0.0
  0
VERTEX
  5
1DD2
  8
0
 10
81.6877847786390419
 20
56.7346521137207631
 30
0.0
  0
VERTEX
  5
1DD3
  8
0
 10
81.7083645045002811
 20
56.7570044056805401
 30
0.0
  0
VERTEX
  5
1DD4
  8
0
 10
81.7291076265067744
 20
56.7790302880433089
 30
0.0
  0
VERTEX
  5
1DD5
  8
0
 10
81.7500000000000142
 20
56.8007273946090407
 30
0.0
  0
SEQEND
  5
1DD6
  8
0
  0
POLYLINE
  5
1B06
  8
0
 66
     1
 10
0.0
 20
0.0
 30
0.0
  0
VERTEX
  5
1DD7
  8
0
 10
81.75
 20
58.4976808264861674
 30
0.0
  0
VERTEX
  5
1DD8
  8
0
 10
81.729216867938959
 20
58.492529606681039
 30
0.0
  0
VERTEX
  5
1DD9
  8
0
 10
81.7086403470765248
 20
58.4878378748029704
 30
0.0
  0
VERTEX
  5
1DDA
  8
0
 10
81.6882745407242226
 20
58.4836124276638571
 30
0.0
  0
VERTEX
  5
1DDB
  8
0
 10
81.6681235521933502
 20
58.4798600620756517
 30
0.0
  0
VERTEX
  5
1DDC
  8
0
 10
81.648191484795376
 20
58.4765875748502921
 30
0.0
  0
VERTEX
  5
1DDD
  8
0
 10
81.6284824418416974
 20
58.4738017627997095
 30
0.0
  0
VERTEX
  5
1DDE
  8
0
 10
81.6090005266437259
 20
58.4715094227358207
 30
0.0
  0
VERTEX
  5
1DDF
  8
0
 10
81.5897498425128731
 20
58.4697173514705781
 30
0.0
  0
VERTEX
  5
1DE0
  8
0
 10
81.5707344927605789
 20
58.4684323458159128
 30
0.0
  0
VERTEX
  5
1DE1
  8
0
 10
81.5519585806981979
 20
58.4676612025837485
 30
0.0
  0
VERTEX
  5
1DE2
  8
0
 10
81.5334202722927444
 20
58.4674118273512065
 30
0.0
  0
VERTEX
  5
1DE3
  8
0
 10
81.5151084935045844
 20
58.4676995596424831
 30
0.0
  0
VERTEX
  5
1DE4
  8
0
 10
81.4970410690714857
 20
58.4685413005027996
 30
0.0
  0
VERTEX
  5
1DE5
  8
0
 10
81.4792383417881467
 20
58.469953784743808
 30
0.0
  0
VERTEX
  5
1DE6
  8
0
 10
81.461720654449195
 20
58.4719537471771389
 30
0.0
  0
VERTEX
  5
1DE7
  8
0
 10
81.4445083498493432
 20
58.4745579226144514
 30
0.0
  0
VERTEX
  5
1DE8
  8
0
 10
81.4276217707832188
 20
58.4777830458673833
 30
0.0
  0
VERTEX
  5
1DE9
  8
0
 10
81.4110812600454778
 20
58.4816458517475581
 30
0.0
  0
VERTEX
  5
1DEA
  8
0
 10
81.3949071604308187
 20
58.4861630750666279
 30
0.0
  0
VERTEX
  5
1DEB
  8
0
 10
81.3791198147338832
 20
58.4913514506362375
 30
0.0
  0
VERTEX
  5
1DEC
  8
0
 10
81.3637410123581049
 20
58.4972273017497812
 30
0.0
  0
VERTEX
  5
1DED
  8
0
 10
81.3488241994210455
 20
58.503797323484882
 30
0.0
  0
VERTEX
  5
1DEE
  8
0
 10
81.3344071853921378
 20
58.511071114552891
 30
0.0
  0
VERTEX
  5
1DEF
  8
0
 10
81.3205152203165369
 20
58.5190616222499216
 30
0.0
  0
VERTEX
  5
1DF0
  8
0
 10
81.3071735542394549
 20
58.5277817938720801
 30
0.0
  0
VERTEX
  5
1DF1
  8
0
 10
81.2944074372060754
 20
58.537244576715473
 30
0.0
  0
VERTEX
  5
1DF2
  8
0
 10
81.2822421192615678
 20
58.5474629180762207
 30
0.0
  0
VERTEX
  5
1DF3
  8
0
 10
81.2707028504511584
 20
58.558449765250451
 30
0.0
  0
VERTEX
  5
1DF4
  8
0
 10
81.2598148808199454
 20
58.570218065534263
 30
0.0
  0
VERTEX
  5
1DF5
  8
0
 10
81.2496034604132262
 20
58.5827807662237632
 30
0.0
  0
VERTEX
  5
1DF6
  8
0
 10
81.2400938392761134
 20
58.5961508146150791
 30
0.0
  0
VERTEX
  5
1DF7
  8
0
 10
81.2313306198196869
 20
58.6103133533684613
 30
0.0
  0
VERTEX
  5
1DF8
  8
0
 10
81.2233640776854315
 20
58.6252287907359388
 30
0.0
  0
VERTEX
  5
1DF9
  8
0
 10
81.2162100186617408
 20
58.6408954145493482
 30
0.0
  0
VERTEX
  5
1DFA
  8
0
 10
81.2098838279008817
 20
58.6573120432883215
 30
0.0
  0
VERTEX
  5
1DFB
  8
0
 10
81.2044008905552062
 20
58.6744774954324484
 30
0.0
  0
VERTEX
  5
1DFC
  8
0
 10
81.1997765917769669
 20
58.6923905894613682
 30
0.0
  0
VERTEX
  5
1DFD
  8
0
 10
81.1960263167185587
 20
58.7110501438546777
 30
0.0
  0
VERTEX
  5
1DFE
  8
0
 10
81.1931654505322626
 20
58.7304549770920303
 30
0.0
  0
VERTEX
  5
1DFF
  8
0
 10
81.1912093783703739
 20
58.7506039076529873
 30
0.0
  0
VERTEX
  5
1E00
  8
0
 10
81.1901734853851735
 20
58.7714957540172165
 30
0.0
  0
VERTEX
  5
1E01
  8
0
 10
81.1900745250920863
 20
58.7931093128208389
 30
0.0
  0
VERTEX
  5
1E02
  8
0
 10
81.1909238513475202
 20
58.8153117622690402
 30
0.0
  0
VERTEX
  5
1E03
  8
0
 10
81.1927069338999843
 20
58.8380524865632921
 30
0.0
  0
VERTEX
  5
1E04
  8
0
 10
81.1954065139711929
 20
58.8612996129470574
 30
0.0
  0
VERTEX
  5
1E05
  8
0
 10
81.1990053327828321
 20
58.885021268663813
 30
0.0
  0
VERTEX
  5
1E06
  8
0
 10
81.2034861315566161
 20
58.909185580957022
 30
0.0
  0
VERTEX
  5
1E07
  8
0
 10
81.2088316515142452
 20
58.9337606770701328
 30
0.0
  0
VERTEX
  5
1E08
  8
0
 10
81.2150246338773627
 20
58.958714684246587
 30
0.0
  0
VERTEX
  5
1E09
  8
0
 10
81.2220478198677256
 20
58.9840157297298902
 30
0.0
  0
VERTEX
  5
1E0A
  8
0
 10
81.2298839507070056
 20
59.0096319407634766
 30
0.0
  0
VERTEX
  5
1E0B
  8
0
 10
81.2385156635691317
 20
59.0355312809242605
 30
0.0
  0
VERTEX
  5
1E0C
  8
0
 10
81.2479142482727923
 20
59.0616687549217474
 30
0.0
  0
VERTEX
  5
1E0D
  8
0
 10
81.258043552000629
 20
59.0880029957512676
 30
0.0
  0
VERTEX
  5
1E0E
  8
0
 10
81.2688705023982436
 20
59.1145004403840275
 30
0.0
  0
VERTEX
  5
1E0F
  8
0
 10
81.2803620271112948
 20
59.1411275257912195
 30
0.0
  0
VERTEX
  5
1E10
  8
0
 10
81.2924850537854127
 20
59.1678506889440925
 30
0.0
  0
VERTEX
  5
1E11
  8
0
 10
81.3052065100662276
 20
59.1946363668138105
 30
0.0
  0
VERTEX
  5
1E12
  8
0
 10
81.3184933235993697
 20
59.2214509963716509
 30
0.0
  0
VERTEX
  5
1E13
  8
0
 10
81.3323124220304692
 20
59.2482610145887776
 30
0.0
  0
VERTEX
  5
1E14
  8
0
 10
81.3466307330051848
 20
59.2750328584364325
 30
0.0
  0
VERTEX
  5
1E15
  8
0
 10
81.361415184169104
 20
59.3017329648858222
 30
0.0
  0
VERTEX
  5
1E16
  8
0
 10
81.3766351051922072
 20
59.3283436214635813
 30
0.0
  0
VERTEX
  5
1E17
  8
0
 10
81.3922729564509666
 20
59.3548839403389223
 30
0.0
  0
VERTEX
  5
1E18
  8
0
 10
81.4083146632179364
 20
59.3813491256273096
 30
0.0
  0
VERTEX
  5
1E19
  8
0
 10
81.4247460810396717
 20
59.4077329045447797
 30
0.0
  0
VERTEX
  5
1E1A
  8
0
 10
81.4415530654627133
 20
59.434029004307348
 30
0.0
  0
VERTEX
  5
1E1B
  8
0
 10
81.458721472033659
 20
59.4602311521310511
 30
0.0
  0
VERTEX
  5
1E1C
  8
0
 10
81.4762371562990353
 20
59.4863330752319186
 30
0.0
  0
VERTEX
  5
1E1D
  8
0
 10
81.4940859738053689
 20
59.512328500825987
 30
0.0
  0
VERTEX
  5
1E1E
  8
0
 10
81.5122537800992433
 20
59.5382111561293002
 30
0.0
  0
VERTEX
  5
1E1F
  8
0
 10
81.5307264307272135
 20
59.5639747683578591
 30
0.0
  0
VERTEX
  5
1E20
  8
0
 10
81.5494897812358346
 20
59.5896130647277218
 30
0.0
  0
VERTEX
  5
1E21
  8
0
 10
81.5685296871716901
 20
59.6151197724548965
 30
0.0
  0
VERTEX
  5
1E22
  8
0
 10
81.5878320040812781
 20
59.6404886187554411
 30
0.0
  0
VERTEX
  5
1E23
  8
0
 10
81.6073825875111822
 20
59.6657133308453567
 30
0.0
  0
VERTEX
  5
1E24
  8
0
 10
81.6271672930079717
 20
59.6907876359407013
 30
0.0
  0
VERTEX
  5
1E25
  8
0
 10
81.6471719761181873
 20
59.7157052612574901
 30
0.0
  0
VERTEX
  5
1E26
  8
0
 10
81.6673824923883558
 20
59.7404599340117528
 30
0.0
  0
VERTEX
  5
1E27
  8
0
 10
81.6877846973650747
 20
59.765045381419533
 30
0.0
  0
VERTEX
  5
1E28
  8
0
 10
81.7083644465948993
 20
59.7894553306968533
 30
0.0
  0
VERTEX
  5
1E29
  8
0
 10
81.729107595624356
 20
59.813683509059743
 30
0.0
  0
VERTEX
  5
1E2A
  8
0
 10
81.7500000000000142
 20
59.8377236437242317
 30
0.0
  0
SEQEND
  5
1E2B
  8
0
  0
POLYLINE
  5
1B07
  8
0
 66
     1
 10
0.0
 20
0.0
 30
0.0
  0
VERTEX
  5
1E2C
  8
0
 10
81.7499999999998579
 20
61.0138710381782232
 30
0.0
  0
VERTEX
  5
1E2D
  8
0
 10
81.7292169360140832
 20
61.0013453323258119
 30
0.0
  0
VERTEX
  5
1E2E
  8
0
 10
81.7086404729974873
 20
60.9892018439834587
 30
0.0
  0
VERTEX
  5
1E2F
  8
0
 10
81.6882747144155843
 20
60.9774459767735593
 30
0.0
  0
VERTEX
  5
1E30
  8
0
 10
81.6681237637338455
 20
60.966083134318481
 30
0.0
  0
VERTEX
  5
1E31
  8
0
 10
81.6481917244178135
 20
60.95511872024057
 30
0.0
  0
VERTEX
  5
1E32
  8
0
 10
81.6284826999330448
 20
60.9445581381622077
 30
0.0
  0
VERTEX
  5
1E33
  8
0
 10
81.6090007937450821
 20
60.9344067917057615
 30
0.0
  0
VERTEX
  5
1E34
  8
0
 10
81.5897501093193966
 20
60.92467008449362
 30
0.0
  0
VERTEX
  5
1E35
  8
0
 10
81.5707347501215452
 20
60.9153534201481222
 30
0.0
  0
VERTEX
  5
1E36
  8
0
 10
81.551958819617056
 20
60.9064622022916495
 30
0.0
  0
VERTEX
  5
1E37
  8
0
 10
81.5334204803097577
 20
60.8979998836850882
 30
0.0
  0
VERTEX
  5
1E38
  8
0
 10
81.5151086478616662
 20
60.8899702498095508
 30
0.0
  0
VERTEX
  5
1E39
  8
0
 10
81.497041152847757
 20
60.8823906878453585
 30
0.0
  0
VERTEX
  5
1E3A
  8
0
 10
81.4792383453698221
 20
60.8752795917438405
 30
0.0
  0
VERTEX
  5
1E3B
  8
0
 10
81.4617205755296538
 20
60.8686553554562977
 30
0.0
  0
VERTEX
  5
1E3C
  8
0
 10
81.444508193428959
 20
60.8625363729340307
 30
0.0
  0
VERTEX
  5
1E3D
  8
0
 10
81.4276215491695581
 20
60.8569410381283618
 30
0.0
  0
VERTEX
  5
1E3E
  8
0
 10
81.4110809928532149
 20
60.8518877449905915
 30
0.0
  0
VERTEX
  5
1E3F
  8
0
 10
81.3949068745816788
 20
60.8473948874720065
 30
0.0
  0
VERTEX
  5
1E40
  8
0
 10
81.3791195444567279
 20
60.8434808595239502
 30
0.0
  0
VERTEX
  5
1E41
  8
0
 10
81.3637407967343336
 20
60.8401644421440224
 30
0.0
  0
VERTEX
  5
1E42
  8
0
 10
81.3488240304785251
 20
60.8374724337835602
 30
0.0
  0
VERTEX
  5
1E43
  8
0
 10
81.334407039122226
 20
60.835426327206747
 30
0.0
  0
VERTEX
  5
1E44
  8
0
 10
81.320515078635637
 20
60.8340440919744978
 30
0.0
  0
VERTEX
  5
1E45
  8
0
 10
81.3071734049890438
 20
60.833343697647777
 30
0.0
  0
VERTEX
  5
1E46
  8
0
 10
81.2944072741527037
 20
60.8333431137875067
 30
0.0
  0
VERTEX
  5
1E47
  8
0
 10
81.2822419420968743
 20
60.83406030995463
 30
0.0
  0
VERTEX
  5
1E48
  8
0
 10
81.2707026647917843
 20
60.8355132557100831
 30
0.0
  0
VERTEX
  5
1E49
  8
0
 10
81.2598146982077054
 20
60.837719920614802
 30
0.0
  0
VERTEX
  5
1E4A
  8
0
 10
81.2496032983149234
 20
60.8406982742297302
 30
0.0
  0
VERTEX
  5
1E4B
  8
0
 10
81.2400937210836531
 20
60.8444662861157965
 30
0.0
  0
VERTEX
  5
1E4C
  8
0
 10
81.2313305556145338
 20
60.8490337140010169
 30
0.0
  0
VERTEX
  5
1E4D
  8
0
 10
81.2233640509902557
 20
60.8543981873081492
 30
0.0
  0
VERTEX
  5
1E4E
  8
0
 10
81.2162100153585556
 20
60.8605651358486384
 30
0.0
  0
VERTEX
  5
1E4F
  8
0
 10
81.2098838366155462
 20
60.867540124719028
 30
0.0
  0
VERTEX
  5
1E50
  8
0
 10
81.2044009026571985
 20
60.87532871901589
 30
0.0
  0
VERTEX
  5
1E51
  8
0
 10
81.1997766013795115
 20
60.8839364838357682
 30
0.0
  0
VERTEX
  5
1E52
  8
0
 10
81.1960263206784987
 20
60.8933689842752486
 30
0.0
  0
VERTEX
  5
1E53
  8
0
 10
81.1931654484502019
 20
60.903631785430882
 30
0.0
  0
VERTEX
  5
1E54
  8
0
 10
81.1912093725906061
 20
60.914730452399219
 30
0.0
  0
VERTEX
  5
1E55
  8
0
 10
81.1901734809957532
 20
60.9266705502768389
 30
0.0
  0
VERTEX
  5
1E56
  8
0
 10
81.1900745287741046
 20
60.9394463878486476
 30
0.0
  0
VERTEX
  5
1E57
  8
0
 10
81.1909238644108058
 20
60.9529841531870389
 30
0.0
  0
VERTEX
  5
1E58
  8
0
 10
81.1927069561506585
 20
60.9672478994600695
 30
0.0
  0
VERTEX
  5
1E59
  8
0
 10
81.1954065447274616
 20
60.9822116206858595
 30
0.0
  0
VERTEX
  5
1E5A
  8
0
 10
81.199005370875156
 20
60.9978493108825504
 30
0.0
  0
VERTEX
  5
1E5B
  8
0
 10
81.203486175327555
 20
61.0141349640682265
 30
0.0
  0
VERTEX
  5
1E5C
  8
0
 10
81.2088316988186136
 20
61.0310425742610079
 30
0.0
  0
VERTEX
  5
1E5D
  8
0
 10
81.2150246820821451
 20
61.0485461354790289
 30
0.0
  0
VERTEX
  5
1E5E
  8
0
 10
81.2220478658520477
 20
61.0666196417404024
 30
0.0
  0
VERTEX
  5
1E5F
  8
0
 10
81.2298839908622341
 20
61.0852370870632413
 30
0.0
  0
VERTEX
  5
1E60
  8
0
 10
81.2385156938818369
 20
61.1043723287174885
 30
0.0
  0
VERTEX
  5
1E61
  8
0
 10
81.2479142705524566
 20
61.1239870827339971
 30
0.0
  0
VERTEX
  5
1E62
  8
0
 10
81.2580435709437268
 20
61.1440419770864523
 30
0.0
  0
VERTEX
  5
1E63
  8
0
 10
81.2688705214166589
 20
61.1645033654718588
 30
0.0
  0
VERTEX
  5
1E64
  8
0
 10
81.2803620483321936
 20
61.1853376015872428
 30
0.0
  0
VERTEX
  5
1E65
  8
0
 10
81.2924850780513282
 20
61.2065110391296514
 30
0.0
  0
VERTEX
  5
1E66
  8
0
 10
81.305206536934989
 20
61.2279900317960966
 30
0.0
  0
VERTEX
  5
1E67
  8
0
 10
81.3184933513442445
 20
61.2497409332836185
 30
0.0
  0
VERTEX
  5
1E68
  8
0
 10
81.3323124476399926
 20
61.2717300972892573
 30
0.0
  0
VERTEX
  5
1E69
  8
0
 10
81.3466307521832164
 20
61.2939238775100179
 30
0.0
  0
VERTEX
  5
1E6A
  8
0
 10
81.3614151913348849
 20
61.3162886276429404
 30
0.0
  0
VERTEX
  5
1E6B
  8
0
 10
81.376635096554665
 20
61.3388013360709579
 30
0.0
  0
VERTEX
  5
1E6C
  8
0
 10
81.3922729349675649
 20
61.3614666770028379
 30
0.0
  0
VERTEX
  5
1E6D
  8
0
 10
81.4083146319069755
 20
61.3842760804249892
 30
0.0
  0
VERTEX
  5
1E6E
  8
0
 10
81.4247460426494172
 20
61.4072200462147535
 30
0.0
  0
VERTEX
  5
1E6F
  8
0
 10
81.4415530224712256
 20
61.4302890742494583
 30
0.0
  0
VERTEX
  5
1E70
  8
0
 10
81.4587214266489354
 20
61.4534736644064594
 30
0.0
  0
VERTEX
  5
1E71
  8
0
 10
81.4762371104589533
 20
61.4767643165631199
 30
0.0
  0
VERTEX
  5
1E72
  8
0
 10
81.4940859291777144
 20
61.5001515305967601
 30
0.0
  0
VERTEX
  5
1E73
  8
0
 10
81.5122537380816823
 20
61.5236258063847288
 30
0.0
  0
VERTEX
  5
1E74
  8
0
 10
81.5307263924472636
 20
61.5471776438043676
 30
0.0
  0
VERTEX
  5
1E75
  8
0
 10
81.5494897475509504
 20
61.5707975427330396
 30
0.0
  0
VERTEX
  5
1E76
  8
0
 10
81.5685296586691635
 20
61.5944760030480793
 30
0.0
  0
VERTEX
  5
1E77
  8
0
 10
81.5878319810783523
 20
61.6182035246268214
 30
0.0
  0
VERTEX
  5
1E78
  8
0
 10
81.6073825700549662
 20
61.6419706073466216
 30
0.0
  0
VERTEX
  5
1E79
  8
0
 10
81.6271672808753976
 20
61.6657677510848075
 30
0.0
  0
VERTEX
  5
1E7A
  8
0
 10
81.647171968816167
 20
61.6895854557187633
 30
0.0
  0
VERTEX
  5
1E7B
  8
0
 10
81.667382489153681
 20
61.7134142211257881
 30
0.0
  0
VERTEX
  5
1E7C
  8
0
 10
81.6877846971643464
 20
61.7372445471832592
 30
0.0
  0
VERTEX
  5
1E7D
  8
0
 10
81.7083644481246836
 20
61.7610669337684968
 30
0.0
  0
VERTEX
  5
1E7E
  8
0
 10
81.729107597311085
 20
61.784871880758871
 30
0.0
  0
VERTEX
  5
1E7F
  8
0
 10
81.7499999999999716
 20
61.8086498880317095
 30
0.0
  0
SEQEND
  5
1E80
  8
0
  0
POLYLINE
  5
1B08
  8
0
 66
     1
 10
0.0
 20
0.0
 30
0.0
  0
VERTEX
  5
1E81
  8
0
 10
81.75
 20
62.3365374250664601
 30
0.0
  0
VERTEX
  5
1E82
  8
0
 10
81.7292171156138068
 20
62.3179947315247773
 30
0.0
  0
VERTEX
  5
1E83
  8
0
 10
81.7086408048816963
 20
62.2997155453444975
 30
0.0
  0
VERTEX
  5
1E84
  8
0
 10
81.6882751716831876
 20
62.2817032914355835
 30
0.0
  0
VERTEX
  5
1E85
  8
0
 10
81.6681243198977285
 20
62.2639613947079908
 30
0.0
  0
VERTEX
  5
1E86
  8
0
 10
81.6481923534047667
 20
62.2464932800716966
 30
0.0
  0
VERTEX
  5
1E87
  8
0
 10
81.6284833760838069
 20
62.2293023724366776
 30
0.0
  0
VERTEX
  5
1E88
  8
0
 10
81.6090014918142685
 20
62.2123920967128825
 30
0.0
  0
VERTEX
  5
1E89
  8
0
 10
81.5897508044756421
 20
62.1957658778102882
 30
0.0
  0
VERTEX
  5
1E8A
  8
0
 10
81.5707354179473896
 20
62.1794271406388575
 30
0.0
  0
VERTEX
  5
1E8B
  8
0
 10
81.5519594361089446
 20
62.1633793101085601
 30
0.0
  0
VERTEX
  5
1E8C
  8
0
 10
81.5334210122069862
 20
62.1476210028071776
 30
0.0
  0
VERTEX
  5
1E8D
  8
0
 10
81.515109034377133
 20
62.1321440130699472
 30
0.0
  0
VERTEX
  5
1E8E
  8
0
 10
81.4970413488176462
 20
62.1169643440933825
 30
0.0
  0
VERTEX
  5
1E8F
  8
0
 10
81.4792383251837578
 20
62.1021000734927426
 30
0.0
  0
VERTEX
  5
1E90
  8
0
 10
81.4617203331306712
 20
62.087569278883322
 30
0.0
  0
VERTEX
  5
1E91
  8
0
 10
81.4445077423135757
 20
62.0733900378803867
 30
0.0
  0
VERTEX
  5
1E92
  8
0
 10
81.4276209223877743
 20
62.0595804280992098
 30
0.0
  0
VERTEX
  5
1E93
  8
0
 10
81.4110802430083709
 20
62.0461585271550717
 30
0.0
  0
VERTEX
  5
1E94
  8
0
 10
81.3949060738306542
 20
62.0331424126632385
 30
0.0
  0
VERTEX
  5
1E95
  8
0
 10
81.3791187845098136
 20
62.0205501622389974
 30
0.0
  0
VERTEX
  5
1E96
  8
0
 10
81.3637401822883959
 20
62.0084009909419791
 30
0.0
  0
VERTEX
  5
1E97
  8
0
 10
81.3488235403546298
 20
61.996738777208698
 30
0.0
  0
VERTEX
  5
1E98
  8
0
 10
81.334406609255339
 20
61.9855945397698704
 30
0.0
  0
VERTEX
  5
1E99
  8
0
 10
81.3205146608309661
 20
61.9749893400929182
 30
0.0
  0
VERTEX
  5
1E9A
  8
0
 10
81.3071729669217689
 20
61.9649442396452628
 30
0.0
  0
VERTEX
  5
1E9B
  8
0
 10
81.2944067993682324
 20
61.9554802998943828
 30
0.0
  0
VERTEX
  5
1E9C
  8
0
 10
81.2822414300106146
 20
61.9466185823076572
 30
0.0
  0
VERTEX
  5
1E9D
  8
0
 10
81.2707021306893864
 20
61.9383801483525573
 30
0.0
  0
VERTEX
  5
1E9E
  8
0
 10
81.2598141732448767
 20
61.9307860594965121
 30
0.0
  0
VERTEX
  5
1E9F
  8
0
 10
81.2496028295174568
 20
61.9238573772069429
 30
0.0
  0
VERTEX
  5
1EA0
  8
0
 10
81.2400933713474558
 20
61.9176151629512788
 30
0.0
  0
VERTEX
  5
1EA1
  8
0
 10
81.2313303522070953
 20
61.9120926859870195
 30
0.0
  0
VERTEX
  5
1EA2
  8
0
 10
81.2233639500771147
 20
61.9073249676257475
 30
0.0
  0
VERTEX
  5
1EA3
  8
0
 10
81.2162099794225583
 20
61.9033240022718374
 30
0.0
  0
VERTEX
  5
1EA4
  8
0
 10
81.2098838354854848
 20
61.9001015108667332
 30
0.0
  0
VERTEX
  5
1EA5
  8
0
 10
81.2044009135078113
 20
61.8976692143519216
 30
0.0
  0
VERTEX
  5
1EA6
  8
0
 10
81.1997766087316108
 20
61.8960388336688681
 30
0.0
  0
VERTEX
  5
1EA7
  8
0
 10
81.1960263163989566
 20
61.8952220897590593
 30
0.0
  0
VERTEX
  5
1EA8
  8
0
 10
81.1931654317517939
 20
61.8952307035639677
 30
0.0
  0
VERTEX
  5
1EA9
  8
0
 10
81.1912093500321816
 20
61.8960763960250517
 30
0.0
  0
VERTEX
  5
1EAA
  8
0
 10
81.1901734664821078
 20
61.897770888083798
 30
0.0
  0
VERTEX
  5
1EAB
  8
0
 10
81.1900745404687854
 20
61.9003246198436798
 30
0.0
  0
VERTEX
  5
1EAC
  8
0
 10
81.1909239060447732
 20
61.903730737601137
 30
0.0
  0
VERTEX
  5
1EAD
  8
0
 10
81.1927070273975175
 20
61.907971852438699
 30
0.0
  0
VERTEX
  5
1EAE
  8
0
 10
81.1954066439293172
 20
61.91303064631947
 30
0.0
  0
VERTEX
  5
1EAF
  8
0
 10
81.1990054950423996
 20
61.9188898012065181
 30
0.0
  0
VERTEX
  5
1EB0
  8
0
 10
81.203486320139092
 20
61.9255319990629687
 30
0.0
  0
VERTEX
  5
1EB1
  8
0
 10
81.208831858621636
 20
61.9329399218518901
 30
0.0
  0
VERTEX
  5
1EB2
  8
0
 10
81.2150248498923446
 20
61.9410962515364005
 30
0.0
  0
VERTEX
  5
1EB3
  8
0
 10
81.2220480333535306
 20
61.9499836700795825
 30
0.0
  0
VERTEX
  5
1EB4
  8
0
 10
81.2298841484074217
 20
61.9595848594445187
 30
0.0
  0
VERTEX
  5
1EB5
  8
0
 10
81.2385158307145048
 20
61.9698824065377281
 30
0.0
  0
VERTEX
  5
1EB6
  8
0
 10
81.2479143915200552
 20
61.9808488860176467
 30
0.0
  0
VERTEX
  5
1EB7
  8
0
 10
81.2580436886295843
 20
61.9924511848144775
 30
0.0
  0
VERTEX
  5
1EB8
  8
0
 10
81.2688706449486347
 20
62.0046592186000893
 30
0.0
  0
VERTEX
  5
1EB9
  8
0
 10
81.2803621833826924
 20
62.0174429030463088
 30
0.0
  0
VERTEX
  5
1EBA
  8
0
 10
81.2924852268372859
 20
62.0307721538250121
 30
0.0
  0
VERTEX
  5
1EBB
  8
0
 10
81.3052066982179156
 20
62.0446168866080328
 30
0.0
  0
VERTEX
  5
1EBC
  8
0
 10
81.3184935204300956
 20
62.0589470170672115
 30
0.0
  0
VERTEX
  5
1EBD
  8
0
 10
81.332312616379312
 20
62.0737324608744032
 30
0.0
  0
VERTEX
  5
1EBE
  8
0
 10
81.3466309089711075
 20
62.0889431337014486
 30
0.0
  0
VERTEX
  5
1EBF
  8
0
 10
81.3614153211109539
 20
62.1045489512202167
 30
0.0
  0
VERTEX
  5
1EC0
  8
0
 10
81.3766351892364241
 20
62.1205240985347871
 30
0.0
  0
VERTEX
  5
1EC1
  8
0
 10
81.3922729989053977
 20
62.1368583121337466
 30
0.0
  0
VERTEX
  5
1EC2
  8
0
 10
81.4083146754018543
 20
62.1535401763671373
 30
0.0
  0
VERTEX
  5
1EC3
  8
0
 10
81.4247460730417458
 20
62.1705579927225287
 30
0.0
  0
VERTEX
  5
1EC4
  8
0
 10
81.4415530461409674
 20
62.1879000626874827
 30
0.0
  0
VERTEX
  5
1EC5
  8
0
 10
81.4587214490154565
 20
62.2055546877495686
 30
0.0
  0
VERTEX
  5
1EC6
  8
0
 10
81.4762371359811652
 20
62.223510169396377
 30
0.0
  0
VERTEX
  5
1EC7
  8
0
 10
81.4940859613540169
 20
62.2417548091154913
 30
0.0
  0
VERTEX
  5
1EC8
  8
0
 10
81.5122537794499351
 20
62.2602769083944665
 30
0.0
  0
VERTEX
  5
1EC9
  8
0
 10
81.5307264445848432
 20
62.2790647687208931
 30
0.0
  0
VERTEX
  5
1ECA
  8
0
 10
81.5494898110746931
 20
62.2981066915823192
 30
0.0
  0
VERTEX
  5
1ECB
  8
0
 10
81.5685297332354367
 20
62.3173909784663422
 30
0.0
  0
VERTEX
  5
1ECC
  8
0
 10
81.5878320653829689
 20
62.3369059308605387
 30
0.0
  0
VERTEX
  5
1ECD
  8
0
 10
81.6073826618332419
 20
62.3566398502524706
 30
0.0
  0
VERTEX
  5
1ECE
  8
0
 10
81.6271673769021646
 20
62.3765810381297285
 30
0.0
  0
VERTEX
  5
1ECF
  8
0
 10
81.6471720649056891
 20
62.3967177959798676
 30
0.0
  0
VERTEX
  5
1ED0
  8
0
 10
81.6673825801597673
 20
62.4170384252904782
 30
0.0
  0
VERTEX
  5
1ED1
  8
0
 10
81.6877847769803083
 20
62.4375312275491297
 30
0.0
  0
VERTEX
  5
1ED2
  8
0
 10
81.7083645096832356
 20
62.4581845042434125
 30
0.0
  0
VERTEX
  5
1ED3
  8
0
 10
81.729107632584487
 20
62.4789865568608604
 30
0.0
  0
VERTEX
  5
1ED4
  8
0
 10
81.75
 20
62.4999256868890924
 30
0.0
  0
SEQEND
  5
1ED5
  8
0
  0
POLYLINE
  5
1B09
  8
0
 66
     1
 10
0.0
 20
0.0
 30
0.0
  0
VERTEX
  5
1ED6
  8
0
 10
81.75
 20
161.8366405812409994
 30
0.0
  0
VERTEX
  5
1ED7
  8
0
 10
81.7292170045427611
 20
161.8208915563442929
 30
0.0
  0
VERTEX
  5
1ED8
  8
0
 10
81.708640599642024
 20
161.8054698622327123
 30
0.0
  0
VERTEX
  5
1ED9
  8
0
 10
81.6882748889210291
 20
161.7903799742391016
 30
0.0
  0
VERTEX
  5
1EDA
  8
0
 10
81.6681239760031019
 20
161.7756263676963897
 30
0.0
  0
VERTEX
  5
1EDB
  8
0
 10
81.648191964511426
 20
161.7612135179373922
 30
0.0
  0
VERTEX
  5
1EDC
  8
0
 10
81.6284829580693554
 20
161.7471459002948961
 30
0.0
  0
VERTEX
  5
1EDD
  8
0
 10
81.6090010603001161
 20
161.7334279901016885
 30
0.0
  0
VERTEX
  5
1EDE
  8
0
 10
81.5897503748269344
 20
161.720064262690812
 30
0.0
  0
VERTEX
  5
1EDF
  8
0
 10
81.5707350052731641
 20
161.7070591933947981
 30
0.0
  0
VERTEX
  5
1EE0
  8
0
 10
81.5519590552619746
 20
161.6944172575468031
 30
0.0
  0
VERTEX
  5
1EE1
  8
0
 10
81.5334206837667637
 20
161.6821395062185047
 30
0.0
  0
VERTEX
  5
1EE2
  8
0
 10
81.5151087959506953
 20
161.6702237048127984
 30
0.0
  0
VERTEX
  5
1EE3
  8
0
 10
81.4970412283448269
 20
161.658686776308997
 30
0.0
  0
VERTEX
  5
1EE4
  8
0
 10
81.4792383385057803
 20
161.6475472047488893
 30
0.0
  0
VERTEX
  5
1EE5
  8
0
 10
81.4617204839901348
 20
161.6368234741748893
 30
0.0
  0
VERTEX
  5
1EE6
  8
0
 10
81.4445080223544835
 20
161.6265340686288994
 30
0.0
  0
VERTEX
  5
1EE7
  8
0
 10
81.4276213111554057
 20
161.6166974721529925
 30
0.0
  0
VERTEX
  5
1EE8
  8
0
 10
81.4110807079495373
 20
161.6073321687894122
 30
0.0
  0
VERTEX
  5
1EE9
  8
0
 10
81.3949065702934575
 20
161.5984566425802882
 30
0.0
  0
VERTEX
  5
1EEA
  8
0
 10
81.3791192557437739
 20
161.5900893775676082
 30
0.0
  0
VERTEX
  5
1EEB
  8
0
 10
81.3637405635077187
 20
161.582249631961588
 30
0.0
  0
VERTEX
  5
1EEC
  8
0
 10
81.3488238446607568
 20
161.5749732593666863
 30
0.0
  0
VERTEX
  5
1EED
  8
0
 10
81.3344068762853851
 20
161.5682868871043922
 30
0.0
  0
VERTEX
  5
1EEE
  8
0
 10
81.3205149204014646
 20
161.5622102966144098
 30
0.0
  0
VERTEX
  5
1EEF
  8
0
 10
81.3071732390288844
 20
161.5567632693363862
 30
0.0
  0
VERTEX
  5
1EF0
  8
0
 10
81.294407094187477
 20
161.5519655867099118
 30
0.0
  0
VERTEX
  5
1EF1
  8
0
 10
81.2822417478971033
 20
161.5478370301748043
 30
0.0
  0
VERTEX
  5
1EF2
  8
0
 10
81.2707024621776668
 20
161.5443973811705973
 30
0.0
  0
VERTEX
  5
1EF3
  8
0
 10
81.2598144990490141
 20
161.5416664211371938
 30
0.0
  0
VERTEX
  5
1EF4
  8
0
 10
81.2496031205309919
 20
161.5396639315140135
 30
0.0
  0
VERTEX
  5
1EF5
  8
0
 10
81.2400935886434752
 20
161.538409693740789
 30
0.0
  0
VERTEX
  5
1EF6
  8
0
 10
81.2313304789057469
 20
161.5379255300753982
 30
0.0
  0
VERTEX
  5
1EF7
  8
0
 10
81.2233640132966741
 20
161.5382280123525902
 30
0.0
  0
VERTEX
  5
1EF8
  8
0
 10
81.2162100023720086
 20
161.5393259702777868
 30
0.0
  0
VERTEX
  5
1EF9
  8
0
 10
81.2098838368278848
 20
161.5412281632038116
 30
0.0
  0
VERTEX
  5
1EFA
  8
0
 10
81.2044009073603945
 20
161.5439433504832039
 30
0.0
  0
VERTEX
  5
1EFB
  8
0
 10
81.1997766046656437
 20
161.5474802914687018
 30
0.0
  0
VERTEX
  5
1EFC
  8
0
 10
81.1960263194397953
 20
161.5518477455129869
 30
0.0
  0
VERTEX
  5
1EFD
  8
0
 10
81.1931654423789269
 20
161.557054471968911
 30
0.0
  0
VERTEX
  5
1EFE
  8
0
 10
81.1912093641791728
 20
161.5631092301890135
 30
0.0
  0
VERTEX
  5
1EFF
  8
0
 10
81.1901734755366249
 20
161.5700207795260042
 30
0.0
  0
VERTEX
  5
1F00
  8
0
 10
81.1900745331832354
 20
161.5777915268402865
 30
0.0
  0
VERTEX
  5
1F01
  8
0
 10
81.1909238801043784
 20
161.5863805958134094
 30
0.0
  0
VERTEX
  5
1F02
  8
0
 10
81.1927069829990273
 20
161.5957609514746878
 30
0.0
  0
VERTEX
  5
1F03
  8
0
 10
81.1954065820941651
 20
161.6059106312659139
 30
0.0
  0
VERTEX
  5
1F04
  8
0
 10
81.1990054176167035
 20
161.6168076726291076
 30
0.0
  0
VERTEX
  5
1F05
  8
0
 10
81.2034862297936257
 20
161.6284301130062033
 30
0.0
  0
VERTEX
  5
1F06
  8
0
 10
81.2088317588518862
 20
161.6407559898391071
 30
0.0
  0
VERTEX
  5
1F07
  8
0
 10
81.2150247450184253
 20
161.6537633405696965
 30
0.0
  0
VERTEX
  5
1F08
  8
0
 10
81.2220479285202259
 20
161.6674302026401904
 30
0.0
  0
VERTEX
  5
1F09
  8
0
 10
81.2298840495842001
 20
161.6817346134922104
 30
0.0
  0
VERTEX
  5
1F0A
  8
0
 10
81.2385157445576169
 20
161.6966544930940017
 30
0.0
  0
VERTEX
  5
1F0B
  8
0
 10
81.2479143150301155
 20
161.7121565341145129
 30
0.0
  0
VERTEX
  5
1F0C
  8
0
 10
81.2580436140202949
 20
161.7282039942543008
 30
0.0
  0
VERTEX
  5
1F0D
  8
0
 10
81.2688705665721898
 20
161.7447645675788976
 30
0.0
  0
VERTEX
  5
1F0E
  8
0
 10
81.2803620977298635
 20
161.7618059481538069
 30
0.0
  0
VERTEX
  5
1F0F
  8
0
 10
81.2924851325373368
 20
161.77929583004439
 30
0.0
  0
VERTEX
  5
1F10
  8
0
 10
81.3052065960386443
 20
161.7972019073162073
 30
0.0
  0
VERTEX
  5
1F11
  8
0
 10
81.3184934132778778
 20
161.8154918740347057
 30
0.0
  0
VERTEX
  5
1F12
  8
0
 10
81.3323125092989869
 20
161.8341334242653033
 30
0.0
  0
VERTEX
  5
1F13
  8
0
 10
81.3466308091460917
 20
161.8530942520735039
 30
0.0
  0
VERTEX
  5
1F14
  8
0
 10
81.3614152378631843
 20
161.8723420515248108
 30
0.0
  0
VERTEX
  5
1F15
  8
0
 10
81.3766351288027749
 20
161.891852071522294
 30
0.0
  0
VERTEX
  5
1F16
  8
0
 10
81.3922729561077745
 20
161.9116214781597876
 30
0.0
  0
VERTEX
  5
1F17
  8
0
 10
81.4083146450983293
 20
161.9316401404709893
 30
0.0
  0
VERTEX
  5
1F18
  8
0
 10
81.4247460506909988
 20
161.9518973126475032
 30
0.0
  0
VERTEX
  5
1F19
  8
0
 10
81.441553027802243
 20
161.9723822488811038
 30
0.0
  0
VERTEX
  5
1F1A
  8
0
 10
81.4587214313486356
 20
161.9930842033635088
 30
0.0
  0
VERTEX
  5
1F1B
  8
0
 10
81.4762371162466934
 20
162.0139924302864927
 30
0.0
  0
VERTEX
  5
1F1C
  8
0
 10
81.4940859374129758
 20
162.0350961838418868
 30
0.0
  0
VERTEX
  5
1F1D
  8
0
 10
81.5122537497639144
 20
162.0563847182212953
 30
0.0
  0
VERTEX
  5
1F1E
  8
0
 10
81.5307264082161396
 20
162.0778472876166063
 30
0.0
  0
VERTEX
  5
1F1F
  8
0
 10
81.5494897676861683
 20
162.0994731462193954
 30
0.0
  0
VERTEX
  5
1F20
  8
0
 10
81.5685296830904747
 20
162.121251548221494
 30
0.0
  0
VERTEX
  5
1F21
  8
0
 10
81.5878320093456182
 20
162.143171747814705
 30
0.0
  0
VERTEX
  5
1F22
  8
0
 10
81.6073826013681014
 20
162.1652229991906893
 30
0.0
  0
VERTEX
  5
1F23
  8
0
 10
81.6271673140744838
 20
162.187394556541193
 30
0.0
  0
VERTEX
  5
1F24
  8
0
 10
81.6471720023812964
 20
162.2096756740581043
 30
0.0
  0
VERTEX
  5
1F25
  8
0
 10
81.6673825212050417
 20
162.2320556059329135
 30
0.0
  0
VERTEX
  5
1F26
  8
0
 10
81.6877847254622651
 20
162.2545236063575942
 30
0.0
  0
VERTEX
  5
1F27
  8
0
 10
81.7083644700694833
 20
162.2770689295238071
 30
0.0
  0
VERTEX
  5
1F28
  8
0
 10
81.7291076099432559
 20
162.2996808296232985
 30
0.0
  0
VERTEX
  5
1F29
  8
0
 10
81.7500000000000568
 20
162.3223485608477858
 30
0.0
  0
SEQEND
  5
1F2A
  8
0
  0
POLYLINE
  5
1B0A
  8
0
 66
     1
 10
0.0
 20
0.0
 30
0.0
  0
VERTEX
  5
1F2B
  8
0
 10
81.75
 20
137.6776514391522994
 30
0.0
  0
VERTEX
  5
1F2C
  8
0
 10
81.7292168790006883
 20
137.7002020962987956
 30
0.0
  0
VERTEX
  5
1F2D
  8
0
 10
81.7086403666325509
 20
137.7226364551480913
 30
0.0
  0
VERTEX
  5
1F2E
  8
0
 10
81.6882745662526872
 20
137.7449534419075121
 30
0.0
  0
VERTEX
  5
1F2F
  8
0
 10
81.6681235812182535
 20
137.7671519827839859
 30
0.0
  0
VERTEX
  5
1F30
  8
0
 10
81.6481915148862925
 20
137.7892310039846961
 30
0.0
  0
VERTEX
  5
1F31
  8
0
 10
81.628482470613946
 20
137.8111894317169117
 30
0.0
  0
VERTEX
  5
1F32
  8
0
 10
81.6090005517583279
 20
137.8330261921877025
 30
0.0
  0
VERTEX
  5
1F33
  8
0
 10
81.5897498616764949
 20
137.8547402116041951
 30
0.0
  0
VERTEX
  5
1F34
  8
0
 10
81.5707345037255891
 20
137.8763304161736016
 30
0.0
  0
VERTEX
  5
1F35
  8
0
 10
81.5519585812627383
 20
137.8977957321031056
 30
0.0
  0
VERTEX
  5
1F36
  8
0
 10
81.5334202593199535
 20
137.9191422126932878
 30
0.0
  0
VERTEX
  5
1F37
  8
0
 10
81.5151084610733108
 20
137.9403891159344084
 30
0.0
  0
VERTEX
  5
1F38
  8
0
 10
81.4970410128544245
 20
137.9615235859571101
 30
0.0
  0
VERTEX
  5
1F39
  8
0
 10
81.4792382594503977
 20
137.9825298567905918
 30
0.0
  0
VERTEX
  5
1F3A
  8
0
 10
81.4617205456484328
 20
138.0033921624639959
 30
0.0
  0
VERTEX
  5
1F3B
  8
0
 10
81.4445082162356186
 20
138.0240947370064077
 30
0.0
  0
VERTEX
  5
1F3C
  8
0
 10
81.4276216159991577
 20
138.0446218144469981
 30
0.0
  0
VERTEX
  5
1F3D
  8
0
 10
81.411081089726153
 20
138.0649576288147955
 30
0.0
  0
VERTEX
  5
1F3E
  8
0
 10
81.3949069822038354
 20
138.0850864141391128
 30
0.0
  0
VERTEX
  5
1F3F
  8
0
 10
81.3791196382192368
 20
138.1049924044488932
 30
0.0
  0
VERTEX
  5
1F40
  8
0
 10
81.3637408485060973
 20
138.1246580571236109
 30
0.0
  0
VERTEX
  5
1F41
  8
0
 10
81.3488240465152046
 20
138.1440269372994862
 30
0.0
  0
VERTEX
  5
1F42
  8
0
 10
81.334407037435426
 20
138.1630617817170048
 30
0.0
  0
VERTEX
  5
1F43
  8
0
 10
81.3205150729591679
 20
138.1817407472292132
 30
0.0
  0
VERTEX
  5
1F44
  8
0
 10
81.3071734047788937
 20
138.2000419906887885
 30
0.0
  0
VERTEX
  5
1F45
  8
0
 10
81.2944072845869812
 20
138.2179436689488909
 30
0.0
  0
VERTEX
  5
1F46
  8
0
 10
81.282241964075908
 20
138.2354239388623967
 30
0.0
  0
VERTEX
  5
1F47
  8
0
 10
81.2707026949380804
 20
138.2524609572822953
 30
0.0
  0
VERTEX
  5
1F48
  8
0
 10
81.2598147288659334
 20
138.2690328810614915
 30
0.0
  0
VERTEX
  5
1F49
  8
0
 10
81.2496033175518733
 20
138.2851178670528896
 30
0.0
  0
VERTEX
  5
1F4A
  8
0
 10
81.2400937126883491
 20
138.300694072109593
 30
0.0
  0
VERTEX
  5
1F4B
  8
0
 10
81.2313305130636252
 20
138.3157082627126897
 30
0.0
  0
VERTEX
  5
1F4C
  8
0
 10
81.223363987051485
 20
138.3300917017506038
 30
0.0
  0
VERTEX
  5
1F4D
  8
0
 10
81.216209941085026
 20
138.3438271387377938
 30
0.0
  0
VERTEX
  5
1F4E
  8
0
 10
81.2098837610663651
 20
138.3568979774726984
 30
0.0
  0
VERTEX
  5
1F4F
  8
0
 10
81.2044008328976759
 20
138.3692876217535002
 30
0.0
  0
VERTEX
  5
1F50
  8
0
 10
81.1997765424811462
 20
138.3809794753786946
 30
0.0
  0
VERTEX
  5
1F51
  8
0
 10
81.1960262757189355
 20
138.3919569421464928
 30
0.0
  0
VERTEX
  5
1F52
  8
0
 10
81.1931654185132174
 20
138.4022034258553049
 30
0.0
  0
VERTEX
  5
1F53
  8
0
 10
81.1912093567661657
 20
138.4117023303033989
 30
0.0
  0
VERTEX
  5
1F54
  8
0
 10
81.1901734763799539
 20
138.4204370592892985
 30
0.0
  0
VERTEX
  5
1F55
  8
0
 10
81.1900745312861432
 20
138.4283821813108091
 30
0.0
  0
VERTEX
  5
1F56
  8
0
 10
81.1909238737309948
 20
138.4354768427326974
 30
0.0
  0
VERTEX
  5
1F57
  8
0
 10
81.1927069729631796
 20
138.4417179843264023
 30
0.0
  0
VERTEX
  5
1F58
  8
0
 10
81.1954065699983971
 20
138.4471123548711944
 30
0.0
  0
VERTEX
  5
1F59
  8
0
 10
81.1990054058523469
 20
138.4516667031462873
 30
0.0
  0
VERTEX
  5
1F5A
  8
0
 10
81.2034862215407713
 20
138.4553877779308948
 30
0.0
  0
VERTEX
  5
1F5B
  8
0
 10
81.2088317580792989
 20
138.4582823280042874
 30
0.0
  0
VERTEX
  5
1F5C
  8
0
 10
81.215024756483686
 20
138.4603571021457071
 30
0.0
  0
VERTEX
  5
1F5D
  8
0
 10
81.2220479577695471
 20
138.4616188491343962
 30
0.0
  0
VERTEX
  5
1F5E
  8
0
 10
81.2298841029526955
 20
138.4620743177495967
 30
0.0
  0
VERTEX
  5
1F5F
  8
0
 10
81.2385158290252036
 20
138.46173030037491
 30
0.0
  0
VERTEX
  5
1F60
  8
0
 10
81.2479144274509224
 20
138.4606004286439997
 30
0.0
  0
VERTEX
  5
1F61
  8
0
 10
81.2580437462254537
 20
138.4587079876521898
 30
0.0
  0
VERTEX
  5
1F62
  8
0
 10
81.2688707125940368
 20
138.4560762321104903
 30
0.0
  0
VERTEX
  5
1F63
  8
0
 10
81.280362253801826
 20
138.4527284167295136
 30
0.0
  0
VERTEX
  5
1F64
  8
0
 10
81.2924852970940464
 20
138.448687796220014
 30
0.0
  0
VERTEX
  5
1F65
  8
0
 10
81.3052067697159373
 20
138.443977625292888
 30
0.0
  0
VERTEX
  5
1F66
  8
0
 10
81.3184935989126529
 20
138.4386211586590036
 30
0.0
  0
VERTEX
  5
1F67
  8
0
 10
81.3323127119294043
 20
138.432641651028888
 30
0.0
  0
VERTEX
  5
1F68
  8
0
 10
81.346631036011388
 20
138.4260623571136932
 30
0.0
  0
VERTEX
  5
1F69
  8
0
 10
81.3614154984038294
 20
138.4189065316238896
 30
0.0
  0
VERTEX
  5
1F6A
  8
0
 10
81.3766354297986823
 20
138.4112000052593885
 30
0.0
  0
VERTEX
  5
1F6B
  8
0
 10
81.3922732934729538
 20
138.4029669054326916
 30
0.0
  0
VERTEX
  5
1F6C
  8
0
 10
81.4083150141150043
 20
138.394220256846296
 30
0.0
  0
VERTEX
  5
1F6D
  8
0
 10
81.4247464465255462
 20
138.3849726872848862
 30
0.0
  0
VERTEX
  5
1F6E
  8
0
 10
81.4415534455053489
 20
138.375236824532891
 30
0.0
  0
VERTEX
  5
1F6F
  8
0
 10
81.4587218658551251
 20
138.3650252963749097
 30
0.0
  0
VERTEX
  5
1F70
  8
0
 10
81.4762375623756157
 20
138.3543507305953995
 30
0.0
  0
VERTEX
  5
1F71
  8
0
 10
81.4940863898675616
 20
138.3432257549789028
 30
0.0
  0
VERTEX
  5
1F72
  8
0
 10
81.5122542031317039
 20
138.3316629973099907
 30
0.0
  0
VERTEX
  5
1F73
  8
0
 10
81.5307268569687835
 20
138.3196750853730919
 30
0.0
  0
VERTEX
  5
1F74
  8
0
 10
81.5494902061794846
 20
138.3072746469528909
 30
0.0
  0
VERTEX
  5
1F75
  8
0
 10
81.568530105564605
 20
138.2944743098337881
 30
0.0
  0
VERTEX
  5
1F76
  8
0
 10
81.5878324099248857
 20
138.2812867018002976
 30
0.0
  0
VERTEX
  5
1F77
  8
0
 10
81.6073829740609824
 20
138.2677244506369902
 30
0.0
  0
VERTEX
  5
1F78
  8
0
 10
81.6271676527737071
 20
138.2538001841284085
 30
0.0
  0
VERTEX
  5
1F79
  8
0
 10
81.6471723008637866
 20
138.239526530059095
 30
0.0
  0
VERTEX
  5
1F7A
  8
0
 10
81.6673827731319477
 20
138.2249161162135067
 30
0.0
  0
VERTEX
  5
1F7B
  8
0
 10
81.6877849243788887
 20
138.209981570376101
 30
0.0
  0
VERTEX
  5
1F7C
  8
0
 10
81.7083646094053933
 20
138.1947355203315908
 30
0.0
  0
VERTEX
  5
1F7D
  8
0
 10
81.7291076830121881
 20
138.1791905938644049
 30
0.0
  0
VERTEX
  5
1F7E
  8
0
 10
81.75
 20
138.1633594187590859
 30
0.0
  0
SEQEND
  5
1F7F
  8
0
  0
POLYLINE
  5
1B0B
  8
0
 66
     1
 10
0.0
 20
0.0
 30
0.0
  0
VERTEX
  5
1F80
  8
0
 10
81.75
 20
139.0271579708769991
 30
0.0
  0
VERTEX
  5
1F81
  8
0
 10
81.729216854830554
 20
139.05127269562621
 30
0.0
  0
VERTEX
  5
1F82
  8
0
 10
81.708640322623836
 20
139.0754309623405902
 30
0.0
  0
VERTEX
  5
1F83
  8
0
 10
81.6882745066662892
 20
139.0996341637628859
 30
0.0
  0
VERTEX
  5
1F84
  8
0
 10
81.6681235102443566
 20
139.1238836926360989
 30
0.0
  0
VERTEX
  5
1F85
  8
0
 10
81.6481914366444244
 20
139.1481809417032025
 30
0.0
  0
VERTEX
  5
1F86
  8
0
 10
81.6284823891529641
 20
139.1725273037069996
 30
0.0
  0
VERTEX
  5
1F87
  8
0
 10
81.6090004710563619
 20
139.1969241713906058
 30
0.0
  0
VERTEX
  5
1F88
  8
0
 10
81.589749785641061
 20
139.2213729374967102
 30
0.0
  0
VERTEX
  5
1F89
  8
0
 10
81.5707344361934759
 20
139.2458749947683998
 30
0.0
  0
VERTEX
  5
1F8A
  8
0
 10
81.5519585260000213
 20
139.2704317359485913
 30
0.0
  0
VERTEX
  5
1F8B
  8
0
 10
81.5334202216103137
 20
139.2950532341419034
 30
0.0
  0
VERTEX
  5
1F8C
  8
0
 10
81.5151084507164541
 20
139.3197677313166878
 30
0.0
  0
VERTEX
  5
1F8D
  8
0
 10
81.4970410370785885
 20
139.344566899876412
 30
0.0
  0
VERTEX
  5
1F8E
  8
0
 10
81.4792383222668946
 20
139.3694389790076968
 30
0.0
  0
VERTEX
  5
1F8F
  8
0
 10
81.4617206478515641
 20
139.3943722078975043
 30
0.0
  0
VERTEX
  5
1F90
  8
0
 10
81.4445083554027462
 20
139.419354825732313
 30
0.0
  0
VERTEX
  5
1F91
  8
0
 10
81.4276217864906755
 20
139.4443750716989996
 30
0.0
  0
VERTEX
  5
1F92
  8
0
 10
81.4110812826854584
 20
139.4694211849842986
 30
0.0
  0
VERTEX
  5
1F93
  8
0
 10
81.3949071855573436
 20
139.4944814047750015
 30
0.0
  0
VERTEX
  5
1F94
  8
0
 10
81.3791198366764661
 20
139.5195439702578142
 30
0.0
  0
VERTEX
  5
1F95
  8
0
 10
81.3637410246346775
 20
139.5445949020414957
 30
0.0
  0
VERTEX
  5
1F96
  8
0
 10
81.3488242034711959
 20
139.5695714154873031
 30
0.0
  0
VERTEX
  5
1F97
  8
0
 10
81.3344071853635171
 20
139.5944340739881966
 30
0.0
  0
VERTEX
  5
1F98
  8
0
 10
81.3205152193712308
 20
139.6191626106970034
 30
0.0
  0
VERTEX
  5
1F99
  8
0
 10
81.3071735545538559
 20
139.6437367587666074
 30
0.0
  0
VERTEX
  5
1F9A
  8
0
 10
81.2944074399710246
 20
139.6681362513498925
 30
0.0
  0
VERTEX
  5
1F9B
  8
0
 10
81.2822421246822273
 20
139.6923408215996858
 30
0.0
  0
VERTEX
  5
1F9C
  8
0
 10
81.2707028577470538
 20
139.7163302026690133
 30
0.0
  0
VERTEX
  5
1F9D
  8
0
 10
81.2598148882250939
 20
139.740084127710702
 30
0.0
  0
VERTEX
  5
1F9E
  8
0
 10
81.2496034651758663
 20
139.7635823298776074
 30
0.0
  0
VERTEX
  5
1F9F
  8
0
 10
81.2400938376589892
 20
139.7868045423226135
 30
0.0
  0
VERTEX
  5
1FA0
  8
0
 10
81.2313306103171442
 20
139.8096833467346869
 30
0.0
  0
VERTEX
  5
1FA1
  8
0
 10
81.2233640632360618
 20
139.8321237673881114
 30
0.0
  0
VERTEX
  5
1FA2
  8
0
 10
81.216210001809074
 20
139.8541051684769911
 30
0.0
  0
VERTEX
  5
1FA3
  8
0
 10
81.2098838107292238
 20
139.8756078780195082
 30
0.0
  0
VERTEX
  5
1FA4
  8
0
 10
81.204400874689469
 20
139.8966122240333902
 30
0.0
  0
VERTEX
  5
1FA5
  8
0
 10
81.1997765783828527
 20
139.91709853453699
 30
0.0
  0
VERTEX
  5
1FA6
  8
0
 10
81.1960263065023753
 20
139.9370471375480918
 30
0.0
  0
VERTEX
  5
1FA7
  8
0
 10
81.1931654437410373
 20
139.9564383610849063
 30
0.0
  0
VERTEX
  5
1FA8
  8
0
 10
81.1912093747918533
 20
139.9752525331653032
 30
0.0
  0
VERTEX
  5
1FA9
  8
0
 10
81.1901734843478664
 20
139.993469981807408
 30
0.0
  0
VERTEX
  5
1FAA
  8
0
 10
81.1900745256533583
 20
140.0110530351662135
 30
0.0
  0
VERTEX
  5
1FAB
  8
0
 10
81.1909238534315989
 20
140.0278796943121904
 30
0.0
  0
VERTEX
  5
1FAC
  8
0
 10
81.192706937662706
 20
140.0439267831031884
 30
0.0
  0
VERTEX
  5
1FAD
  8
0
 10
81.1954065196335364
 20
140.0591897555082141
 30
0.0
  0
VERTEX
  5
1FAE
  8
0
 10
81.1990053406309471
 20
140.0736640654959899
 30
0.0
  0
VERTEX
  5
1FAF
  8
0
 10
81.2034861419418235
 20
140.0873451670354939
 30
0.0
  0
VERTEX
  5
1FB0
  8
0
 10
81.2088316648530224
 20
140.1002285140955905
 30
0.0
  0
VERTEX
  5
1FB1
  8
0
 10
81.2150246506513867
 20
140.1123095606450022
 30
0.0
  0
VERTEX
  5
1FB2
  8
0
 10
81.2220478406238158
 20
140.123583760652707
 30
0.0
  0
VERTEX
  5
1FB3
  8
0
 10
81.2298839760571809
 20
140.134046568087598
 30
0.0
  0
VERTEX
  5
1FB4
  8
0
 10
81.2385156941769822
 20
140.1436934238936942
 30
0.0
  0
VERTEX
  5
1FB5
  8
0
 10
81.2479142838391937
 20
140.1525226592301863
 30
0.0
  0
VERTEX
  5
1FB6
  8
0
 10
81.258043591748617
 20
140.1605451910409101
 30
0.0
  0
VERTEX
  5
1FB7
  8
0
 10
81.2688705457546661
 20
140.1677749295837998
 30
0.0
  0
VERTEX
  5
1FB8
  8
0
 10
81.2803620737069537
 20
140.1742257851163913
 30
0.0
  0
VERTEX
  5
1FB9
  8
0
 10
81.2924851034549647
 20
140.1799116678967039
 30
0.0
  0
VERTEX
  5
1FBA
  8
0
 10
81.305206562848241
 20
140.1848464881823872
 30
0.0
  0
VERTEX
  5
1FBB
  8
0
 10
81.3184933797362817
 20
140.1890441562310912
 30
0.0
  0
VERTEX
  5
1FBC
  8
0
 10
81.3323124819686427
 20
140.1925185823008917
 30
0.0
  0
VERTEX
  5
1FBD
  8
0
 10
81.3466307973948517
 20
140.1952836766492112
 30
0.0
  0
VERTEX
  5
1FBE
  8
0
 10
81.3614152538643935
 20
140.1973533495340973
 30
0.0
  0
VERTEX
  5
1FBF
  8
0
 10
81.3766351808685613
 20
140.198750642633712
 30
0.0
  0
VERTEX
  5
1FC0
  8
0
 10
81.3922730378938155
 20
140.1995109088178992
 30
0.0
  0
VERTEX
  5
1FC1
  8
0
 10
81.4083147500660118
 20
140.1996473694638041
 30
0.0
  0
VERTEX
  5
1FC2
  8
0
 10
81.4247461728243991
 20
140.1991722134152099
 30
0.0
  0
VERTEX
  5
1FC3
  8
0
 10
81.4415531616081836
 20
140.1980976295155017
 30
0.0
  0
VERTEX
  5
1FC4
  8
0
 10
81.4587215718566142
 20
140.1964358066086049
 30
0.0
  0
VERTEX
  5
1FC5
  8
0
 10
81.4762372590088546
 20
140.1941989335379048
 30
0.0
  0
VERTEX
  5
1FC6
  8
0
 10
81.4940860785041252
 20
140.1913991991470994
 30
0.0
  0
VERTEX
  5
1FC7
  8
0
 10
81.5122538857816323
 20
140.1880487922798864
 30
0.0
  0
VERTEX
  5
1FC8
  8
0
 10
81.5307265362806106
 20
140.1841599017797932
 30
0.0
  0
VERTEX
  5
1FC9
  8
0
 10
81.5494898854402663
 20
140.1797447164904895
 30
0.0
  0
VERTEX
  5
1FCA
  8
0
 10
81.5685297886997631
 20
140.1748154252555025
 30
0.0
  0
VERTEX
  5
1FCB
  8
0
 10
81.5878321014984067
 20
140.1693842169185871
 30
0.0
  0
VERTEX
  5
1FCC
  8
0
 10
81.6073826792753181
 20
140.1634632803234126
 30
0.0
  0
VERTEX
  5
1FCD
  8
0
 10
81.6271673774697604
 20
140.1570648043133929
 30
0.0
  0
VERTEX
  5
1FCE
  8
0
 10
81.6471720515209256
 20
140.150200977732311
 30
0.0
  0
VERTEX
  5
1FCF
  8
0
 10
81.6673825568680058
 20
140.1428839894236944
 30
0.0
  0
VERTEX
  5
1FD0
  8
0
 10
81.6877847489502642
 20
140.1351260282312126
 30
0.0
  0
VERTEX
  5
1FD1
  8
0
 10
81.7083644832068785
 20
140.1269392829985065
 30
0.0
  0
VERTEX
  5
1FD2
  8
0
 10
81.729107615077055
 20
140.118335942569189
 30
0.0
  0
VERTEX
  5
1FD3
  8
0
 10
81.75
 20
140.109328195786901
 30
0.0
  0
SEQEND
  5
1FD4
  8
0
  0
POLYLINE
  5
1B0C
  8
0
 66
     1
 10
0.0
 20
0.0
 30
0.0
  0
VERTEX
  5
1FD5
  8
0
 10
81.75
 20
141.5657421976438002
 30
0.0
  0
VERTEX
  5
1FD6
  8
0
 10
81.7292168786893001
 20
141.5888077323211007
 30
0.0
  0
VERTEX
  5
1FD7
  8
0
 10
81.7086403669892434
 20
141.6120719379970865
 30
0.0
  0
VERTEX
  5
1FD8
  8
0
 10
81.6882745682349736
 20
141.635538523162694
 30
0.0
  0
VERTEX
  5
1FD9
  8
0
 10
81.6681235857616343
 20
141.6592111963090019
 30
0.0
  0
VERTEX
  5
1FDA
  8
0
 10
81.6481915229043267
 20
141.683093665927089
 30
0.0
  0
VERTEX
  5
1FDB
  8
0
 10
81.6284824829981375
 20
141.7071896405080054
 30
0.0
  0
VERTEX
  5
1FDC
  8
0
 10
81.6090005693782814
 20
141.7315028285426877
 30
0.0
  0
VERTEX
  5
1FDD
  8
0
 10
81.5897498853798169
 20
141.7560369385222998
 30
0.0
  0
VERTEX
  5
1FDE
  8
0
 10
81.5707345343379444
 20
141.780795678937892
 30
0.0
  0
VERTEX
  5
1FDF
  8
0
 10
81.5519586195876371
 20
141.8057827582804009
 30
0.0
  0
VERTEX
  5
1FE0
  8
0
 10
81.5334203065602026
 20
141.8310111823369937
 30
0.0
  0
VERTEX
  5
1FE1
  8
0
 10
81.5151085196227143
 20
141.8565151293929034
 30
0.0
  0
VERTEX
  5
1FE2
  8
0
 10
81.4970410844153861
 20
141.8822916962975
 30
0.0
  0
VERTEX
  5
1FE3
  8
0
 10
81.4792383448625372
 20
141.9083343938661983
 30
0.0
  0
VERTEX
  5
1FE4
  8
0
 10
81.4617206448886293
 20
141.9346367329139014
 30
0.0
  0
VERTEX
  5
1FE5
  8
0
 10
81.4445083284180669
 20
141.9611922242559103
 30
0.0
  0
VERTEX
  5
1FE6
  8
0
 10
81.427621739375212
 20
141.9879943787070999
 30
0.0
  0
VERTEX
  5
1FE7
  8
0
 10
81.411081221684455
 20
142.0150367070827997
 30
0.0
  0
VERTEX
  5
1FE8
  8
0
 10
81.3949071192702718
 20
142.0423127201981117
 30
0.0
  0
VERTEX
  5
1FE9
  8
0
 10
81.3791197760569958
 20
142.0698159288679108
 30
0.0
  0
VERTEX
  5
1FEA
  8
0
 10
81.3637409821981663
 20
142.0975374266988069
 30
0.0
  0
VERTEX
  5
1FEB
  8
0
 10
81.3488241765317355
 20
142.1254149381940124
 30
0.0
  0
VERTEX
  5
1FEC
  8
0
 10
81.3344071660451107
 20
142.1534111444314874
 30
0.0
  0
VERTEX
  5
1FED
  8
0
 10
81.3205152016985267
 20
142.1815095425895947
 30
0.0
  0
VERTEX
  5
1FEE
  8
0
 10
81.3071735344522324
 20
142.2096936298470951
 30
0.0
  0
VERTEX
  5
1FEF
  8
0
 10
81.2944074152664484
 20
142.2379469033822943
 30
0.0
  0
VERTEX
  5
1FF0
  8
0
 10
81.2822420951014237
 20
142.2662528603738963
 30
0.0
  0
VERTEX
  5
1FF1
  8
0
 10
81.2707028249174357
 20
142.2945949980004059
 30
0.0
  0
VERTEX
  5
1FF2
  8
0
 10
81.2598148556746764
 20
142.3229568134404985
 30
0.0
  0
VERTEX
  5
1FF3
  8
0
 10
81.2496034383333949
 20
142.3513218038725086
 30
0.0
  0
VERTEX
  5
1FF4
  8
0
 10
81.2400938238538401
 20
142.3796734664751966
 30
0.0
  0
VERTEX
  5
1FF5
  8
0
 10
81.2313306125891756
 20
142.4079375295457055
 30
0.0
  0
VERTEX
  5
1FF6
  8
0
 10
81.2233640760757538
 20
142.4360031171854928
 30
0.0
  0
VERTEX
  5
1FF7
  8
0
 10
81.2162100204666615
 20
142.4638484376862948
 30
0.0
  0
VERTEX
  5
1FF8
  8
0
 10
81.2098838313382885
 20
142.4914528675658971
 30
0.0
  0
VERTEX
  5
1FF9
  8
0
 10
81.2044008942670814
 20
142.518795783342
 30
0.0
  0
VERTEX
  5
1FFA
  8
0
 10
81.1997765948294159
 20
142.5458565615321049
 30
0.0
  0
VERTEX
  5
1FFB
  8
0
 10
81.1960263186016959
 20
142.572614578654111
 30
0.0
  0
VERTEX
  5
1FFC
  8
0
 10
81.1931654511603824
 20
142.5990492112254913
 30
0.0
  0
VERTEX
  5
1FFD
  8
0
 10
81.1912093780818083
 20
142.6251398357642017
 30
0.0
  0
VERTEX
  5
1FFE
  8
0
 10
81.190173484942477
 20
142.650865828787687
 30
0.0
  0
VERTEX
  5
1FFF
  8
0
 10
81.190074525504528
 20
142.6761813598303945
 30
0.0
  0
VERTEX
  5
2000
  8
0
 10
81.1909238527984769
 20
142.7009165406929014
 30
0.0
  0
VERTEX
  5
2001
  8
0
 10
81.1927069363430292
 20
142.725030593712404
 30
0.0
  0
VERTEX
  5
2002
  8
0
 10
81.1954065172867558
 20
142.7485081678962047
 30
0.0
  0
VERTEX
  5
2003
  8
0
 10
81.1990053367780718
 20
142.7713339122516913
 30
0.0
  0
VERTEX
  5
2004
  8
0
 10
81.2034861359655054
 20
142.7934924757863939
 30
0.0
  0
VERTEX
  5
2005
  8
0
 10
81.2088316559975283
 20
142.8149685075077002
 30
0.0
  0
VERTEX
  5
2006
  8
0
 10
81.2150246380226122
 20
142.8357466564229981
 30
0.0
  0
VERTEX
  5
2007
  8
0
 10
81.2220478231892855
 20
142.8558115715397889
 30
0.0
  0
VERTEX
  5
2008
  8
0
 10
81.2298839526459915
 20
142.8751479018654038
 30
0.0
  0
VERTEX
  5
2009
  8
0
 10
81.2385156635062629
 20
142.8937402282699054
 30
0.0
  0
VERTEX
  5
200A
  8
0
 10
81.2479142464872837
 20
142.911571768185695
 30
0.0
  0
VERTEX
  5
200B
  8
0
 10
81.2580435492172626
 20
142.9286398918347913
 30
0.0
  0
VERTEX
  5
200C
  8
0
 10
81.2688704991447253
 20
142.9449476572457058
 30
0.0
  0
VERTEX
  5
200D
  8
0
 10
81.2803620237181974
 20
142.9604981224472908
 30
0.0
  0
VERTEX
  5
200E
  8
0
 10
81.2924850503862046
 20
142.9752943454683134
 30
0.0
  0
VERTEX
  5
200F
  8
0
 10
81.3052065065972727
 20
142.9893393843373133
 30
0.0
  0
VERTEX
  5
2010
  8
0
 10
81.3184933197999129
 20
143.0026362970831997
 30
0.0
  0
VERTEX
  5
2011
  8
0
 10
81.3323124174427221
 20
143.0151881417345123
 30
0.0
  0
VERTEX
  5
2012
  8
0
 10
81.3466307269741549
 20
143.0269979763201036
 30
0.0
  0
VERTEX
  5
2013
  8
0
 10
81.3614151758427653
 20
143.0380688588687121
 30
0.0
  0
VERTEX
  5
2014
  8
0
 10
81.3766350939790755
 20
143.0484185447041909
 30
0.0
  0
VERTEX
  5
2015
  8
0
 10
81.3922729427709442
 20
143.0580897810743011
 30
0.0
  0
VERTEX
  5
2016
  8
0
 10
81.4083146475184378
 20
143.0670945536787997
 30
0.0
  0
VERTEX
  5
2017
  8
0
 10
81.4247460637466673
 20
143.07544329196989
 30
0.0
  0
VERTEX
  5
2018
  8
0
 10
81.4415530469807436
 20
143.0831464254002015
 30
0.0
  0
VERTEX
  5
2019
  8
0
 10
81.4587214527457775
 20
143.0902143834221079
 30
0.0
  0
VERTEX
  5
201A
  8
0
 10
81.476237136566823
 20
143.0966575954878977
 30
0.0
  0
VERTEX
  5
201B
  8
0
 10
81.4940859539690052
 20
143.1024864910502004
 30
0.0
  0
VERTEX
  5
201C
  8
0
 10
81.5122537604774209
 20
143.1077114995613044
 30
0.0
  0
VERTEX
  5
201D
  8
0
 10
81.530726411617124
 20
143.112343050473612
 30
0.0
  0
VERTEX
  5
201E
  8
0
 10
81.5494897629133106
 20
143.1163915732396958
 30
0.0
  0
VERTEX
  5
201F
  8
0
 10
81.5685296698910065
 20
143.1198674973117875
 30
0.0
  0
VERTEX
  5
2020
  8
0
 10
81.5878319880753082
 20
143.122781252142488
 30
0.0
  0
VERTEX
  5
2021
  8
0
 10
81.6073825729913551
 20
143.125143267184086
 30
0.0
  0
VERTEX
  5
2022
  8
0
 10
81.6271672801642012
 20
143.1269639718892108
 30
0.0
  0
VERTEX
  5
2023
  8
0
 10
81.6471719651189858
 20
143.1282537957100942
 30
0.0
  0
VERTEX
  5
2024
  8
0
 10
81.6673824833807487
 20
143.1290231680991951
 30
0.0
  0
VERTEX
  5
2025
  8
0
 10
81.6877846904746718
 20
143.129282518509001
 30
0.0
  0
VERTEX
  5
2026
  8
0
 10
81.7083644419257666
 20
143.1290422763919139
 30
0.0
  0
VERTEX
  5
2027
  8
0
 10
81.7291075932591866
 20
143.1283128712003077
 30
0.0
  0
VERTEX
  5
2028
  8
0
 10
81.75
 20
143.1271047323866981
 30
0.0
  0
SEQEND
  5
2029
  8
0
  0
POLYLINE
  5
1B0D
  8
0
 66
     1
 10
0.0
 20
0.0
 30
0.0
  0
VERTEX
  5
202A
  8
0
 10
81.75
 20
145.0183091282897863
 30
0.0
  0
VERTEX
  5
202B
  8
0
 10
81.7292169663050743
 20
145.0378259086191974
 30
0.0
  0
VERTEX
  5
202C
  8
0
 10
81.7086405289806663
 20
145.0576749647975987
 30
0.0
  0
VERTEX
  5
202D
  8
0
 10
81.688274791561895
 20
145.0778619199087984
 30
0.0
  0
VERTEX
  5
202E
  8
0
 10
81.6681238575839927
 20
145.0983923970370881
 30
0.0
  0
VERTEX
  5
202F
  8
0
 10
81.6481918305820358
 20
145.1192720192663899
 30
0.0
  0
VERTEX
  5
2030
  8
0
 10
81.6284828140912992
 20
145.1405064096807962
 30
0.0
  0
VERTEX
  5
2031
  8
0
 10
81.6090009116468593
 20
145.162101191364286
 30
0.0
  0
VERTEX
  5
2032
  8
0
 10
81.5897502267839059
 20
145.1840619874010088
 30
0.0
  0
VERTEX
  5
2033
  8
0
 10
81.5707348630376146
 20
145.2063944208750002
 30
0.0
  0
VERTEX
  5
2034
  8
0
 10
81.5519589239431184
 20
145.2291041148702107
 30
0.0
  0
VERTEX
  5
2035
  8
0
 10
81.5334205704450028
 20
145.2522056061906142
 30
0.0
  0
VERTEX
  5
2036
  8
0
 10
81.5151087135682246
 20
145.2757353271310876
 30
0.0
  0
VERTEX
  5
2037
  8
0
 10
81.4970411865179756
 20
145.2996961044439104
 30
0.0
  0
VERTEX
  5
2038
  8
0
 10
81.4792383426880633
 20
145.3240874118150998
 30
0.0
  0
VERTEX
  5
2039
  8
0
 10
81.4617205354723239
 20
145.3489087229312133
 30
0.0
  0
VERTEX
  5
203A
  8
0
 10
81.444508118264622
 20
145.3741595114784104
 30
0.0
  0
VERTEX
  5
203B
  8
0
 10
81.4276214444587652
 20
145.3998392511431916
 30
0.0
  0
VERTEX
  5
203C
  8
0
 10
81.4110808674485895
 20
145.425947415611688
 30
0.0
  0
VERTEX
  5
203D
  8
0
 10
81.3949067406279312
 20
145.4524834785705139
 30
0.0
  0
VERTEX
  5
203E
  8
0
 10
81.3791194173906263
 20
145.4794469137058002
 30
0.0
  0
VERTEX
  5
203F
  8
0
 10
81.3637406941791426
 20
145.5068348453972931
 30
0.0
  0
VERTEX
  5
2040
  8
0
 10
81.3488239488655864
 20
145.5345923439072067
 30
0.0
  0
VERTEX
  5
2041
  8
0
 10
81.3344069676621331
 20
145.5626882781616018
 30
0.0
  0
VERTEX
  5
2042
  8
0
 10
81.3205150092104532
 20
145.5911116821220048
 30
0.0
  0
VERTEX
  5
2043
  8
0
 10
81.3071733321520043
 20
145.6198515897501125
 30
0.0
  0
VERTEX
  5
2044
  8
0
 10
81.2944071951284144
 20
145.6488970350071952
 30
0.0
  0
VERTEX
  5
2045
  8
0
 10
81.2822418567811837
 20
145.678237051855092
 30
0.0
  0
VERTEX
  5
2046
  8
0
 10
81.2707025757518409
 20
145.7078606742551017
 30
0.0
  0
VERTEX
  5
2047
  8
0
 10
81.259814610681957
 20
145.7377569361690064
 30
0.0
  0
VERTEX
  5
2048
  8
0
 10
81.2496032202130749
 20
145.7679148715581903
 30
0.0
  0
VERTEX
  5
2049
  8
0
 10
81.2400936629867658
 20
145.7983235143842933
 30
0.0
  0
VERTEX
  5
204A
  8
0
 10
81.2313305221063757
 20
145.8289098420383993
 30
0.0
  0
VERTEX
  5
204B
  8
0
 10
81.2233640346862131
 20
145.859559187574888
 30
0.0
  0
VERTEX
  5
204C
  8
0
 10
81.2162100099373561
 20
145.8902509487043915
 30
0.0
  0
VERTEX
  5
204D
  8
0
 10
81.2098838369922191
 20
145.9209657677452014
 30
0.0
  0
VERTEX
  5
204E
  8
0
 10
81.2044009049832454
 20
145.9516842870152971
 30
0.0
  0
VERTEX
  5
204F
  8
0
 10
81.1997766030429489
 20
145.9823871488326859
 30
0.0
  0
VERTEX
  5
2050
  8
0
 10
81.19602632030373
 20
146.0130549955156027
 30
0.0
  0
VERTEX
  5
2051
  8
0
 10
81.1931654458980461
 20
146.0436684693819132
 30
0.0
  0
VERTEX
  5
2052
  8
0
 10
81.1912093689583401
 20
146.0742082127499941
 30
0.0
  0
VERTEX
  5
2053
  8
0
 10
81.1901734786170834
 20
146.1046548679377111
 30
0.0
  0
VERTEX
  5
2054
  8
0
 10
81.1900745306997464
 20
146.134959412933199
 30
0.0
  0
VERTEX
  5
2055
  8
0
 10
81.1909238712634362
 20
146.1649225751924916
 30
0.0
  0
VERTEX
  5
2056
  8
0
 10
81.1927069678707767
 20
146.1944904033381931
 30
0.0
  0
VERTEX
  5
2057
  8
0
 10
81.1954065610320868
 20
146.2236383960029116
 30
0.0
  0
VERTEX
  5
2058
  8
0
 10
81.1990053912576855
 20
146.2523420518189994
 30
0.0
  0
VERTEX
  5
2059
  8
0
 10
81.2034861990579486
 20
146.2805768694188941
 30
0.0
  0
VERTEX
  5
205A
  8
0
 10
81.2088317249431384
 20
146.3083183474352893
 30
0.0
  0
VERTEX
  5
205B
  8
0
 10
81.2150247094236306
 20
146.3355419845003951
 30
0.0
  0
VERTEX
  5
205C
  8
0
 10
81.2220478930097158
 20
146.3622232792469902
 30
0.0
  0
VERTEX
  5
205D
  8
0
 10
81.2298840162117557
 20
146.3883377303073985
 30
0.0
  0
VERTEX
  5
205E
  8
0
 10
81.2385157156128912
 20
146.4138607208817007
 30
0.0
  0
VERTEX
  5
205F
  8
0
 10
81.2479142894810877
 20
146.4387621994762014
 30
0.0
  0
VERTEX
  5
2060
  8
0
 10
81.2580435891881621
 20
146.4630262919575046
 30
0.0
  0
VERTEX
  5
2061
  8
0
 10
81.2688705405137171
 20
146.4866448695985071
 30
0.0
  0
VERTEX
  5
2062
  8
0
 10
81.2803620692373556
 20
146.5096098036723049
 30
0.0
  0
VERTEX
  5
2063
  8
0
 10
81.2924851011387091
 20
146.5319129654519088
 30
0.0
  0
VERTEX
  5
2064
  8
0
 10
81.3052065619973945
 20
146.553546226210301
 30
0.0
  0
VERTEX
  5
2065
  8
0
 10
81.3184933775930432
 20
146.574501457220407
 30
0.0
  0
VERTEX
  5
2066
  8
0
 10
81.3323124737052865
 20
146.594770529755408
 30
0.0
  0
VERTEX
  5
2067
  8
0
 10
81.3466307761136846
 20
146.6143453150880873
 30
0.0
  0
VERTEX
  5
2068
  8
0
 10
81.3614152105979258
 20
146.6332176844917115
 30
0.0
  0
VERTEX
  5
2069
  8
0
 10
81.3766351094513141
 20
146.6513981852131963
 30
0.0
  0
VERTEX
  5
206A
  8
0
 10
81.3922729428936691
 20
146.6689323382800012
 30
0.0
  0
VERTEX
  5
206B
  8
0
 10
81.4083146362550139
 20
146.6858295951844866
 30
0.0
  0
VERTEX
  5
206C
  8
0
 10
81.4247460446556204
 20
146.7020974955229065
 30
0.0
  0
VERTEX
  5
206D
  8
0
 10
81.4415530232157039
 20
146.7177435788910032
 30
0.0
  0
VERTEX
  5
206E
  8
0
 10
81.4587214270555648
 20
146.7327753848850875
 30
0.0
  0
VERTEX
  5
206F
  8
0
 10
81.4762371112954327
 20
146.7472004531009873
 30
0.0
  0
VERTEX
  5
2070
  8
0
 10
81.4940859310555936
 20
146.7610263231347858
 30
0.0
  0
VERTEX
  5
2071
  8
0
 10
81.5122537414562771
 20
146.7742605345825098
 30
0.0
  0
VERTEX
  5
2072
  8
0
 10
81.5307263976177694
 20
146.7869106270401005
 30
0.0
  0
VERTEX
  5
2073
  8
0
 10
81.5494897546602999
 20
146.7989841401036983
 30
0.0
  0
VERTEX
  5
2074
  8
0
 10
81.5685296677041265
 20
146.8104886133691878
 30
0.0
  0
VERTEX
  5
2075
  8
0
 10
81.5878319918695354
 20
146.8214315864327091
 30
0.0
  0
VERTEX
  5
2076
  8
0
 10
81.607382582276756
 20
146.8318205988902889
 30
0.0
  0
VERTEX
  5
2077
  8
0
 10
81.6271672940460746
 20
146.8416631903378118
 30
0.0
  0
VERTEX
  5
2078
  8
0
 10
81.6471719822976922
 20
146.8509669003713896
 30
0.0
  0
VERTEX
  5
2079
  8
0
 10
81.6673825021519377
 20
146.859739268586992
 30
0.0
  0
VERTEX
  5
207A
  8
0
 10
81.6877847087290263
 20
146.8679878345807026
 30
0.0
  0
VERTEX
  5
207B
  8
0
 10
81.7083644571492442
 20
146.8757201379484911
 30
0.0
  0
VERTEX
  5
207C
  8
0
 10
81.7291076025327783
 20
146.8829437182864126
 30
0.0
  0
VERTEX
  5
207D
  8
0
 10
81.75
 20
146.8896661151904937
 30
0.0
  0
SEQEND
  5
207E
  8
0
  0
POLYLINE
  5
1B0E
  8
0
 66
     1
 10
0.0
 20
0.0
 30
0.0
  0
VERTEX
  5
207F
  8
0
 10
81.75
 20
149.0107195637839936
 30
0.0
  0
VERTEX
  5
2080
  8
0
 10
81.7292169478564858
 20
149.0245727546549119
 30
0.0
  0
VERTEX
  5
2081
  8
0
 10
81.7086404943546825
 20
149.038855807237411
 30
0.0
  0
VERTEX
  5
2082
  8
0
 10
81.6882747429994538
 20
149.0535756491364907
 30
0.0
  0
VERTEX
  5
2083
  8
0
 10
81.6681237972955785
 20
149.0687392079570088
 30
0.0
  0
VERTEX
  5
2084
  8
0
 10
81.6481917607479062
 20
149.0843534113039084
 30
0.0
  0
VERTEX
  5
2085
  8
0
 10
81.6284827368613151
 20
149.1004251867821893
 30
0.0
  0
VERTEX
  5
2086
  8
0
 10
81.6090008291405837
 20
149.1169614619969082
 30
0.0
  0
VERTEX
  5
2087
  8
0
 10
81.5897501410905761
 20
149.1339691645528092
 30
0.0
  0
VERTEX
  5
2088
  8
0
 10
81.570734776216085
 20
149.1514552220550058
 30
0.0
  0
VERTEX
  5
2089
  8
0
 10
81.5519588380219602
 20
149.1694265621082991
 30
0.0
  0
VERTEX
  5
208A
  8
0
 10
81.5334204881849587
 20
149.1878976662382001
 30
0.0
  0
VERTEX
  5
208B
  8
0
 10
81.5151086399049802
 20
149.2069032417076926
 30
0.0
  0
VERTEX
  5
208C
  8
0
 10
81.4970411251626956
 20
149.2264515529541029
 30
0.0
  0
VERTEX
  5
208D
  8
0
 10
81.4792382958176518
 20
149.246548111821113
 30
0.0
  0
VERTEX
  5
208E
  8
0
 10
81.4617205037294383
 20
149.2671984301526891
 30
0.0
  0
VERTEX
  5
208F
  8
0
 10
81.4445081007576448
 20
149.2884080197927119
 30
0.0
  0
VERTEX
  5
2090
  8
0
 10
81.4276214387617756
 20
149.3101823925852045
 30
0.0
  0
VERTEX
  5
2091
  8
0
 10
81.4110808696014772
 20
149.332527060373792
 30
0.0
  0
VERTEX
  5
2092
  8
0
 10
81.3949067451362964
 20
149.3554475350026109
 30
0.0
  0
VERTEX
  5
2093
  8
0
 10
81.3791194172257804
 20
149.3789493283155139
 30
0.0
  0
VERTEX
  5
2094
  8
0
 10
81.3637406812975428
 20
149.4030359185341013
 30
0.0
  0
VERTEX
  5
2095
  8
0
 10
81.3488239251944236
 20
149.4276655436640056
 30
0.0
  0
VERTEX
  5
2096
  8
0
 10
81.3344069385472324
 20
149.4528165941115958
 30
0.0
  0
VERTEX
  5
2097
  8
0
 10
81.3205149787707455
 20
149.4784848505900925
 30
0.0
  0
VERTEX
  5
2098
  8
0
 10
81.3071733032798534
 20
149.5046660938126877
 30
0.0
  0
VERTEX
  5
2099
  8
0
 10
81.2944071694894319
 20
149.5313561044926871
 30
0.0
  0
VERTEX
  5
209A
  8
0
 10
81.282241834814343
 20
149.5585506633431123
 30
0.0
  0
VERTEX
  5
209B
  8
0
 10
81.2707025566695052
 20
149.5862455510772122
 30
0.0
  0
VERTEX
  5
209C
  8
0
 10
81.2598145924697235
 20
149.6144365484082925
 30
0.0
  0
VERTEX
  5
209D
  8
0
 10
81.2496031996298882
 20
149.6431194360494032
 30
0.0
  0
VERTEX
  5
209E
  8
0
 10
81.2400936355648753
 20
149.6722899947137932
 30
0.0
  0
VERTEX
  5
209F
  8
0
 10
81.2313304861767875
 20
149.7018842931971108
 30
0.0
  0
VERTEX
  5
20A0
  8
0
 10
81.2233639941429715
 20
149.7317961741588874
 30
0.0
  0
VERTEX
  5
20A1
  8
0
 10
81.2162099681796121
 20
149.7620084774681004
 30
0.0
  0
VERTEX
  5
20A2
  8
0
 10
81.209883796843954
 20
149.7925052309979037
 30
0.0
  0
VERTEX
  5
20A3
  8
0
 10
81.2044008686932557
 20
149.8232704626213092
 30
0.0
  0
VERTEX
  5
20A4
  8
0
 10
81.1997765722846481
 20
149.854288200211613
 30
0.0
  0
VERTEX
  5
20A5
  8
0
 10
81.1960262961754466
 20
149.8855424716419122
 30
0.0
  0
VERTEX
  5
20A6
  8
0
 10
81.1931654289227538
 20
149.9170173047851904
 30
0.0
  0
VERTEX
  5
20A7
  8
0
 10
81.1912093590838708
 20
149.9486967275148004
 30
0.0
  0
VERTEX
  5
20A8
  8
0
 10
81.1901734752159996
 20
149.980564767703811
 30
0.0
  0
VERTEX
  5
20A9
  8
0
 10
81.1900745327999402
 20
150.0125745242382891
 30
0.0
  0
VERTEX
  5
20AA
  8
0
 10
81.1909238789403105
 20
150.0445188206778937
 30
0.0
  0
VERTEX
  5
20AB
  8
0
 10
81.1927069814657756
 20
150.0763363671281923
 30
0.0
  0
VERTEX
  5
20AC
  8
0
 10
81.1954065809486565
 20
150.107996177082299
 30
0.0
  0
VERTEX
  5
20AD
  8
0
 10
81.1990054179613594
 20
150.1394672640334989
 30
0.0
  0
VERTEX
  5
20AE
  8
0
 10
81.2034862330762337
 20
150.170718641475105
 30
0.0
  0
VERTEX
  5
20AF
  8
0
 10
81.208831766865643
 20
150.2017193229004022
 30
0.0
  0
VERTEX
  5
20B0
  8
0
 10
81.2150247599019224
 20
150.2324383218025901
 30
0.0
  0
VERTEX
  5
20B1
  8
0
 10
81.2220479527574639
 20
150.2628446516750103
 30
0.0
  0
VERTEX
  5
20B2
  8
0
 10
81.229884086004617
 20
150.2929073260108055
 30
0.0
  0
VERTEX
  5
20B3
  8
0
 10
81.2385157962719404
 20
150.3225952076276997
 30
0.0
  0
VERTEX
  5
20B4
  8
0
 10
81.2479143806365585
 20
150.3518682056107139
 30
0.0
  0
VERTEX
  5
20B5
  8
0
 10
81.2580436898782921
 20
150.3806989031455998
 30
0.0
  0
VERTEX
  5
20B6
  8
0
 10
81.2688706500186981
 20
150.4090688685737121
 30
0.0
  0
VERTEX
  5
20B7
  8
0
 10
81.2803621870794188
 20
150.4369596702358081
 30
0.0
  0
VERTEX
  5
20B8
  8
0
 10
81.2924852270820679
 20
150.4643528764731002
 30
0.0
  0
VERTEX
  5
20B9
  8
0
 10
81.3052066960482449
 20
150.4912300556264881
 30
0.0
  0
VERTEX
  5
20BA
  8
0
 10
81.3184935199995778
 20
150.5175727760370989
 30
0.0
  0
VERTEX
  5
20BB
  8
0
 10
81.3323126249576376
 20
150.5433626060458039
 30
0.0
  0
VERTEX
  5
20BC
  8
0
 10
81.3466309369440381
 20
150.5685811139939005
 30
0.0
  0
VERTEX
  5
20BD
  8
0
 10
81.3614153819804073
 20
150.5932098682222033
 30
0.0
  0
VERTEX
  5
20BE
  8
0
 10
81.3766352922799143
 20
150.6172510631035095
 30
0.0
  0
VERTEX
  5
20BF
  8
0
 10
81.3922731372319959
 20
150.6407480503494867
 30
0.0
  0
VERTEX
  5
20C0
  8
0
 10
81.408314841821408
 20
150.6637067226808995
 30
0.0
  0
VERTEX
  5
20C1
  8
0
 10
81.424746260853027
 20
150.6861309129589017
 30
0.0
  0
VERTEX
  5
20C2
  8
0
 10
81.4415532491317578
 20
150.7080244540449883
 30
0.0
  0
VERTEX
  5
20C3
  8
0
 10
81.4587216614625191
 20
150.7293911788005119
 30
0.0
  0
VERTEX
  5
20C4
  8
0
 10
81.4762373526502586
 20
150.7502349200869958
 30
0.0
  0
VERTEX
  5
20C5
  8
0
 10
81.4940861774997813
 20
150.7705595107657075
 30
0.0
  0
VERTEX
  5
20C6
  8
0
 10
81.5122539908160064
 20
150.7903687836979998
 30
0.0
  0
VERTEX
  5
20C7
  8
0
 10
81.5307266474038954
 20
150.8096665717453959
 30
0.0
  0
VERTEX
  5
20C8
  8
0
 10
81.5494900020683247
 20
150.8284567077691918
 30
0.0
  0
VERTEX
  5
20C9
  8
0
 10
81.5685299096141563
 20
150.8467430246309107
 30
0.0
  0
VERTEX
  5
20CA
  8
0
 10
81.5878322248463377
 20
150.8645293551917064
 30
0.0
  0
VERTEX
  5
20CB
  8
0
 10
81.6073828025697736
 20
150.8818195323131022
 30
0.0
  0
VERTEX
  5
20CC
  8
0
 10
81.627167497589312
 20
150.8986173888565077
 30
0.0
  0
VERTEX
  5
20CD
  8
0
 10
81.6471721647099002
 20
150.9149267576831903
 30
0.0
  0
VERTEX
  5
20CE
  8
0
 10
81.6673826587364431
 20
150.9307514716547018
 30
0.0
  0
VERTEX
  5
20CF
  8
0
 10
81.6877848344738169
 20
150.946095363632395
 30
0.0
  0
VERTEX
  5
20D0
  8
0
 10
81.7083645467269264
 20
150.9609622664775941
 30
0.0
  0
VERTEX
  5
20D1
  8
0
 10
81.7291076503007048
 20
150.9753560130517087
 30
0.0
  0
VERTEX
  5
20D2
  8
0
 10
81.75
 20
150.9892804362160916
 30
0.0
  0
SEQEND
  5
20D3
  8
0
  0
POLYLINE
  5
1B0F
  8
0
 66
     1
 10
0.0
 20
0.0
 30
0.0
  0
VERTEX
  5
20D4
  8
0
 10
81.7500000000002842
 20
153.1103338848095916
 30
0.0
  0
VERTEX
  5
20D5
  8
0
 10
81.7292168682116369
 20
153.117022287286801
 30
0.0
  0
VERTEX
  5
20D6
  8
0
 10
81.7086403469157005
 20
153.1241915565900058
 30
0.0
  0
VERTEX
  5
20D7
  8
0
 10
81.6882745394397034
 20
153.1318491734114104
 30
0.0
  0
VERTEX
  5
20D8
  8
0
 10
81.66812354911076
 20
153.1400026184427077
 30
0.0
  0
VERTEX
  5
20D9
  8
0
 10
81.6481914792561554
 20
153.1486593723757892
 30
0.0
  0
VERTEX
  5
20DA
  8
0
 10
81.6284824332030183
 20
153.1578269159026036
 30
0.0
  0
VERTEX
  5
20DB
  8
0
 10
81.6090005142786197
 20
153.1675127297150141
 30
0.0
  0
VERTEX
  5
20DC
  8
0
 10
81.5897498258101166
 20
153.1777242945049125
 30
0.0
  0
VERTEX
  5
20DD
  8
0
 10
81.5707344711246947
 20
153.1884690909641904
 30
0.0
  0
VERTEX
  5
20DE
  8
0
 10
81.5519585535495537
 20
153.1997545997847112
 30
0.0
  0
VERTEX
  5
20DF
  8
0
 10
81.5334202387645348
 20
153.2115936731372869
 30
0.0
  0
VERTEX
  5
20E0
  8
0
 10
81.515108451872976
 20
153.2240155193061071
 30
0.0
  0
VERTEX
  5
20E1
  8
0
 10
81.4970410181100533
 20
153.2370329495311125
 30
0.0
  0
VERTEX
  5
20E2
  8
0
 10
81.4792382808909537
 20
153.2506569228438877
 30
0.0
  0
VERTEX
  5
20E3
  8
0
 10
81.4617205836310347
 20
153.2648983982757045
 30
0.0
  0
VERTEX
  5
20E4
  8
0
 10
81.4445082697454836
 20
153.2797683348578914
 30
0.0
  0
VERTEX
  5
20E5
  8
0
 10
81.4276216826495585
 20
153.2952776916220046
 30
0.0
  0
VERTEX
  5
20E6
  8
0
 10
81.4110811657585458
 20
153.311437427599202
 30
0.0
  0
VERTEX
  5
20E7
  8
0
 10
81.3949070624877322
 20
153.3282585018208124
 30
0.0
  0
VERTEX
  5
20E8
  8
0
 10
81.379119716252319
 20
153.3457518733183917
 30
0.0
  0
VERTEX
  5
20E9
  8
0
 10
81.3637409168730557
 20
153.3639270009460063
 30
0.0
  0
VERTEX
  5
20EA
  8
0
 10
81.3488241065913655
 20
153.3827597658332991
 30
0.0
  0
VERTEX
  5
20EB
  8
0
 10
81.3344070935823424
 20
153.4022404078893942
 30
0.0
  0
VERTEX
  5
20EC
  8
0
 10
81.3205151284176395
 20
153.4223719219772875
 30
0.0
  0
VERTEX
  5
20ED
  8
0
 10
81.3071734616689383
 20
153.4431573029604863
 30
0.0
  0
VERTEX
  5
20EE
  8
0
 10
81.2944073439078636
 20
153.4645995457022991
 30
0.0
  0
VERTEX
  5
20EF
  8
0
 10
81.2822420257060969
 20
153.4867016450658923
 30
0.0
  0
VERTEX
  5
20F0
  8
0
 10
81.2707027576352345
 20
153.5094665959148017
 30
0.0
  0
VERTEX
  5
20F1
  8
0
 10
81.2598147902669581
 20
153.5328973931121084
 30
0.0
  0
VERTEX
  5
20F2
  8
0
 10
81.2496033741729491
 20
153.5569970315210924
 30
0.0
  0
VERTEX
  5
20F3
  8
0
 10
81.2400937599248039
 20
153.5817685060052042
 30
0.0
  0
VERTEX
  5
20F4
  8
0
 10
81.2313305488079891
 20
153.6071638656142113
 30
0.0
  0
VERTEX
  5
20F5
  8
0
 10
81.2233640141892295
 20
153.6330969001614903
 30
0.0
  0
VERTEX
  5
20F6
  8
0
 10
81.2162099620582865
 20
153.6595557638084983
 30
0.0
  0
VERTEX
  5
20F7
  8
0
 10
81.2098837778017923
 20
153.6865296143930948
 30
0.0
  0
VERTEX
  5
20F8
  8
0
 10
81.2044008468063652
 20
153.714007609753196
 30
0.0
  0
VERTEX
  5
20F9
  8
0
 10
81.1997765544585945
 20
153.7419789077266898
 30
0.0
  0
VERTEX
  5
20FA
  8
0
 10
81.196026286145127
 20
153.7704326661514074
 30
0.0
  0
VERTEX
  5
20FB
  8
0
 10
81.1931654272525805
 20
153.7993580428652933
 30
0.0
  0
VERTEX
  5
20FC
  8
0
 10
81.1912093631675589
 20
153.8287441957062072
 30
0.0
  0
VERTEX
  5
20FD
  8
0
 10
81.1901734792766945
 20
153.8585802825120936
 30
0.0
  0
VERTEX
  5
20FE
  8
0
 10
81.1900745292173269
 20
153.888826604161892
 30
0.0
  0
VERTEX
  5
20FF
  8
0
 10
81.1909238662826738
 20
153.9192904528447912
 30
0.0
  0
VERTEX
  5
2100
  8
0
 10
81.1927069600275644
 20
153.9499098350399038
 30
0.0
  0
VERTEX
  5
2101
  8
0
 10
81.1954065515787136
 20
153.9806506448632035
 30
0.0
  0
VERTEX
  5
2102
  8
0
 10
81.1990053820627082
 20
154.0114787764308062
 30
0.0
  0
VERTEX
  5
2103
  8
0
 10
81.2034861926062774
 20
154.0423601238589129
 30
0.0
  0
VERTEX
  5
2104
  8
0
 10
81.2088317243359938
 20
154.073260581263412
 30
0.0
  0
VERTEX
  5
2105
  8
0
 10
81.2150247183785723
 20
154.1041460427605898
 30
0.0
  0
VERTEX
  5
2106
  8
0
 10
81.2220479158606565
 20
154.1349824024663917
 30
0.0
  0
VERTEX
  5
2107
  8
0
 10
81.2298840579088619
 20
154.165735554497104
 30
0.0
  0
VERTEX
  5
2108
  8
0
 10
81.2385157816103174
 20
154.1963712229627106
 30
0.0
  0
VERTEX
  5
2109
  8
0
 10
81.2479143773204271
 20
154.2268435965584104
 30
0.0
  0
VERTEX
  5
210A
  8
0
 10
81.2580436924858844
 20
154.257116670423386
 30
0.0
  0
VERTEX
  5
210B
  8
0
 10
81.2688706546065021
 20
154.2871637106808862
 30
0.0
  0
VERTEX
  5
210C
  8
0
 10
81.2803621911818652
 20
154.3169579834541878
 30
0.0
  0
VERTEX
  5
210D
  8
0
 10
81.2924852297117155
 20
154.3464727548665962
 30
0.0
  0
VERTEX
  5
210E
  8
0
 10
81.3052066976957946
 20
154.3756812910413885
 30
0.0
  0
VERTEX
  5
210F
  8
0
 10
81.318493522633716
 20
154.4045568581018983
 30
0.0
  0
VERTEX
  5
2110
  8
0
 10
81.3323126320252072
 20
154.4330727221712891
 30
0.0
  0
VERTEX
  5
2111
  8
0
 10
81.346630953370024
 20
154.4612021493730083
 30
0.0
  0
VERTEX
  5
2112
  8
0
 10
81.3614154141677943
 20
154.4889184058301907
 30
0.0
  0
VERTEX
  5
2113
  8
0
 10
81.3766353446327741
 20
154.5162150923092099
 30
0.0
  0
VERTEX
  5
2114
  8
0
 10
81.3922732064935843
 20
154.5431286798406063
 30
0.0
  0
VERTEX
  5
2115
  8
0
 10
81.4083149245866338
 20
154.5696608635485063
 30
0.0
  0
VERTEX
  5
2116
  8
0
 10
81.4247463539417851
 20
154.5958113546217021
 30
0.0
  0
VERTEX
  5
2117
  8
0
 10
81.441553349588844
 20
154.6215798642490995
 30
0.0
  0
VERTEX
  5
2118
  8
0
 10
81.4587217665576588
 20
154.6469661036194054
 30
0.0
  0
VERTEX
  5
2119
  8
0
 10
81.4762374598780923
 20
154.671969783921412
 30
0.0
  0
VERTEX
  5
211A
  8
0
 10
81.4940862845799927
 20
154.6965906163439968
 30
0.0
  0
VERTEX
  5
211B
  8
0
 10
81.5122540956931942
 20
154.7208283120758949
 30
0.0
  0
VERTEX
  5
211C
  8
0
 10
81.5307267482476163
 20
154.7446825823060124
 30
0.0
  0
VERTEX
  5
211D
  8
0
 10
81.5494900972730363
 20
154.7681531382229139
 30
0.0
  0
VERTEX
  5
211E
  8
0
 10
81.5685299977993168
 20
154.7912396910155906
 30
0.0
  0
VERTEX
  5
211F
  8
0
 10
81.5878323048563061
 20
154.8139419518728914
 30
0.0
  0
VERTEX
  5
2120
  8
0
 10
81.6073828734738527
 20
154.836259631983495
 30
0.0
  0
VERTEX
  5
2121
  8
0
 10
81.6271675586818333
 20
154.8581924425361933
 30
0.0
  0
VERTEX
  5
2122
  8
0
 10
81.6471722155100963
 20
154.8797400947198923
 30
0.0
  0
VERTEX
  5
2123
  8
0
 10
81.6673826989884333
 20
154.9009022997232989
 30
0.0
  0
VERTEX
  5
2124
  8
0
 10
81.6877848641467494
 20
154.9216787687352053
 30
0.0
  0
VERTEX
  5
2125
  8
0
 10
81.7083645660148932
 20
154.9420692129444888
 30
0.0
  0
VERTEX
  5
2126
  8
0
 10
81.7291076596226844
 20
154.9620733435399131
 30
0.0
  0
VERTEX
  5
2127
  8
0
 10
81.75
 20
154.981690871710299
 30
0.0
  0
SEQEND
  5
2128
  8
0
  0
POLYLINE
  5
1B10
  8
0
 66
     1
 10
0.0
 20
0.0
 30
0.0
  0
VERTEX
  5
2129
  8
0
 10
81.7500000000002274
 20
156.8728952676135009
 30
0.0
  0
VERTEX
  5
212A
  8
0
 10
81.7292168562188124
 20
156.8716940346332933
 30
0.0
  0
VERTEX
  5
212B
  8
0
 10
81.7086403252828006
 20
156.8709725685706928
 30
0.0
  0
VERTEX
  5
212C
  8
0
 10
81.68827451047963
 20
156.8707380932098943
 30
0.0
  0
VERTEX
  5
212D
  8
0
 10
81.6681235150968092
 20
156.8709978323348935
 30
0.0
  0
VERTEX
  5
212E
  8
0
 10
81.6481914424218473
 20
156.8717590097296863
 30
0.0
  0
VERTEX
  5
212F
  8
0
 10
81.6284823957422248
 20
156.8730288491782972
 30
0.0
  0
VERTEX
  5
2130
  8
0
 10
81.6090004783453935
 20
156.8748145744646934
 30
0.0
  0
VERTEX
  5
2131
  8
0
 10
81.5897497935188767
 20
156.8771234093732119
 30
0.0
  0
VERTEX
  5
2132
  8
0
 10
81.570734444550169
 20
156.8799625776875075
 30
0.0
  0
VERTEX
  5
2133
  8
0
 10
81.5519585347267366
 20
156.8833393031918888
 30
0.0
  0
VERTEX
  5
2134
  8
0
 10
81.5334202305649853
 20
156.8872634230928043
 30
0.0
  0
VERTEX
  5
2135
  8
0
 10
81.5151084596589044
 20
156.8917555013319998
 30
0.0
  0
VERTEX
  5
2136
  8
0
 10
81.4970410458225984
 20
156.8968314991734019
 30
0.0
  0
VERTEX
  5
2137
  8
0
 10
81.4792383306942156
 20
156.9025066241684101
 30
0.0
  0
VERTEX
  5
2138
  8
0
 10
81.4617206559118472
 20
156.9087960838683102
 30
0.0
  0
VERTEX
  5
2139
  8
0
 10
81.444508363113556
 20
156.915715085824587
 30
0.0
  0
VERTEX
  5
213A
  8
0
 10
81.4276217939374476
 20
156.9232788375886969
 30
0.0
  0
VERTEX
  5
213B
  8
0
 10
81.4110812900216132
 20
156.9315025467118971
 30
0.0
  0
VERTEX
  5
213C
  8
0
 10
81.3949071930041441
 20
156.940401420745502
 30
0.0
  0
VERTEX
  5
213D
  8
0
 10
81.3791198445231601
 20
156.9499906672409963
 30
0.0
  0
VERTEX
  5
213E
  8
0
 10
81.3637410332148647
 20
156.9602846938304879
 30
0.0
  0
VERTEX
  5
213F
  8
0
 10
81.3488242126647094
 20
156.9712797198872067
 30
0.0
  0
VERTEX
  5
2140
  8
0
 10
81.3344071948918952
 20
156.9829789166554121
 30
0.0
  0
VERTEX
  5
2141
  8
0
 10
81.3205152290078956
 20
156.9953921542704904
 30
0.0
  0
VERTEX
  5
2142
  8
0
 10
81.3071735641240849
 20
157.0085293028681122
 30
0.0
  0
VERTEX
  5
2143
  8
0
 10
81.2944074493519793
 20
157.0224002325836921
 30
0.0
  0
VERTEX
  5
2144
  8
0
 10
81.2822421338029244
 20
157.0370148135529007
 30
0.0
  0
VERTEX
  5
2145
  8
0
 10
81.2707028665884366
 20
157.0523829159112097
 30
0.0
  0
VERTEX
  5
2146
  8
0
 10
81.2598148968198757
 20
157.0685144097942043
 30
0.0
  0
VERTEX
  5
2147
  8
0
 10
81.2496034736087438
 20
157.0854191653374983
 30
0.0
  0
VERTEX
  5
2148
  8
0
 10
81.240093846066415
 20
157.1031070526763926
 30
0.0
  0
VERTEX
  5
2149
  8
0
 10
81.2313306187113824
 20
157.1215513469281007
 30
0.0
  0
VERTEX
  5
214A
  8
0
 10
81.2233640713850775
 20
157.1406952137058965
 30
0.0
  0
VERTEX
  5
214B
  8
0
 10
81.216210009502646
 20
157.160533390441401
 30
0.0
  0
VERTEX
  5
214C
  8
0
 10
81.2098838177824121
 20
157.1810613238424139
 30
0.0
  0
VERTEX
  5
214D
  8
0
 10
81.2044008809427282
 20
157.2022744606165929
 30
0.0
  0
VERTEX
  5
214E
  8
0
 10
81.1997765837019188
 20
157.2241682474719937
 30
0.0
  0
VERTEX
  5
214F
  8
0
 10
81.1960263107782936
 20
157.2467381311161034
 30
0.0
  0
VERTEX
  5
2150
  8
0
 10
81.1931654468902195
 20
157.2699795582568072
 30
0.0
  0
VERTEX
  5
2151
  8
0
 10
81.1912093767559355
 20
157.2938879756019048
 30
0.0
  0
VERTEX
  5
2152
  8
0
 10
81.1901734850938652
 20
157.3184588298591109
 30
0.0
  0
VERTEX
  5
2153
  8
0
 10
81.1900745251648743
 20
157.3436639264978112
 30
0.0
  0
VERTEX
  5
2154
  8
0
 10
81.1909238516570468
 20
157.3693459957397067
 30
0.0
  0
VERTEX
  5
2155
  8
0
 10
81.1927069345456118
 20
157.3954490665782942
 30
0.0
  0
VERTEX
  5
2156
  8
0
 10
81.1954065151201547
 20
157.4219396015728876
 30
0.0
  0
VERTEX
  5
2157
  8
0
 10
81.1990053346704457
 20
157.4487840632824032
 30
0.0
  0
VERTEX
  5
2158
  8
0
 10
81.2034861344860701
 20
157.4759489142662119
 30
0.0
  0
VERTEX
  5
2159
  8
0
 10
81.2088316558568124
 20
157.5034006170832868
 30
0.0
  0
VERTEX
  5
215A
  8
0
 10
81.2150246400723006
 20
157.5311056342927998
 30
0.0
  0
VERTEX
  5
215B
  8
0
 10
81.2220478284222338
 20
157.5590304284540082
 30
0.0
  0
VERTEX
  5
215C
  8
0
 10
81.2298839621962969
 20
157.5871414621259134
 30
0.0
  0
VERTEX
  5
215D
  8
0
 10
81.2385156786235143
 20
157.615405027345389
 30
0.0
  0
VERTEX
  5
215E
  8
0
 10
81.2479142666080918
 20
157.6437745803031873
 30
0.0
  0
VERTEX
  5
215F
  8
0
 10
81.2580435728790746
 20
157.6722094454239027
 30
0.0
  0
VERTEX
  5
2160
  8
0
 10
81.2688705252790271
 20
157.7006774808000102
 30
0.0
  0
VERTEX
  5
2161
  8
0
 10
81.2803620516506271
 20
157.7291465445244967
 30
0.0
  0
VERTEX
  5
2162
  8
0
 10
81.2924850798364957
 20
157.757584494689894
 30
0.0
  0
VERTEX
  5
2163
  8
0
 10
81.3052065376792967
 20
157.7859591893889046
 30
0.0
  0
VERTEX
  5
2164
  8
0
 10
81.3184933530216369
 20
157.8142384867144017
 30
0.0
  0
VERTEX
  5
2165
  8
0
 10
81.3323124537061801
 20
157.8423902447590024
 30
0.0
  0
VERTEX
  5
2166
  8
0
 10
81.3466307675755189
 20
157.8703823216154092
 30
0.0
  0
VERTEX
  5
2167
  8
0
 10
81.3614152224723455
 20
157.8981825753764099
 30
0.0
  0
VERTEX
  5
2168
  8
0
 10
81.3766351478506493
 20
157.9257767086959916
 30
0.0
  0
VERTEX
  5
2169
  8
0
 10
81.3922730031528943
 20
157.9531903702761042
 30
0.0
  0
VERTEX
  5
216A
  8
0
 10
81.4083147135659999
 20
157.9804208744932055
 30
0.0
  0
VERTEX
  5
216B
  8
0
 10
81.4247461345944146
 20
158.0074638421905888
 30
0.0
  0
VERTEX
  5
216C
  8
0
 10
81.4415531217425155
 20
158.0343148942110076
 30
0.0
  0
VERTEX
  5
216D
  8
0
 10
81.4587215305147936
 20
158.0609696513976132
 30
0.0
  0
VERTEX
  5
216E
  8
0
 10
81.4762372164155977
 20
158.0874237345933011
 30
0.0
  0
VERTEX
  5
216F
  8
0
 10
81.4940860349493761
 20
158.1136727646409952
 30
0.0
  0
VERTEX
  5
2170
  8
0
 10
81.5122538416205771
 20
158.1397123623837899
 30
0.0
  0
VERTEX
  5
2171
  8
0
 10
81.5307264919335637
 20
158.1655381486646945
 30
0.0
  0
VERTEX
  5
2172
  8
0
 10
81.5494898413927842
 20
158.1911457443264908
 30
0.0
  0
VERTEX
  5
2173
  8
0
 10
81.5685297455026586
 20
158.2165307702123016
 30
0.0
  0
VERTEX
  5
2174
  8
0
 10
81.5878320597676066
 20
158.2416888471651077
 30
0.0
  0
VERTEX
  5
2175
  8
0
 10
81.6073826396920481
 20
158.26661559602789
 30
0.0
  0
VERTEX
  5
2176
  8
0
 10
81.627167340780403
 20
158.2913066376436007
 30
0.0
  0
VERTEX
  5
2177
  8
0
 10
81.6471720185370344
 20
158.3157575928551921
 30
0.0
  0
VERTEX
  5
2178
  8
0
 10
81.6673825284664758
 20
158.339964082505702
 30
0.0
  0
VERTEX
  5
2179
  8
0
 10
81.6877847260730476
 20
158.363921727438111
 30
0.0
  0
VERTEX
  5
217A
  8
0
 10
81.7083644668612408
 20
158.3876261484952863
 30
0.0
  0
VERTEX
  5
217B
  8
0
 10
81.7291076063354041
 20
158.4110729665204076
 30
0.0
  0
VERTEX
  5
217C
  8
0
 10
81.75
 20
158.4342578023563135
 30
0.0
  0
SEQEND
  5
217D
  8
0
  0
POLYLINE
  5
1B11
  8
0
 66
     1
 10
0.0
 20
0.0
 30
0.0
  0
VERTEX
  5
217E
  8
0
 10
81.7499999999998863
 20
159.8906718042132127
 30
0.0
  0
VERTEX
  5
217F
  8
0
 10
81.7292168931919036
 20
159.8817111195587017
 30
0.0
  0
VERTEX
  5
2180
  8
0
 10
81.7086403938243535
 20
159.8731771084071056
 30
0.0
  0
VERTEX
  5
2181
  8
0
 10
81.6882746052650361
 20
159.8650759552928093
 30
0.0
  0
VERTEX
  5
2182
  8
0
 10
81.6681236308815954
 20
159.8574138447501127
 30
0.0
  0
VERTEX
  5
2183
  8
0
 10
81.6481915740418742
 20
159.8501969613132871
 30
0.0
  0
VERTEX
  5
2184
  8
0
 10
81.6284825381135875
 20
159.8434314895166892
 30
0.0
  0
VERTEX
  5
2185
  8
0
 10
81.6090006264645069
 20
159.837123613894704
 30
0.0
  0
VERTEX
  5
2186
  8
0
 10
81.5897499424623618
 20
159.8312795189816029
 30
0.0
  0
VERTEX
  5
2187
  8
0
 10
81.5707345894749238
 20
159.8259053893117994
 30
0.0
  0
VERTEX
  5
2188
  8
0
 10
81.551958670869908
 20
159.8210074094195079
 30
0.0
  0
VERTEX
  5
2189
  8
0
 10
81.5334203513442901
 20
159.8165913374728859
 30
0.0
  0
VERTEX
  5
218A
  8
0
 10
81.5151085530819159
 20
159.812666869621296
 30
0.0
  0
VERTEX
  5
218B
  8
0
 10
81.4970411029601678
 20
159.8092513862085866
 30
0.0
  0
VERTEX
  5
218C
  8
0
 10
81.4792383464522061
 20
159.8063626934541048
 30
0.0
  0
VERTEX
  5
218D
  8
0
 10
81.4617206290312765
 20
159.8040185975769134
 30
0.0
  0
VERTEX
  5
218E
  8
0
 10
81.4445082961705538
 20
159.8022369047961888
 30
0.0
  0
VERTEX
  5
218F
  8
0
 10
81.4276216933432693
 20
159.8010354213309938
 30
0.0
  0
VERTEX
  5
2190
  8
0
 10
81.4110811660225693
 20
159.8004319534005901
 30
0.0
  0
VERTEX
  5
2191
  8
0
 10
81.3949070596817421
 20
159.8004443072240974
 30
0.0
  0
VERTEX
  5
2192
  8
0
 10
81.3791197197939056
 20
159.8010902890206069
 30
0.0
  0
VERTEX
  5
2193
  8
0
 10
81.3637409375411238
 20
159.8023876929480878
 30
0.0
  0
VERTEX
  5
2194
  8
0
 10
81.3488241417865083
 20
159.8043535039250003
 30
0.0
  0
VERTEX
  5
2195
  8
0
 10
81.3344071361175622
 20
159.8070034849071988
 30
0.0
  0
VERTEX
  5
2196
  8
0
 10
81.3205151727500208
 20
159.8103533072595894
 30
0.0
  0
VERTEX
  5
2197
  8
0
 10
81.3071735038996337
 20
159.814418642346908
 30
0.0
  0
VERTEX
  5
2198
  8
0
 10
81.2944073817821646
 20
159.819215161534089
 30
0.0
  0
VERTEX
  5
2199
  8
0
 10
81.2822420586133205
 20
159.8247585361860956
 30
0.0
  0
VERTEX
  5
219A
  8
0
 10
81.2707027866089504
 20
159.8310644376678056
 30
0.0
  0
VERTEX
  5
219B
  8
0
 10
81.259814817984747
 20
159.8381485373440967
 30
0.0
  0
VERTEX
  5
219C
  8
0
 10
81.2496034049564742
 20
159.8460265065797898
 30
0.0
  0
VERTEX
  5
219D
  8
0
 10
81.240093799739924
 20
159.8547140167397913
 30
0.0
  0
VERTEX
  5
219E
  8
0
 10
81.2313305998670359
 20
159.8642084845145916
 30
0.0
  0
VERTEX
  5
219F
  8
0
 10
81.2233640712452996
 20
159.874488642177397
 30
0.0
  0
VERTEX
  5
21A0
  8
0
 10
81.216210020527825
 20
159.8855563739645049
 30
0.0
  0
VERTEX
  5
21A1
  8
0
 10
81.2098838338725386
 20
159.897413901631694
 30
0.0
  0
VERTEX
  5
21A2
  8
0
 10
81.2044008974373668
 20
159.9100634469347995
 30
0.0
  0
VERTEX
  5
21A3
  8
0
 10
81.1997765973801648
 20
159.9235072316295998
 30
0.0
  0
VERTEX
  5
21A4
  8
0
 10
81.1960263198588876
 20
159.937747477471703
 30
0.0
  0
VERTEX
  5
21A5
  8
0
 10
81.19316545103149
 20
159.9527864062170863
 30
0.0
  0
VERTEX
  5
21A6
  8
0
 10
81.1912093770558272
 20
159.968626239621301
 30
0.0
  0
VERTEX
  5
21A7
  8
0
 10
81.1901734840897831
 20
159.9852691994402107
 30
0.0
  0
VERTEX
  5
21A8
  8
0
 10
81.1900745262334169
 20
160.0027016522138865
 30
0.0
  0
VERTEX
  5
21A9
  8
0
 10
81.1909238553802766
 20
160.0208188529637994
 30
0.0
  0
VERTEX
  5
21AA
  8
0
 10
81.1927069407312842
 20
160.0395769221032083
 30
0.0
  0
VERTEX
  5
21AB
  8
0
 10
81.1954065233322666
 20
160.0589465202120891
 30
0.0
  0
VERTEX
  5
21AC
  8
0
 10
81.1990053442289934
 20
160.078898307870503
 30
0.0
  0
VERTEX
  5
21AD
  8
0
 10
81.2034861444673055
 20
160.099402945658511
 30
0.0
  0
VERTEX
  5
21AE
  8
0
 10
81.2088316650930579
 20
160.1204310941560891
 30
0.0
  0
VERTEX
  5
21AF
  8
0
 10
81.2150246471520632
 20
160.1419534139432983
 30
0.0
  0
VERTEX
  5
21B0
  8
0
 10
81.2220478316900767
 20
160.1639405655998871
 30
0.0
  0
VERTEX
  5
21B1
  8
0
 10
81.229883959752982
 20
160.1863632097062862
 30
0.0
  0
VERTEX
  5
21B2
  8
0
 10
81.2385156683691747
 20
160.2091918545444003
 30
0.0
  0
VERTEX
  5
21B3
  8
0
 10
81.2479142494894688
 20
160.2323842837901111
 30
0.0
  0
VERTEX
  5
21B4
  8
0
 10
81.2580435513537225
 20
160.2558995692506869
 30
0.0
  0
VERTEX
  5
21B5
  8
0
 10
81.2688705011386929
 20
160.2797036417971128
 30
0.0
  0
VERTEX
  5
21B6
  8
0
 10
81.2803620260211659
 20
160.3037624322996066
 30
0.0
  0
VERTEX
  5
21B7
  8
0
 10
81.2924850531777281
 20
160.3280418716290114
 30
0.0
  0
VERTEX
  5
21B8
  8
0
 10
81.3052065097852505
 20
160.3525078906559997
 30
0.0
  0
VERTEX
  5
21B9
  8
0
 10
81.318493323020391
 20
160.377126420251102
 30
0.0
  0
VERTEX
  5
21BA
  8
0
 10
81.3323124200599068
 20
160.4018633912849907
 30
0.0
  0
VERTEX
  5
21BB
  8
0
 10
81.3466307280805552
 20
160.42668473462831
 30
0.0
  0
VERTEX
  5
21BC
  8
0
 10
81.3614151742590082
 20
160.4515563811515904
 30
0.0
  0
VERTEX
  5
21BD
  8
0
 10
81.3766350888998602
 20
160.4764576869714858
 30
0.0
  0
VERTEX
  5
21BE
  8
0
 10
81.3922729348108192
 20
160.5014007086749075
 30
0.0
  0
VERTEX
  5
21BF
  8
0
 10
81.4083146373108946
 20
160.5263786709205931
 30
0.0
  0
VERTEX
  5
21C0
  8
0
 10
81.424746051874564
 20
160.5513835782745105
 30
0.0
  0
VERTEX
  5
21C1
  8
0
 10
81.4415530339763762
 20
160.5764074353024
 30
0.0
  0
VERTEX
  5
21C2
  8
0
 10
81.458721439090823
 20
160.6014422465700022
 30
0.0
  0
VERTEX
  5
21C3
  8
0
 10
81.4762371226924529
 20
160.6264800166433133
 30
0.0
  0
VERTEX
  5
21C4
  8
0
 10
81.4940859402557578
 20
160.6515127500881022
 30
0.0
  0
VERTEX
  5
21C5
  8
0
 10
81.5122537472553006
 20
160.6765324514701945
 30
0.0
  0
VERTEX
  5
21C6
  8
0
 10
81.5307263991655589
 20
160.7015311253553023
 30
0.0
  0
VERTEX
  5
21C7
  8
0
 10
81.5494897514610955
 20
160.7265007763093934
 30
0.0
  0
VERTEX
  5
21C8
  8
0
 10
81.5685296596164164
 20
160.7514334088982935
 30
0.0
  0
VERTEX
  5
21C9
  8
0
 10
81.5878319791059852
 20
160.7763210276876862
 30
0.0
  0
VERTEX
  5
21CA
  8
0
 10
81.6073825654044356
 20
160.8011556372435962
 30
0.0
  0
VERTEX
  5
21CB
  8
0
 10
81.6271672739861742
 20
160.8259292421315934
 30
0.0
  0
VERTEX
  5
21CC
  8
0
 10
81.6471719603258066
 20
160.8506338469177877
 30
0.0
  0
VERTEX
  5
21CD
  8
0
 10
81.6673824798978245
 20
160.8752614561676921
 30
0.0
  0
VERTEX
  5
21CE
  8
0
 10
81.6877846881767198
 20
160.899804074447502
 30
0.0
  0
VERTEX
  5
21CF
  8
0
 10
81.7083644406370411
 20
160.9242537063227019
 30
0.0
  0
VERTEX
  5
21D0
  8
0
 10
81.729107592753337
 20
160.948602356359288
 30
0.0
  0
VERTEX
  5
21D1
  8
0
 10
81.7500000000000568
 20
160.9728420291230861
 30
0.0
  0
SEQEND
  5
21D2
  8
0
  0
POLYLINE
  5
1B12
  8
0
 66
     1
 10
0.0
 20
0.0
 30
0.0
  0
VERTEX
  5
21D3
  8
0
 10
81.7499999999998153
 20
87.5463272698291632
 30
0.0
  0
VERTEX
  5
21D4
  8
0
 10
81.7292168934771723
 20
87.5680923655051799
 30
0.0
  0
VERTEX
  5
21D5
  8
0
 10
81.7086403931050427
 20
87.5897025126428019
 30
0.0
  0
VERTEX
  5
21D6
  8
0
 10
81.6882746022802166
 20
87.6111560285669952
 30
0.0
  0
VERTEX
  5
21D7
  8
0
 10
81.6681236243995983
 20
87.6324512306027543
 30
0.0
  0
VERTEX
  5
21D8
  8
0
 10
81.648191562860049
 20
87.6535864360750878
 30
0.0
  0
VERTEX
  5
21D9
  8
0
 10
81.6284825210583449
 20
87.6745599623089475
 30
0.0
  0
VERTEX
  5
21DA
  8
0
 10
81.6090006023913759
 20
87.6953701266293564
 30
0.0
  0
VERTEX
  5
21DB
  8
0
 10
81.5897499102559607
 20
87.7160152463612945
 30
0.0
  0
VERTEX
  5
21DC
  8
0
 10
81.5707345480489607
 20
87.7364936388297423
 30
0.0
  0
VERTEX
  5
21DD
  8
0
 10
81.551958619167209
 20
87.756803621359694
 30
0.0
  0
VERTEX
  5
21DE
  8
0
 10
81.5334202877808423
 20
87.7769501211624004
 30
0.0
  0
VERTEX
  5
21DF
  8
0
 10
81.5151084745012469
 20
87.796949781274364
 30
0.0
  0
VERTEX
  5
21E0
  8
0
 10
81.4970410071189519
 20
87.8167888145689233
 30
0.0
  0
VERTEX
  5
21E1
  8
0
 10
81.4792382322465585
 20
87.8364507067441735
 30
0.0
  0
VERTEX
  5
21E2
  8
0
 10
81.4617204964966675
 20
87.8559189434981249
 30
0.0
  0
VERTEX
  5
21E3
  8
0
 10
81.4445081464817946
 20
87.8751770105288728
 30
0.0
  0
VERTEX
  5
21E4
  8
0
 10
81.4276215288145693
 20
87.8942083935344272
 30
0.0
  0
VERTEX
  5
21E5
  8
0
 10
81.4110809901075356
 20
87.9129965782128693
 30
0.0
  0
VERTEX
  5
21E6
  8
0
 10
81.3949068769732236
 20
87.9315250502622661
 30
0.0
  0
VERTEX
  5
21E7
  8
0
 10
81.3791195360242625
 20
87.9497772953806134
 30
0.0
  0
VERTEX
  5
21E8
  8
0
 10
81.3637407592089232
 20
87.9677351658241662
 30
0.0
  0
VERTEX
  5
21E9
  8
0
 10
81.3488239682785093
 20
87.9853448171212875
 30
0.0
  0
VERTEX
  5
21EA
  8
0
 10
81.3344069644468277
 20
88.002570181311512
 30
0.0
  0
VERTEX
  5
21EB
  8
0
 10
81.32051500089716
 20
88.0193893894093975
 30
0.0
  0
VERTEX
  5
21EC
  8
0
 10
81.3071733308126881
 20
88.0357805724295588
 30
0.0
  0
VERTEX
  5
21ED
  8
0
 10
81.2944072073767927
 20
88.0517218613865964
 30
0.0
  0
VERTEX
  5
21EE
  8
0
 10
81.2822418837726275
 20
88.0671913872951535
 30
0.0
  0
VERTEX
  5
21EF
  8
0
 10
81.2707026131835164
 20
88.082167281169788
 30
0.0
  0
VERTEX
  5
21F0
  8
0
 10
81.259814648792684
 20
88.0966276740251431
 30
0.0
  0
VERTEX
  5
21F1
  8
0
 10
81.2496032437833975
 20
88.110550696875805
 30
0.0
  0
VERTEX
  5
21F2
  8
0
 10
81.2400936513389951
 20
88.1239144807363743
 30
0.0
  0
VERTEX
  5
21F3
  8
0
 10
81.2313304669247032
 20
88.1366703158708731
 30
0.0
  0
VERTEX
  5
21F4
  8
0
 10
81.2233639522709723
 20
88.1487573222613463
 30
0.0
  0
VERTEX
  5
21F5
  8
0
 10
81.2162099144006646
 20
88.1601594070101697
 30
0.0
  0
VERTEX
  5
21F6
  8
0
 10
81.2098837399018976
 20
88.1708610415015386
 30
0.0
  0
VERTEX
  5
21F7
  8
0
 10
81.2044008153629022
 20
88.1808466971196339
 30
0.0
  0
VERTEX
  5
21F8
  8
0
 10
81.1997765273718244
 20
88.1901008452485939
 30
0.0
  0
VERTEX
  5
21F9
  8
0
 10
81.1960262625168241
 20
88.1986079572726283
 30
0.0
  0
VERTEX
  5
21FA
  8
0
 10
81.1931654073861182
 20
88.206352504575932
 30
0.0
  0
VERTEX
  5
21FB
  8
0
 10
81.1912093485677957
 20
88.2133189585426436
 30
0.0
  0
VERTEX
  5
21FC
  8
0
 10
81.1901734726501161
 20
88.2194917905569582
 30
0.0
  0
VERTEX
  5
21FD
  8
0
 10
81.1900745339564764
 20
88.2248491192217159
 30
0.0
  0
VERTEX
  5
21FE
  8
0
 10
81.1909238833421227
 20
88.2293466870435878
 30
0.0
  0
VERTEX
  5
21FF
  8
0
 10
81.1927069896498637
 20
88.2329866036969861
 30
0.0
  0
VERTEX
  5
2200
  8
0
 10
81.1954065937489418
 20
88.2357783747277722
 30
0.0
  0
VERTEX
  5
2201
  8
0
 10
81.199005436508557
 20
88.2377315056817366
 30
0.0
  0
VERTEX
  5
2202
  8
0
 10
81.2034862587978807
 20
88.2388555021047267
 30
0.0
  0
VERTEX
  5
2203
  8
0
 10
81.2088318014862267
 20
88.2391598695425614
 30
0.0
  0
VERTEX
  5
2204
  8
0
 10
81.2150248054426953
 20
88.238654113541088
 30
0.0
  0
VERTEX
  5
2205
  8
0
 10
81.2220480115366001
 20
88.2373477396461254
 30
0.0
  0
VERTEX
  5
2206
  8
0
 10
81.2298841606371411
 20
88.2352502534035068
 30
0.0
  0
VERTEX
  5
2207
  8
0
 10
81.2385158896112785
 20
88.2323712175949453
 30
0.0
  0
VERTEX
  5
2208
  8
0
 10
81.2479144913967843
 20
88.2287279193868983
 30
0.0
  0
VERTEX
  5
2209
  8
0
 10
81.2580438147192154
 20
88.2243463882455075
 30
0.0
  0
VERTEX
  5
220A
  8
0
 10
81.2688707864859339
 20
88.2192518557891248
 30
0.0
  0
VERTEX
  5
220B
  8
0
 10
81.2803623336043302
 20
88.2134695536359743
 30
0.0
  0
VERTEX
  5
220C
  8
0
 10
81.2924853829817664
 20
88.2070247134043655
 30
0.0
  0
VERTEX
  5
220D
  8
0
 10
81.3052068615255905
 20
88.1999425667125934
 30
0.0
  0
VERTEX
  5
220E
  8
0
 10
81.318493696143193
 20
88.1922483451788963
 30
0.0
  0
VERTEX
  5
220F
  8
0
 10
81.3323128137419644
 20
88.1839672804215837
 30
0.0
  0
VERTEX
  5
2210
  8
0
 10
81.3466311412291958
 20
88.1751246040589507
 30
0.0
  0
VERTEX
  5
2211
  8
0
 10
81.361415605512363
 20
88.1657455477092498
 30
0.0
  0
VERTEX
  5
2212
  8
0
 10
81.3766355379105164
 20
88.1558562068231595
 30
0.0
  0
VERTEX
  5
2213
  8
0
 10
81.3922734037438858
 20
88.1454774376348951
 30
0.0
  0
VERTEX
  5
2214
  8
0
 10
81.408315127513518
 20
88.1346219909568163
 30
0.0
  0
VERTEX
  5
2215
  8
0
 10
81.4247465637260177
 20
88.1233023892328333
 30
0.0
  0
VERTEX
  5
2216
  8
0
 10
81.4415535668879755
 20
88.1115311549067286
 30
0.0
  0
VERTEX
  5
2217
  8
0
 10
81.4587219915059961
 20
88.0993208104223839
 30
0.0
  0
VERTEX
  5
2218
  8
0
 10
81.4762376920866842
 20
88.0866838782236101
 30
0.0
  0
VERTEX
  5
2219
  8
0
 10
81.4940865231367013
 20
88.0736328807542321
 30
0.0
  0
VERTEX
  5
221A
  8
0
 10
81.5122543391626095
 20
88.0601803404580892
 30
0.0
  0
VERTEX
  5
221B
  8
0
 10
81.5307269946710136
 20
88.0463387797790062
 30
0.0
  0
VERTEX
  5
221C
  8
0
 10
81.549490344168575
 20
88.0321207211608368
 30
0.0
  0
VERTEX
  5
221D
  8
0
 10
81.568530242161799
 20
88.0175386870474057
 30
0.0
  0
VERTEX
  5
221E
  8
0
 10
81.5878325431574467
 20
88.002605199882538
 30
0.0
  0
VERTEX
  5
221F
  8
0
 10
81.6073831016619948
 20
87.9873327821101014
 30
0.0
  0
VERTEX
  5
2220
  8
0
 10
81.6271677721821618
 20
87.9717339561739067
 30
0.0
  0
VERTEX
  5
2221
  8
0
 10
81.6471724092244528
 20
87.9558212445177361
 30
0.0
  0
VERTEX
  5
2222
  8
0
 10
81.6673828672955722
 20
87.9396071695855284
 30
0.0
  0
VERTEX
  5
2223
  8
0
 10
81.6877850009020676
 20
87.9231042538210517
 30
0.0
  0
VERTEX
  5
2224
  8
0
 10
81.7083646645505439
 20
87.9063250196681452
 30
0.0
  0
VERTEX
  5
2225
  8
0
 10
81.7291077127476626
 20
87.8892819895706339
 30
0.0
  0
VERTEX
  5
2226
  8
0
 10
81.75
 20
87.8719876859724138
 30
0.0
  0
SEQEND
  5
2227
  8
0
  0
POLYLINE
  5
1B13
  8
0
 66
     1
 10
0.0
 20
0.0
 30
0.0
  0
VERTEX
  5
2228
  8
0
 10
81.7500000000001563
 20
88.5702155326417966
 30
0.0
  0
VERTEX
  5
2229
  8
0
 10
81.7292168563215569
 20
88.5941824183561693
 30
0.0
  0
VERTEX
  5
222A
  8
0
 10
81.7086403252632749
 20
88.6181526451080259
 30
0.0
  0
VERTEX
  5
222B
  8
0
 10
81.6882745101178784
 20
88.6421269927800353
 30
0.0
  0
VERTEX
  5
222C
  8
0
 10
81.6681235141777933
 20
88.6661062412548944
 30
0.0
  0
VERTEX
  5
222D
  8
0
 10
81.6481914407355873
 20
88.6900911704153003
 30
0.0
  0
VERTEX
  5
222E
  8
0
 10
81.6284823930837433
 20
88.7140825601439218
 30
0.0
  0
VERTEX
  5
222F
  8
0
 10
81.6090004745147155
 20
88.7380811903234559
 30
0.0
  0
VERTEX
  5
2230
  8
0
 10
81.5897497883210434
 20
88.762087840836557
 30
0.0
  0
VERTEX
  5
2231
  8
0
 10
81.5707344377952666
 20
88.7861032915659791
 30
0.0
  0
VERTEX
  5
2232
  8
0
 10
81.5519585262298392
 20
88.8101283223943767
 30
0.0
  0
VERTEX
  5
2233
  8
0
 10
81.5334202200497771
 20
88.8341720881808641
 30
0.0
  0
VERTEX
  5
2234
  8
0
 10
81.5151084465763631
 20
88.8582608378386567
 30
0.0
  0
VERTEX
  5
2235
  8
0
 10
81.4970410297819541
 20
88.8823850062994438
 30
0.0
  0
VERTEX
  5
2236
  8
0
 10
81.4792383115021153
 20
88.9065316928648031
 30
0.0
  0
VERTEX
  5
2237
  8
0
 10
81.4617206335722983
 20
88.9306879968361983
 30
0.0
  0
VERTEX
  5
2238
  8
0
 10
81.4445083378280259
 20
88.9548410175151787
 30
0.0
  0
VERTEX
  5
2239
  8
0
 10
81.4276217661048634
 20
88.9789778542032934
 30
0.0
  0
VERTEX
  5
223A
  8
0
 10
81.4110812602382623
 20
89.0030856062020632
 30
0.0
  0
VERTEX
  5
223B
  8
0
 10
81.3949071620637881
 20
89.0271513728129946
 30
0.0
  0
VERTEX
  5
223C
  8
0
 10
81.3791198134169633
 20
89.051162253337651
 30
0.0
  0
VERTEX
  5
223D
  8
0
 10
81.3637410030667354
 20
89.0751032176841164
 30
0.0
  0
VERTEX
  5
223E
  8
0
 10
81.3488241833651102
 20
89.0989124412755871
 30
0.0
  0
VERTEX
  5
223F
  8
0
 10
81.3344071659193872
 20
89.1225506301360753
 30
0.0
  0
VERTEX
  5
2240
  8
0
 10
81.3205152000084581
 20
89.1459969070299962
 30
0.0
  0
VERTEX
  5
2241
  8
0
 10
81.3071735349111009
 20
89.1692303947217084
 30
0.0
  0
VERTEX
  5
2242
  8
0
 10
81.2944074199061504
 20
89.1922302159755844
 30
0.0
  0
VERTEX
  5
2243
  8
0
 10
81.2822421042725125
 20
89.2149754935560537
 30
0.0
  0
VERTEX
  5
2244
  8
0
 10
81.2707028372889653
 20
89.2374453502274321
 30
0.0
  0
VERTEX
  5
2245
  8
0
 10
81.2598148682343719
 20
89.2596189087541632
 30
0.0
  0
VERTEX
  5
2246
  8
0
 10
81.2496034463875958
 20
89.2814752919006054
 30
0.0
  0
VERTEX
  5
2247
  8
0
 10
81.2400938210274433
 20
89.302993622431174
 30
0.0
  0
VERTEX
  5
2248
  8
0
 10
81.2313305963142653
 20
89.3241093893929445
 30
0.0
  0
VERTEX
  5
2249
  8
0
 10
81.2233640513659623
 20
89.344733303089896
 30
0.0
  0
VERTEX
  5
224A
  8
0
 10
81.216209991661799
 20
89.3648453751245881
 30
0.0
  0
VERTEX
  5
224B
  8
0
 10
81.2098838019945788
 20
89.3844265122293677
 30
0.0
  0
VERTEX
  5
224C
  8
0
 10
81.204400867157176
 20
89.4034576211365817
 30
0.0
  0
VERTEX
  5
224D
  8
0
 10
81.1997765719424365
 20
89.4219196085785342
 30
0.0
  0
VERTEX
  5
224E
  8
0
 10
81.196026301143263
 20
89.4397933812875863
 30
0.0
  0
VERTEX
  5
224F
  8
0
 10
81.1931654395524731
 20
89.4570598459960564
 30
0.0
  0
VERTEX
  5
2250
  8
0
 10
81.1912093719628984
 20
89.4736999094362915
 30
0.0
  0
VERTEX
  5
2251
  8
0
 10
81.190173483167456
 20
89.4896944783406099
 30
0.0
  0
VERTEX
  5
2252
  8
0
 10
81.1900745264658354
 20
89.5050086035451784
 30
0.0
  0
VERTEX
  5
2253
  8
0
 10
81.1909238563673341
 20
89.5195345711766919
 30
0.0
  0
VERTEX
  5
2254
  8
0
 10
81.1927069427857191
 20
89.5332540809313855
 30
0.0
  0
VERTEX
  5
2255
  8
0
 10
81.1954065269805341
 20
89.546165412265168
 30
0.0
  0
VERTEX
  5
2256
  8
0
 10
81.1990053502114506
 20
89.5582668446339056
 30
0.0
  0
VERTEX
  5
2257
  8
0
 10
81.2034861537380266
 20
89.5695566574935071
 30
0.0
  0
VERTEX
  5
2258
  8
0
 10
81.2088316788199052
 20
89.5800331302998671
 30
0.0
  0
VERTEX
  5
2259
  8
0
 10
81.2150246667166584
 20
89.5896945425088944
 30
0.0
  0
VERTEX
  5
225A
  8
0
 10
81.2220478586879153
 20
89.5985391735764267
 30
0.0
  0
VERTEX
  5
225B
  8
0
 10
81.2298839959932764
 20
89.6065653029584155
 30
0.0
  0
VERTEX
  5
225C
  8
0
 10
81.2385157158342963
 20
89.613771211354873
 30
0.0
  0
VERTEX
  5
225D
  8
0
 10
81.2479143072858108
 20
89.6201591040869232
 30
0.0
  0
VERTEX
  5
225E
  8
0
 10
81.2580436171607801
 20
89.6257431568201923
 30
0.0
  0
VERTEX
  5
225F
  8
0
 10
81.2688705732555263
 20
89.6305398004565319
 30
0.0
  0
VERTEX
  5
2260
  8
0
 10
81.2803621033663575
 20
89.6345654658978361
 30
0.0
  0
VERTEX
  5
2261
  8
0
 10
81.2924851352896241
 20
89.6378365840459566
 30
0.0
  0
VERTEX
  5
2262
  8
0
 10
81.3052065968216056
 20
89.6403695858027731
 30
0.0
  0
VERTEX
  5
2263
  8
0
 10
81.3184934157586241
 20
89.6421809020701659
 30
0.0
  0
VERTEX
  5
2264
  8
0
 10
81.3323125198970729
 20
89.6432869637500147
 30
0.0
  0
VERTEX
  5
2265
  8
0
 10
81.3466308370331888
 20
89.643704201744157
 30
0.0
  0
VERTEX
  5
2266
  8
0
 10
81.361415294963308
 20
89.6434490469544869
 30
0.0
  0
VERTEX
  5
2267
  8
0
 10
81.3766352233135564
 20
89.6425454893358307
 30
0.0
  0
VERTEX
  5
2268
  8
0
 10
81.3922730819541442
 20
89.6410263936850953
 30
0.0
  0
VERTEX
  5
2269
  8
0
 10
81.4083147959345297
 20
89.6389050683489756
 30
0.0
  0
VERTEX
  5
226A
  8
0
 10
81.424746220596262
 20
89.6361939400693046
 30
0.0
  0
VERTEX
  5
226B
  8
0
 10
81.4415532112808762
 20
89.6329054355880146
 30
0.0
  0
VERTEX
  5
226C
  8
0
 10
81.4587216233298079
 20
89.6290519816469669
 30
0.0
  0
VERTEX
  5
226D
  8
0
 10
81.476237312084578
 20
89.6246460049880085
 30
0.0
  0
VERTEX
  5
226E
  8
0
 10
81.4940861328866504
 20
89.6196999323530861
 30
0.0
  0
VERTEX
  5
226F
  8
0
 10
81.5122539410775744
 20
89.6142261904840467
 30
0.0
  0
VERTEX
  5
2270
  8
0
 10
81.5307265919987856
 20
89.6082372061227943
 30
0.0
  0
VERTEX
  5
2271
  8
0
 10
81.5494899409918048
 20
89.6017454060111902
 30
0.0
  0
VERTEX
  5
2272
  8
0
 10
81.5685298433981529
 20
89.5947632168911383
 30
0.0
  0
VERTEX
  5
2273
  8
0
 10
81.5878321545592655
 20
89.5873030655045284
 30
0.0
  0
VERTEX
  5
2274
  8
0
 10
81.6073827298166492
 20
89.5793773785932359
 30
0.0
  0
VERTEX
  5
2275
  8
0
 10
81.6271674245118533
 20
89.5709985828991364
 30
0.0
  0
VERTEX
  5
2276
  8
0
 10
81.6471720939863133
 20
89.5621791051641054
 30
0.0
  0
VERTEX
  5
2277
  8
0
 10
81.6673825935815501
 20
89.552931372130061
 30
0.0
  0
VERTEX
  5
2278
  8
0
 10
81.6877847786390419
 20
89.5432678105388646
 30
0.0
  0
VERTEX
  5
2279
  8
0
 10
81.7083645045002811
 20
89.5332008471324059
 30
0.0
  0
VERTEX
  5
227A
  8
0
 10
81.7291076265067744
 20
89.5227429086525746
 30
0.0
  0
VERTEX
  5
227B
  8
0
 10
81.7500000000000142
 20
89.5119064218412319
 30
0.0
  0
SEQEND
  5
227C
  8
0
  0
POLYLINE
  5
1B14
  8
0
 66
     1
 10
0.0
 20
0.0
 30
0.0
  0
VERTEX
  5
227D
  8
0
 10
81.75
 20
90.8326982938724257
 30
0.0
  0
VERTEX
  5
227E
  8
0
 10
81.729216867938959
 20
90.8562697333860285
 30
0.0
  0
VERTEX
  5
227F
  8
0
 10
81.7086403470765248
 20
90.8800024491922755
 30
0.0
  0
VERTEX
  5
2280
  8
0
 10
81.6882745407242226
 20
90.9038995992230952
 30
0.0
  0
VERTEX
  5
2281
  8
0
 10
81.6681235521933502
 20
90.9279643414106573
 30
0.0
  0
VERTEX
  5
2282
  8
0
 10
81.648191484795376
 20
90.9521998336869473
 30
0.0
  0
VERTEX
  5
2283
  8
0
 10
81.6284824418416974
 20
90.9766092339840355
 30
0.0
  0
VERTEX
  5
2284
  8
0
 10
81.6090005266437259
 20
91.0011957002339784
 30
0.0
  0
VERTEX
  5
2285
  8
0
 10
81.5897498425128731
 20
91.025962390368818
 30
0.0
  0
VERTEX
  5
2286
  8
0
 10
81.5707344927605789
 20
91.0509124623206247
 30
0.0
  0
VERTEX
  5
2287
  8
0
 10
81.5519585806981979
 20
91.076049074021455
 30
0.0
  0
VERTEX
  5
2288
  8
0
 10
81.5334202722927444
 20
91.1013846196130714
 30
0.0
  0
VERTEX
  5
2289
  8
0
 10
81.5151084935045844
 20
91.1269521202111719
 30
0.0
  0
VERTEX
  5
228A
  8
0
 10
81.4970410690715141
 20
91.1527472637428815
 30
0.0
  0
VERTEX
  5
228B
  8
0
 10
81.4792383417881467
 20
91.1787621540188695
 30
0.0
  0
VERTEX
  5
228C
  8
0
 10
81.4617206544492376
 20
91.2049888948497482
 30
0.0
  0
VERTEX
  5
228D
  8
0
 10
81.4445083498493716
 20
91.2314195900462295
 30
0.0
  0
VERTEX
  5
228E
  8
0
 10
81.4276217707832188
 20
91.2580463434189539
 30
0.0
  0
VERTEX
  5
228F
  8
0
 10
81.4110812600455063
 20
91.2848612587785198
 30
0.0
  0
VERTEX
  5
2290
  8
0
 10
81.3949071604308187
 20
91.3118564399356245
 30
0.0
  0
VERTEX
  5
2291
  8
0
 10
81.3791198147338832
 20
91.3390239907009232
 30
0.0
  0
VERTEX
  5
2292
  8
0
 10
81.3637410123581049
 20
91.366353622779144
 30
0.0
  0
VERTEX
  5
2293
  8
0
 10
81.3488241994210455
 20
91.3937822788068246
 30
0.0
  0
VERTEX
  5
2294
  8
0
 10
81.3344071853920951
 20
91.4212717123868259
 30
0.0
  0
VERTEX
  5
2295
  8
0
 10
81.3205152203165369
 20
91.4488042935317509
 30
0.0
  0
VERTEX
  5
2296
  8
0
 10
81.3071735542394549
 20
91.4763623922544298
 30
0.0
  0
VERTEX
  5
2297
  8
0
 10
81.2944074372060754
 20
91.5039283785675366
 30
0.0
  0
VERTEX
  5
2298
  8
0
 10
81.2822421192615536
 20
91.5314846224838448
 30
0.0
  0
VERTEX
  5
2299
  8
0
 10
81.2707028504511158
 20
91.5590134940160567
 30
0.0
  0
VERTEX
  5
229A
  8
0
 10
81.2598148808199454
 20
91.5864973631768891
 30
0.0
  0
VERTEX
  5
229B
  8
0
 10
81.2496034604132262
 20
91.6139185999791152
 30
0.0
  0
VERTEX
  5
229C
  8
0
 10
81.2400938392761134
 20
91.6412595744354235
 30
0.0
  0
VERTEX
  5
229D
  8
0
 10
81.2313306198196869
 20
91.6684469841785159
 30
0.0
  0
VERTEX
  5
229E
  8
0
 10
81.2233640776854315
 20
91.6953728411405393
 30
0.0
  0
VERTEX
  5
229F
  8
0
 10
81.2162100186617408
 20
91.7220154228441942
 30
0.0
  0
VERTEX
  5
22A0
  8
0
 10
81.2098838279008817
 20
91.7483541352644352
 30
0.0
  0
VERTEX
  5
22A1
  8
0
 10
81.2044008905552062
 20
91.7743683843761175
 30
0.0
  0
VERTEX
  5
22A2
  8
0
 10
81.1997765917770096
 20
91.8000375761542244
 30
0.0
  0
VERTEX
  5
22A3
  8
0
 10
81.196026316718573
 20
91.8253411165736537
 30
0.0
  0
VERTEX
  5
22A4
  8
0
 10
81.1931654505322626
 20
91.8502584116093459
 30
0.0
  0
VERTEX
  5
22A5
  8
0
 10
81.1912093783703739
 20
91.8747688672361278
 30
0.0
  0
VERTEX
  5
22A6
  8
0
 10
81.190173485385202
 20
91.8988518894289967
 30
0.0
  0
VERTEX
  5
22A7
  8
0
 10
81.1900745250920863
 20
91.9224632476514785
 30
0.0
  0
VERTEX
  5
22A8
  8
0
 10
81.1909238513475202
 20
91.9454434659891433
 30
0.0
  0
VERTEX
  5
22A9
  8
0
 10
81.1927069338999843
 20
91.9677558200292111
 30
0.0
  0
VERTEX
  5
22AA
  8
0
 10
81.1954065139711929
 20
91.989387548223533
 30
0.0
  0
VERTEX
  5
22AB
  8
0
 10
81.1990053327828321
 20
92.0103258890239033
 30
0.0
  0
VERTEX
  5
22AC
  8
0
 10
81.2034861315566161
 20
92.0305580808822157
 30
0.0
  0
VERTEX
  5
22AD
  8
0
 10
81.2088316515142026
 20
92.0500713622502218
 30
0.0
  0
VERTEX
  5
22AE
  8
0
 10
81.2150246338773627
 20
92.0688529715797728
 30
0.0
  0
VERTEX
  5
22AF
  8
0
 10
81.2220478198677256
 20
92.0868901473227055
 30
0.0
  0
VERTEX
  5
22B0
  8
0
 10
81.2298839507070056
 20
92.1041701279308285
 30
0.0
  0
VERTEX
  5
22B1
  8
0
 10
81.2385156635691317
 20
92.1206800970023068
 30
0.0
  0
VERTEX
  5
22B2
  8
0
 10
81.2479142482727923
 20
92.1364069402553127
 30
0.0
  0
VERTEX
  5
22B3
  8
0
 10
81.258043552000629
 20
92.1513514448593725
 30
0.0
  0
VERTEX
  5
22B4
  8
0
 10
81.2688705023982436
 20
92.1655194607111241
 30
0.0
  0
VERTEX
  5
22B5
  8
0
 10
81.2803620271112948
 20
92.178916837707277
 30
0.0
  0
VERTEX
  5
22B6
  8
0
 10
81.2924850537854127
 20
92.1915494257444976
 30
0.0
  0
VERTEX
  5
22B7
  8
0
 10
81.3052065100662276
 20
92.2034230747194243
 30
0.0
  0
VERTEX
  5
22B8
  8
0
 10
81.3184933235993697
 20
92.2145436345287237
 30
0.0
  0
VERTEX
  5
22B9
  8
0
 10
81.3323124220304692
 20
92.2249169550690766
 30
0.0
  0
VERTEX
  5
22BA
  8
0
 10
81.3466307330051848
 20
92.2345488862371639
 30
0.0
  0
VERTEX
  5
22BB
  8
0
 10
81.361415184169104
 20
92.2434452779296237
 30
0.0
  0
VERTEX
  5
22BC
  8
0
 10
81.3766351051922072
 20
92.2516254138501637
 30
0.0
  0
VERTEX
  5
22BD
  8
0
 10
81.3922729564509666
 20
92.2591306031358442
 30
0.0
  0
VERTEX
  5
22BE
  8
0
 10
81.4083146632179364
 20
92.2659732699473096
 30
0.0
  0
VERTEX
  5
22BF
  8
0
 10
81.4247460810396717
 20
92.2721643992906451
 30
0.0
  0
VERTEX
  5
22C0
  8
0
 10
81.4415530654627133
 20
92.2777149761720352
 30
0.0
  0
VERTEX
  5
22C1
  8
0
 10
81.458721472033659
 20
92.2826359855975369
 30
0.0
  0
VERTEX
  5
22C2
  8
0
 10
81.4762371562990353
 20
92.2869384125733063
 30
0.0
  0
VERTEX
  5
22C3
  8
0
 10
81.4940859738053689
 20
92.2906332421054856
 30
0.0
  0
VERTEX
  5
22C4
  8
0
 10
81.5122537800992433
 20
92.2937314592001883
 30
0.0
  0
VERTEX
  5
22C5
  8
0
 10
81.5307264307272135
 20
92.2962440488635423
 30
0.0
  0
VERTEX
  5
22C6
  8
0
 10
81.5494897812358346
 20
92.2981819961016612
 30
0.0
  0
VERTEX
  5
22C7
  8
0
 10
81.5685296871716901
 20
92.2995562859206728
 30
0.0
  0
VERTEX
  5
22C8
  8
0
 10
81.5878320040812781
 20
92.3003779033267051
 30
0.0
  0
VERTEX
  5
22C9
  8
0
 10
81.6073825875111822
 20
92.3006578333259142
 30
0.0
  0
VERTEX
  5
22CA
  8
0
 10
81.6271672930079717
 20
92.3004070609243854
 30
0.0
  0
VERTEX
  5
22CB
  8
0
 10
81.6471719761181873
 20
92.2996365711282607
 30
0.0
  0
VERTEX
  5
22CC
  8
0
 10
81.6673824923883558
 20
92.2983573489436537
 30
0.0
  0
VERTEX
  5
22CD
  8
0
 10
81.6877846973650747
 20
92.2965803793767066
 30
0.0
  0
VERTEX
  5
22CE
  8
0
 10
81.7083644465948993
 20
92.294316647433547
 30
0.0
  0
VERTEX
  5
22CF
  8
0
 10
81.729107595624356
 20
92.2915771381202745
 30
0.0
  0
VERTEX
  5
22D0
  8
0
 10
81.7500000000000142
 20
92.2883728364430453
 30
0.0
  0
SEQEND
  5
22D1
  8
0
  0
POLYLINE
  5
1B15
  8
0
 66
     1
 10
0.0
 20
0.0
 30
0.0
  0
VERTEX
  5
22D2
  8
0
 10
81.7499999999998863
 20
94.0886004403038783
 30
0.0
  0
VERTEX
  5
22D3
  8
0
 10
81.7292169360141258
 20
94.109222047359097
 30
0.0
  0
VERTEX
  5
22D4
  8
0
 10
81.7086404729974873
 20
94.1301453947470463
 30
0.0
  0
VERTEX
  5
22D5
  8
0
 10
81.6882747144155843
 20
94.1513756767901384
 30
0.0
  0
VERTEX
  5
22D6
  8
0
 10
81.6681237637338455
 20
94.1729180878107854
 30
0.0
  0
VERTEX
  5
22D7
  8
0
 10
81.6481917244178135
 20
94.1947778221314564
 30
0.0
  0
VERTEX
  5
22D8
  8
0
 10
81.6284826999330448
 20
94.2169600740745352
 30
0.0
  0
VERTEX
  5
22D9
  8
0
 10
81.6090007937450821
 20
94.2394700379624055
 30
0.0
  0
VERTEX
  5
22DA
  8
0
 10
81.5897501093193966
 20
94.2623129081175364
 30
0.0
  0
VERTEX
  5
22DB
  8
0
 10
81.5707347501215452
 20
94.2854938788623258
 30
0.0
  0
VERTEX
  5
22DC
  8
0
 10
81.551958819617056
 20
94.3090181445192144
 30
0.0
  0
VERTEX
  5
22DD
  8
0
 10
81.5334204803097577
 20
94.3329000021982438
 30
0.0
  0
VERTEX
  5
22DE
  8
0
 10
81.5151086478616662
 20
94.3571756858406161
 30
0.0
  0
VERTEX
  5
22DF
  8
0
 10
81.497041152847757
 20
94.3818465953309129
 30
0.0
  0
VERTEX
  5
22E0
  8
0
 10
81.4792383453698221
 20
94.4069106838355765
 30
0.0
  0
VERTEX
  5
22E1
  8
0
 10
81.4617205755296538
 20
94.4323659045210206
 30
0.0
  0
VERTEX
  5
22E2
  8
0
 10
81.444508193428959
 20
94.4582102105536876
 30
0.0
  0
VERTEX
  5
22E3
  8
0
 10
81.4276215491695581
 20
94.4844415551000054
 30
0.0
  0
VERTEX
  5
22E4
  8
0
 10
81.4110809928532149
 20
94.5110578913264305
 30
0.0
  0
VERTEX
  5
22E5
  8
0
 10
81.3949068745816788
 20
94.5380571723993484
 30
0.0
  0
VERTEX
  5
22E6
  8
0
 10
81.3791195444567279
 20
94.565437351485258
 30
0.0
  0
VERTEX
  5
22E7
  8
0
 10
81.3637407967343336
 20
94.5931939902561965
 30
0.0
  0
VERTEX
  5
22E8
  8
0
 10
81.3488240304785251
 20
94.6212697105184333
 30
0.0
  0
VERTEX
  5
22E9
  8
0
 10
81.334407039122226
 20
94.6496314816631212
 30
0.0
  0
VERTEX
  5
22EA
  8
0
 10
81.320515078635637
 20
94.6782668178760218
 30
0.0
  0
VERTEX
  5
22EB
  8
0
 10
81.3071734049890438
 20
94.7071632333429676
 30
0.0
  0
VERTEX
  5
22EC
  8
0
 10
81.2944072741527037
 20
94.7363082422497342
 30
0.0
  0
VERTEX
  5
22ED
  8
0
 10
81.2822419420968743
 20
94.7656893587821259
 30
0.0
  0
VERTEX
  5
22EE
  8
0
 10
81.2707026647917843
 20
94.7952940971259466
 30
0.0
  0
VERTEX
  5
22EF
  8
0
 10
81.2598146982077054
 20
94.8251099714670147
 30
0.0
  0
VERTEX
  5
22F0
  8
0
 10
81.2496032983149519
 20
94.8551244959911344
 30
0.0
  0
VERTEX
  5
22F1
  8
0
 10
81.2400937210836531
 20
94.8853251848840813
 30
0.0
  0
VERTEX
  5
22F2
  8
0
 10
81.2313305556145622
 20
94.9156379336946117
 30
0.0
  0
VERTEX
  5
22F3
  8
0
 10
81.2233640509902841
 20
94.9459478385593911
 30
0.0
  0
VERTEX
  5
22F4
  8
0
 10
81.2162100153585982
 20
94.9762337834094978
 30
0.0
  0
VERTEX
  5
22F5
  8
0
 10
81.2098838366155746
 20
95.0064758904492237
 30
0.0
  0
VERTEX
  5
22F6
  8
0
 10
81.2044009026572269
 20
95.0366542818829316
 30
0.0
  0
VERTEX
  5
22F7
  8
0
 10
81.1997766013795115
 20
95.0667490799149277
 30
0.0
  0
VERTEX
  5
22F8
  8
0
 10
81.1960263206784987
 20
95.0967404067495465
 30
0.0
  0
VERTEX
  5
22F9
  8
0
 10
81.1931654484502019
 20
95.1266083845910941
 30
0.0
  0
VERTEX
  5
22FA
  8
0
 10
81.1912093725906061
 20
95.1563331356439051
 30
0.0
  0
VERTEX
  5
22FB
  8
0
 10
81.1901734809957532
 20
95.1858947821122854
 30
0.0
  0
VERTEX
  5
22FC
  8
0
 10
81.1900745287741046
 20
95.2152446054300725
 30
0.0
  0
VERTEX
  5
22FD
  8
0
 10
81.1909238644108058
 20
95.2441887272940448
 30
0.0
  0
VERTEX
  5
22FE
  8
0
 10
81.1927069561506585
 20
95.2726759863223691
 30
0.0
  0
VERTEX
  5
22FF
  8
0
 10
81.1954065447274616
 20
95.3006839556944669
 30
0.0
  0
VERTEX
  5
2300
  8
0
 10
81.199005370875156
 20
95.3281902085896746
 30
0.0
  0
VERTEX
  5
2301
  8
0
 10
81.2034861753275834
 20
95.3551723181873712
 30
0.0
  0
VERTEX
  5
2302
  8
0
 10
81.2088316988186136
 20
95.3816078576669213
 30
0.0
  0
VERTEX
  5
2303
  8
0
 10
81.2150246820821735
 20
95.4074744002076756
 30
0.0
  0
VERTEX
  5
2304
  8
0
 10
81.2220478658520904
 20
95.4327495189890129
 30
0.0
  0
VERTEX
  5
2305
  8
0
 10
81.2298839908622767
 20
95.4574107871902982
 30
0.0
  0
VERTEX
  5
2306
  8
0
 10
81.2385156938818795
 20
95.4814356733239293
 30
0.0
  0
VERTEX
  5
2307
  8
0
 10
81.247914270552485
 20
95.5047971850198962
 30
0.0
  0
VERTEX
  5
2308
  8
0
 10
81.2580435709437552
 20
95.5274826493513842
 30
0.0
  0
VERTEX
  5
2309
  8
0
 10
81.2688705214166589
 20
95.5494866989266569
 30
0.0
  0
VERTEX
  5
230A
  8
0
 10
81.2803620483321936
 20
95.5708039663540205
 30
0.0
  0
VERTEX
  5
230B
  8
0
 10
81.2924850780513282
 20
95.5914290842417955
 30
0.0
  0
VERTEX
  5
230C
  8
0
 10
81.3052065369350316
 20
95.6113566851982171
 30
0.0
  0
VERTEX
  5
230D
  8
0
 10
81.3184933513442445
 20
95.630581401831634
 30
0.0
  0
VERTEX
  5
230E
  8
0
 10
81.3323124476399926
 20
95.6490978667503242
 30
0.0
  0
VERTEX
  5
230F
  8
0
 10
81.3466307521832164
 20
95.6669007125625654
 30
0.0
  0
VERTEX
  5
2310
  8
0
 10
81.3614151913348849
 20
95.6839845718766497
 30
0.0
  0
VERTEX
  5
2311
  8
0
 10
81.376635096554665
 20
95.700361934028038
 30
0.0
  0
VERTEX
  5
2312
  8
0
 10
81.3922729349675649
 20
95.7160780844031507
 30
0.0
  0
VERTEX
  5
2313
  8
0
 10
81.4083146319069755
 20
95.7311432169369567
 30
0.0
  0
VERTEX
  5
2314
  8
0
 10
81.4247460426494172
 20
95.7455656844020666
 30
0.0
  0
VERTEX
  5
2315
  8
0
 10
81.4415530224712256
 20
95.7593538395710766
 30
0.0
  0
VERTEX
  5
2316
  8
0
 10
81.4587214266489354
 20
95.7725160352165403
 30
0.0
  0
VERTEX
  5
2317
  8
0
 10
81.4762371104589533
 20
95.7850606241110967
 30
0.0
  0
VERTEX
  5
2318
  8
0
 10
81.4940859291777144
 20
95.7969959590273277
 30
0.0
  0
VERTEX
  5
2319
  8
0
 10
81.5122537380816823
 20
95.8083303927378154
 30
0.0
  0
VERTEX
  5
231A
  8
0
 10
81.5307263924472636
 20
95.8190722780151845
 30
0.0
  0
VERTEX
  5
231B
  8
0
 10
81.5494897475509504
 20
95.8292299676319885
 30
0.0
  0
VERTEX
  5
231C
  8
0
 10
81.5685296586691635
 20
95.8388118143608239
 30
0.0
  0
VERTEX
  5
231D
  8
0
 10
81.5878319810783523
 20
95.8478261709743435
 30
0.0
  0
VERTEX
  5
231E
  8
0
 10
81.6073825700549662
 20
95.8562813902450443
 30
0.0
  0
VERTEX
  5
231F
  8
0
 10
81.6271672808754261
 20
95.864185824945622
 30
0.0
  0
VERTEX
  5
2320
  8
0
 10
81.647171968816167
 20
95.8715478278485875
 30
0.0
  0
VERTEX
  5
2321
  8
0
 10
81.667382489153681
 20
95.8783757517265798
 30
0.0
  0
VERTEX
  5
2322
  8
0
 10
81.6877846971643748
 20
95.8846779493521666
 30
0.0
  0
VERTEX
  5
2323
  8
0
 10
81.7083644481246836
 20
95.8904627734979584
 30
0.0
  0
VERTEX
  5
2324
  8
0
 10
81.729107597311085
 20
95.8957385769365658
 30
0.0
  0
VERTEX
  5
2325
  8
0
 10
81.75
 20
95.900513712440528
 30
0.0
  0
SEQEND
  5
2326
  8
0
  0
POLYLINE
  5
1B16
  8
0
 66
     1
 10
0.0
 20
0.0
 30
0.0
  0
VERTEX
  5
2327
  8
0
 10
81.75
 20
102.0999347477894048
 30
0.0
  0
VERTEX
  5
2328
  8
0
 10
81.7292168790006883
 20
102.108514669917497
 30
0.0
  0
VERTEX
  5
2329
  8
0
 10
81.7086403666325509
 20
102.1175674702109006
 30
0.0
  0
VERTEX
  5
232A
  8
0
 10
81.6882745662526872
 20
102.1271005661615021
 30
0.0
  0
VERTEX
  5
232B
  8
0
 10
81.6681235812182535
 20
102.1371213752612022
 30
0.0
  0
VERTEX
  5
232C
  8
0
 10
81.6481915148862925
 20
102.1476373150019015
 30
0.0
  0
VERTEX
  5
232D
  8
0
 10
81.628482470613946
 20
102.1586558028754013
 30
0.0
  0
VERTEX
  5
232E
  8
0
 10
81.6090005517583279
 20
102.1701842563736022
 30
0.0
  0
VERTEX
  5
232F
  8
0
 10
81.5897498616764949
 20
102.1822300929885046
 30
0.0
  0
VERTEX
  5
2330
  8
0
 10
81.5707345037255891
 20
102.1948007302117958
 30
0.0
  0
VERTEX
  5
2331
  8
0
 10
81.5519585812627383
 20
102.207903585535604
 30
0.0
  0
VERTEX
  5
2332
  8
0
 10
81.5334202593199535
 20
102.2215520578048995
 30
0.0
  0
VERTEX
  5
2333
  8
0
 10
81.5151084610733108
 20
102.2357770539893949
 30
0.0
  0
VERTEX
  5
2334
  8
0
 10
81.4970410128544245
 20
102.2505903628917991
 30
0.0
  0
VERTEX
  5
2335
  8
0
 10
81.4792382594503977
 20
102.266001673260206
 30
0.0
  0
VERTEX
  5
2336
  8
0
 10
81.4617205456484328
 20
102.2820206738426947
 30
0.0
  0
VERTEX
  5
2337
  8
0
 10
81.4445082162356186
 20
102.2986570533872026
 30
0.0
  0
VERTEX
  5
2338
  8
0
 10
81.4276216159991577
 20
102.3159205006419938
 30
0.0
  0
VERTEX
  5
2339
  8
0
 10
81.411081089726153
 20
102.3338207043550057
 30
0.0
  0
VERTEX
  5
233A
  8
0
 10
81.3949069822038354
 20
102.3523673532744027
 30
0.0
  0
VERTEX
  5
233B
  8
0
 10
81.3791196382192368
 20
102.3715701361480939
 30
0.0
  0
VERTEX
  5
233C
  8
0
 10
81.3637408485060973
 20
102.3914370897699939
 30
0.0
  0
VERTEX
  5
233D
  8
0
 10
81.3488240465152046
 20
102.4119393474519057
 30
0.0
  0
VERTEX
  5
233E
  8
0
 10
81.334407037435426
 20
102.4330640310590042
 30
0.0
  0
VERTEX
  5
233F
  8
0
 10
81.3205150729591679
 20
102.4548123335668066
 30
0.0
  0
VERTEX
  5
2340
  8
0
 10
81.3071734047788937
 20
102.4771854479508022
 30
0.0
  0
VERTEX
  5
2341
  8
0
 10
81.2944072845869812
 20
102.5001845671864942
 30
0.0
  0
VERTEX
  5
2342
  8
0
 10
81.282241964075908
 20
102.5238108842494995
 30
0.0
  0
VERTEX
  5
2343
  8
0
 10
81.2707026949380804
 20
102.5480655921151936
 30
0.0
  0
VERTEX
  5
2344
  8
0
 10
81.2598147288659334
 20
102.5729498837591933
 30
0.0
  0
VERTEX
  5
2345
  8
0
 10
81.2496033175518733
 20
102.598464952157002
 30
0.0
  0
VERTEX
  5
2346
  8
0
 10
81.2400937126883491
 20
102.624611990284194
 30
0.0
  0
VERTEX
  5
2347
  8
0
 10
81.2313305130636252
 20
102.651338479940506
 30
0.0
  0
VERTEX
  5
2348
  8
0
 10
81.223363987051485
 20
102.678552233642705
 30
0.0
  0
VERTEX
  5
2349
  8
0
 10
81.216209941085026
 20
102.7062399329445981
 30
0.0
  0
VERTEX
  5
234A
  8
0
 10
81.2098837610663651
 20
102.7343893205196963
 30
0.0
  0
VERTEX
  5
234B
  8
0
 10
81.2044008328976759
 20
102.7629881390413971
 30
0.0
  0
VERTEX
  5
234C
  8
0
 10
81.1997765424811462
 20
102.7920241311832967
 30
0.0
  0
VERTEX
  5
234D
  8
0
 10
81.1960262757189355
 20
102.8214850396188069
 30
0.0
  0
VERTEX
  5
234E
  8
0
 10
81.1931654185132174
 20
102.8513586070213961
 30
0.0
  0
VERTEX
  5
234F
  8
0
 10
81.1912093567661657
 20
102.8816325760645043
 30
0.0
  0
VERTEX
  5
2350
  8
0
 10
81.1901734763799539
 20
102.9122946894216
 30
0.0
  0
VERTEX
  5
2351
  8
0
 10
81.1900745312861432
 20
102.943303004828195
 30
0.0
  0
VERTEX
  5
2352
  8
0
 10
81.1909238737309948
 20
102.9744591273984042
 30
0.0
  0
VERTEX
  5
2353
  8
0
 10
81.1927069729631796
 20
103.0057005990434931
 30
0.0
  0
VERTEX
  5
2354
  8
0
 10
81.1954065699983971
 20
103.0369937546201982
 30
0.0
  0
VERTEX
  5
2355
  8
0
 10
81.1990054058523469
 20
103.0683049289853983
 30
0.0
  0
VERTEX
  5
2356
  8
0
 10
81.2034862215407713
 20
103.0996004569961002
 30
0.0
  0
VERTEX
  5
2357
  8
0
 10
81.2088317580792989
 20
103.1308466735089979
 30
0.0
  0
VERTEX
  5
2358
  8
0
 10
81.215024756483686
 20
103.1620099133809987
 30
0.0
  0
VERTEX
  5
2359
  8
0
 10
81.2220479577695471
 20
103.193056511468896
 30
0.0
  0
VERTEX
  5
235A
  8
0
 10
81.2298841029526955
 20
103.2239528026296966
 30
0.0
  0
VERTEX
  5
235B
  8
0
 10
81.2385158290252036
 20
103.2546649548271063
 30
0.0
  0
VERTEX
  5
235C
  8
0
 10
81.2479144274509224
 20
103.2851481343214033
 30
0.0
  0
VERTEX
  5
235D
  8
0
 10
81.2580437462254537
 20
103.3153681455744959
 30
0.0
  0
VERTEX
  5
235E
  8
0
 10
81.2688707125940368
 20
103.3453000893797054
 30
0.0
  0
VERTEX
  5
235F
  8
0
 10
81.280362253801826
 20
103.3749190665302962
 30
0.0
  0
VERTEX
  5
2360
  8
0
 10
81.2924852970940464
 20
103.4042001778198028
 30
0.0
  0
VERTEX
  5
2361
  8
0
 10
81.3052067697159373
 20
103.4331185240414044
 30
0.0
  0
VERTEX
  5
2362
  8
0
 10
81.3184935989126529
 20
103.4616492059884933
 30
0.0
  0
VERTEX
  5
2363
  8
0
 10
81.3323127119294043
 20
103.4897673244544052
 30
0.0
  0
VERTEX
  5
2364
  8
0
 10
81.346631036011388
 20
103.5174479802325038
 30
0.0
  0
VERTEX
  5
2365
  8
0
 10
81.3614154984038294
 20
103.5446662741161958
 30
0.0
  0
VERTEX
  5
2366
  8
0
 10
81.3766354297986823
 20
103.5714179259459939
 30
0.0
  0
VERTEX
  5
2367
  8
0
 10
81.3922732934729538
 20
103.5977415336639069
 30
0.0
  0
VERTEX
  5
2368
  8
0
 10
81.4083150141150043
 20
103.6236398773982046
 30
0.0
  0
VERTEX
  5
2369
  8
0
 10
81.4247464465255462
 20
103.6491137135175933
 30
0.0
  0
VERTEX
  5
236A
  8
0
 10
81.4415534455053489
 20
103.6741637983906941
 30
0.0
  0
VERTEX
  5
236B
  8
0
 10
81.4587218658551251
 20
103.6987908883862985
 30
0.0
  0
VERTEX
  5
236C
  8
0
 10
81.4762375623756157
 20
103.7229957398729994
 30
0.0
  0
VERTEX
  5
236D
  8
0
 10
81.4940863898675616
 20
103.7467791092193039
 30
0.0
  0
VERTEX
  5
236E
  8
0
 10
81.5122542031317039
 20
103.7701417527942027
 30
0.0
  0
VERTEX
  5
236F
  8
0
 10
81.5307268569687835
 20
103.7930844269661037
 30
0.0
  0
VERTEX
  5
2370
  8
0
 10
81.5494902061794846
 20
103.815607888103699
 30
0.0
  0
VERTEX
  5
2371
  8
0
 10
81.568530105564605
 20
103.8377128925756949
 30
0.0
  0
VERTEX
  5
2372
  8
0
 10
81.5878324099248857
 20
103.8594001967508973
 30
0.0
  0
VERTEX
  5
2373
  8
0
 10
81.6073829740609824
 20
103.8806705569976998
 30
0.0
  0
VERTEX
  5
2374
  8
0
 10
81.6271676527737071
 20
103.9015247296849935
 30
0.0
  0
VERTEX
  5
2375
  8
0
 10
81.6471723008637866
 20
103.9219634711813001
 30
0.0
  0
VERTEX
  5
2376
  8
0
 10
81.6673827731319477
 20
103.9419875378553968
 30
0.0
  0
VERTEX
  5
2377
  8
0
 10
81.6877849243788887
 20
103.9615976860759048
 30
0.0
  0
VERTEX
  5
2378
  8
0
 10
81.7083646094053933
 20
103.9807946722114025
 30
0.0
  0
VERTEX
  5
2379
  8
0
 10
81.7291076830121881
 20
103.9995792526305962
 30
0.0
  0
VERTEX
  5
237A
  8
0
 10
81.75
 20
104.017952183702306
 30
0.0
  0
SEQEND
  5
237B
  8
0
  0
POLYLINE
  5
1B17
  8
0
 66
     1
 10
0.0
 20
0.0
 30
0.0
  0
VERTEX
  5
237C
  8
0
 10
81.75
 20
105.9872145279677937
 30
0.0
  0
VERTEX
  5
237D
  8
0
 10
81.729216854830554
 20
105.9880073811054046
 30
0.0
  0
VERTEX
  5
237E
  8
0
 10
81.708640322623836
 20
105.9892852534820946
 30
0.0
  0
VERTEX
  5
237F
  8
0
 10
81.6882745066662892
 20
105.9910555090394979
 30
0.0
  0
VERTEX
  5
2380
  8
0
 10
81.6681235102443566
 20
105.993325511718993
 30
0.0
  0
VERTEX
  5
2381
  8
0
 10
81.6481914366444244
 20
105.9961026254621999
 30
0.0
  0
VERTEX
  5
2382
  8
0
 10
81.6284823891529641
 20
105.999394214210497
 30
0.0
  0
VERTEX
  5
2383
  8
0
 10
81.6090004710563619
 20
106.003207641905405
 30
0.0
  0
VERTEX
  5
2384
  8
0
 10
81.589749785641061
 20
106.0075502724884018
 30
0.0
  0
VERTEX
  5
2385
  8
0
 10
81.5707344361934759
 20
106.0124294699008942
 30
0.0
  0
VERTEX
  5
2386
  8
0
 10
81.5519585260000213
 20
106.0178525980844029
 30
0.0
  0
VERTEX
  5
2387
  8
0
 10
81.5334202216103137
 20
106.0238303626078959
 30
0.0
  0
VERTEX
  5
2388
  8
0
 10
81.5151084507164541
 20
106.0303857379991967
 30
0.0
  0
VERTEX
  5
2389
  8
0
 10
81.4970410370785885
 20
106.0375340502107946
 30
0.0
  0
VERTEX
  5
238A
  8
0
 10
81.4792383222668946
 20
106.0452895844260013
 30
0.0
  0
VERTEX
  5
238B
  8
0
 10
81.4617206478515641
 20
106.0536666258280007
 30
0.0
  0
VERTEX
  5
238C
  8
0
 10
81.4445083554027462
 20
106.0626794596001048
 30
0.0
  0
VERTEX
  5
238D
  8
0
 10
81.4276217864906755
 20
106.0723423709253979
 30
0.0
  0
VERTEX
  5
238E
  8
0
 10
81.4110812826854584
 20
106.0826696449873054
 30
0.0
  0
VERTEX
  5
238F
  8
0
 10
81.3949071855573436
 20
106.0936755669688978
 30
0.0
  0
VERTEX
  5
2390
  8
0
 10
81.3791198366764661
 20
106.1053744220536004
 30
0.0
  0
VERTEX
  5
2391
  8
0
 10
81.3637410246346775
 20
106.117779508909905
 30
0.0
  0
VERTEX
  5
2392
  8
0
 10
81.3488242034711959
 20
106.1308818311441939
 30
0.0
  0
VERTEX
  5
2393
  8
0
 10
81.3344071853635171
 20
106.144681302973197
 30
0.0
  0
VERTEX
  5
2394
  8
0
 10
81.3205152193712308
 20
106.1591861490714024
 30
0.0
  0
VERTEX
  5
2395
  8
0
 10
81.3071735545538559
 20
106.1744045941137955
 30
0.0
  0
VERTEX
  5
2396
  8
0
 10
81.2944074399710246
 20
106.1903448627751061
 30
0.0
  0
VERTEX
  5
2397
  8
0
 10
81.2822421246822273
 20
106.207015179730007
 30
0.0
  0
VERTEX
  5
2398
  8
0
 10
81.2707028577470538
 20
106.2244237696532991
 30
0.0
  0
VERTEX
  5
2399
  8
0
 10
81.2598148882250939
 20
106.2425788572196979
 30
0.0
  0
VERTEX
  5
239A
  8
0
 10
81.2496034651758663
 20
106.261488667104004
 30
0.0
  0
VERTEX
  5
239B
  8
0
 10
81.2400938376589892
 20
106.2811614239809046
 30
0.0
  0
VERTEX
  5
239C
  8
0
 10
81.2313306103171442
 20
106.3015647246515982
 30
0.0
  0
VERTEX
  5
239D
  8
0
 10
81.2233640632360618
 20
106.3226336695516068
 30
0.0
  0
VERTEX
  5
239E
  8
0
 10
81.216210001809074
 20
106.3443612682286954
 30
0.0
  0
VERTEX
  5
239F
  8
0
 10
81.2098838107292238
 20
106.3667413218097977
 30
0.0
  0
VERTEX
  5
23A0
  8
0
 10
81.204400874689469
 20
106.3897676314218046
 30
0.0
  0
VERTEX
  5
23A1
  8
0
 10
81.1997765783828527
 20
106.4134339981913939
 30
0.0
  0
VERTEX
  5
23A2
  8
0
 10
81.1960263065023753
 20
106.4377342232455987
 30
0.0
  0
VERTEX
  5
23A3
  8
0
 10
81.1931654437410373
 20
106.4626621077110968
 30
0.0
  0
VERTEX
  5
23A4
  8
0
 10
81.1912093747918533
 20
106.4882114527149071
 30
0.0
  0
VERTEX
  5
23A5
  8
0
 10
81.1901734843478664
 20
106.514376059383693
 30
0.0
  0
VERTEX
  5
23A6
  8
0
 10
81.1900745256533583
 20
106.5411245149634993
 30
0.0
  0
VERTEX
  5
23A7
  8
0
 10
81.1909238534315989
 20
106.5682889009892023
 30
0.0
  0
VERTEX
  5
23A8
  8
0
 10
81.192706937662706
 20
106.595811134144995
 30
0.0
  0
VERTEX
  5
23A9
  8
0
 10
81.1954065196335364
 20
106.6236571854065005
 30
0.0
  0
VERTEX
  5
23AA
  8
0
 10
81.1990053406309471
 20
106.6517930257492992
 30
0.0
  0
VERTEX
  5
23AB
  8
0
 10
81.2034861419418235
 20
106.6801846261489004
 30
0.0
  0
VERTEX
  5
23AC
  8
0
 10
81.2088316648530224
 20
106.7087979575807992
 30
0.0
  0
VERTEX
  5
23AD
  8
0
 10
81.2150246506513867
 20
106.737598991020505
 30
0.0
  0
VERTEX
  5
23AE
  8
0
 10
81.2220478406238158
 20
106.7665536974436975
 30
0.0
  0
VERTEX
  5
23AF
  8
0
 10
81.2298839760571809
 20
106.7956280478259004
 30
0.0
  0
VERTEX
  5
23B0
  8
0
 10
81.2385156941769822
 20
106.8247878409538032
 30
0.0
  0
VERTEX
  5
23B1
  8
0
 10
81.2479142838391937
 20
106.8539862350450989
 30
0.0
  0
VERTEX
  5
23B2
  8
0
 10
81.258043591748617
 20
106.8831833196150995
 30
0.0
  0
VERTEX
  5
23B3
  8
0
 10
81.2688705457546661
 20
106.9123479952612001
 30
0.0
  0
VERTEX
  5
23B4
  8
0
 10
81.2803620737069537
 20
106.9414491625808949
 30
0.0
  0
VERTEX
  5
23B5
  8
0
 10
81.2924851034549647
 20
106.970455722171593
 30
0.0
  0
VERTEX
  5
23B6
  8
0
 10
81.305206562848241
 20
106.9993365746308029
 30
0.0
  0
VERTEX
  5
23B7
  8
0
 10
81.3184933797362817
 20
107.0280606205560048
 30
0.0
  0
VERTEX
  5
23B8
  8
0
 10
81.3323124819686427
 20
107.0565967605447071
 30
0.0
  0
VERTEX
  5
23B9
  8
0
 10
81.3466307973948517
 20
107.0849138951942052
 30
0.0
  0
VERTEX
  5
23BA
  8
0
 10
81.3614152538643935
 20
107.112980925102093
 30
0.0
  0
VERTEX
  5
23BB
  8
0
 10
81.3766351808685613
 20
107.1407854132163067
 30
0.0
  0
VERTEX
  5
23BC
  8
0
 10
81.3922730378938155
 20
107.1683560255026038
 30
0.0
  0
VERTEX
  5
23BD
  8
0
 10
81.4083147500660118
 20
107.1956911626331959
 30
0.0
  0
VERTEX
  5
23BE
  8
0
 10
81.4247461728243991
 20
107.2227874403855026
 30
0.0
  0
VERTEX
  5
23BF
  8
0
 10
81.4415531616081836
 20
107.2496414745369009
 30
0.0
  0
VERTEX
  5
23C0
  8
0
 10
81.4587215718566142
 20
107.2762498808645972
 30
0.0
  0
VERTEX
  5
23C1
  8
0
 10
81.4762372590088546
 20
107.3026092751460965
 30
0.0
  0
VERTEX
  5
23C2
  8
0
 10
81.4940860785041252
 20
107.328716273158804
 30
0.0
  0
VERTEX
  5
23C3
  8
0
 10
81.5122538857816323
 20
107.3545674906800969
 30
0.0
  0
VERTEX
  5
23C4
  8
0
 10
81.5307265362806106
 20
107.3801595434872951
 30
0.0
  0
VERTEX
  5
23C5
  8
0
 10
81.5494898854402663
 20
107.4054890473579036
 30
0.0
  0
VERTEX
  5
23C6
  8
0
 10
81.5685297886997631
 20
107.4305526180691004
 30
0.0
  0
VERTEX
  5
23C7
  8
0
 10
81.5878321014984067
 20
107.4553468713984046
 30
0.0
  0
VERTEX
  5
23C8
  8
0
 10
81.6073826792753181
 20
107.4798684231231931
 30
0.0
  0
VERTEX
  5
23C9
  8
0
 10
81.6271673774697604
 20
107.5041138890208998
 30
0.0
  0
VERTEX
  5
23CA
  8
0
 10
81.6471720515209256
 20
107.5280798848688022
 30
0.0
  0
VERTEX
  5
23CB
  8
0
 10
81.6673825568680058
 20
107.5517630264442062
 30
0.0
  0
VERTEX
  5
23CC
  8
0
 10
81.6877847489502642
 20
107.5751599295247019
 30
0.0
  0
VERTEX
  5
23CD
  8
0
 10
81.7083644832068785
 20
107.5982672098875952
 30
0.0
  0
VERTEX
  5
23CE
  8
0
 10
81.729107615077055
 20
107.6210814833102063
 30
0.0
  0
VERTEX
  5
23CF
  8
0
 10
81.75
 20
107.6435993655698979
 30
0.0
  0
SEQEND
  5
23D0
  8
0
  0
POLYLINE
  5
1B18
  8
0
 66
     1
 10
0.0
 20
0.0
 30
0.0
  0
VERTEX
  5
23D1
  8
0
 10
81.75
 20
109.2256867128355964
 30
0.0
  0
VERTEX
  5
23D2
  8
0
 10
81.7292168786893001
 20
109.2186065765634027
 30
0.0
  0
VERTEX
  5
23D3
  8
0
 10
81.7086403669892434
 20
109.2119710398326049
 30
0.0
  0
VERTEX
  5
23D4
  8
0
 10
81.6882745682349736
 20
109.205786615551304
 30
0.0
  0
VERTEX
  5
23D5
  8
0
 10
81.6681235857616343
 20
109.2000598166273022
 30
0.0
  0
VERTEX
  5
23D6
  8
0
 10
81.6481915229043267
 20
109.1947971559687005
 30
0.0
  0
VERTEX
  5
23D7
  8
0
 10
81.6284824829981375
 20
109.1900051464833012
 30
0.0
  0
VERTEX
  5
23D8
  8
0
 10
81.6090005693782814
 20
109.1856903010791058
 30
0.0
  0
VERTEX
  5
23D9
  8
0
 10
81.5897498853798169
 20
109.1818591326641013
 30
0.0
  0
VERTEX
  5
23DA
  8
0
 10
81.5707345343379444
 20
109.1785181541461043
 30
0.0
  0
VERTEX
  5
23DB
  8
0
 10
81.5519586195876371
 20
109.1756738784332015
 30
0.0
  0
VERTEX
  5
23DC
  8
0
 10
81.5334203065602026
 20
109.1733331608735966
 30
0.0
  0
VERTEX
  5
23DD
  8
0
 10
81.5151085196227143
 20
109.1715085623991968
 30
0.0
  0
VERTEX
  5
23DE
  8
0
 10
81.4970410844153861
 20
109.1702172823215022
 30
0.0
  0
VERTEX
  5
23DF
  8
0
 10
81.4792383448625372
 20
109.1694766501883009
 30
0.0
  0
VERTEX
  5
23E0
  8
0
 10
81.4617206448886293
 20
109.1693039955475939
 30
0.0
  0
VERTEX
  5
23E1
  8
0
 10
81.4445083284180669
 20
109.169716647947098
 30
0.0
  0
VERTEX
  5
23E2
  8
0
 10
81.427621739375212
 20
109.1707319369347999
 30
0.0
  0
VERTEX
  5
23E3
  8
0
 10
81.411081221684455
 20
109.1723671920586014
 30
0.0
  0
VERTEX
  5
23E4
  8
0
 10
81.3949071192702718
 20
109.1746397428663045
 30
0.0
  0
VERTEX
  5
23E5
  8
0
 10
81.3791197760569958
 20
109.1775669189057965
 30
0.0
  0
VERTEX
  5
23E6
  8
0
 10
81.3637409821981663
 20
109.1811658372591012
 30
0.0
  0
VERTEX
  5
23E7
  8
0
 10
81.3488241765317355
 20
109.1854483794537032
 30
0.0
  0
VERTEX
  5
23E8
  8
0
 10
81.3344071660451107
 20
109.1904272701292058
 30
0.0
  0
VERTEX
  5
23E9
  8
0
 10
81.3205152016985267
 20
109.1961168675626936
 30
0.0
  0
VERTEX
  5
23EA
  8
0
 10
81.3071735344522324
 20
109.202531530031095
 30
0.0
  0
VERTEX
  5
23EB
  8
0
 10
81.2944074152664484
 20
109.2096856158113951
 30
0.0
  0
VERTEX
  5
23EC
  8
0
 10
81.2822420951014237
 20
109.2175934831805932
 30
0.0
  0
VERTEX
  5
23ED
  8
0
 10
81.2707028249174357
 20
109.2262694904158025
 30
0.0
  0
VERTEX
  5
23EE
  8
0
 10
81.2598148556746764
 20
109.2357279957937948
 30
0.0
  0
VERTEX
  5
23EF
  8
0
 10
81.2496034383333949
 20
109.2459833575916974
 30
0.0
  0
VERTEX
  5
23F0
  8
0
 10
81.2400938238538401
 20
109.2570499340863961
 30
0.0
  0
VERTEX
  5
23F1
  8
0
 10
81.2313306125891756
 20
109.2689189751746
 30
0.0
  0
VERTEX
  5
23F2
  8
0
 10
81.2233640760757538
 20
109.2815599471205985
 30
0.0
  0
VERTEX
  5
23F3
  8
0
 10
81.2162100204666615
 20
109.2949729362703977
 30
0.0
  0
VERTEX
  5
23F4
  8
0
 10
81.2098838313382885
 20
109.3091584645377026
 30
0.0
  0
VERTEX
  5
23F5
  8
0
 10
81.2044008942670814
 20
109.3241170538360052
 30
0.0
  0
VERTEX
  5
23F6
  8
0
 10
81.1997765948294159
 20
109.3398492260787975
 30
0.0
  0
VERTEX
  5
23F7
  8
0
 10
81.1960263186016959
 20
109.3563555031798984
 30
0.0
  0
VERTEX
  5
23F8
  8
0
 10
81.1931654511603824
 20
109.3736364070526008
 30
0.0
  0
VERTEX
  5
23F9
  8
0
 10
81.1912093780818083
 20
109.3916924596106952
 30
0.0
  0
VERTEX
  5
23FA
  8
0
 10
81.190173484942477
 20
109.410524182767702
 30
0.0
  0
VERTEX
  5
23FB
  8
0
 10
81.190074525504528
 20
109.4301140983642
 30
0.0
  0
VERTEX
  5
23FC
  8
0
 10
81.1909238527984769
 20
109.4503430155644992
 30
0.0
  0
VERTEX
  5
23FD
  8
0
 10
81.1927069363430292
 20
109.4711635247458048
 30
0.0
  0
VERTEX
  5
23FE
  8
0
 10
81.1954065172867558
 20
109.4925449149899066
 30
0.0
  0
VERTEX
  5
23FF
  8
0
 10
81.1990053367780718
 20
109.5144564753790064
 30
0.0
  0
VERTEX
  5
2400
  8
0
 10
81.2034861359655054
 20
109.5368674949950929
 30
0.0
  0
VERTEX
  5
2401
  8
0
 10
81.2088316559975283
 20
109.5597472629201974
 30
0.0
  0
VERTEX
  5
2402
  8
0
 10
81.2150246380226122
 20
109.5830650682363938
 30
0.0
  0
VERTEX
  5
2403
  8
0
 10
81.2220478231892855
 20
109.6067902000255998
 30
0.0
  0
VERTEX
  5
2404
  8
0
 10
81.2298839526459915
 20
109.6308919473699035
 30
0.0
  0
VERTEX
  5
2405
  8
0
 10
81.2385156635062629
 20
109.6553394408228002
 30
0.0
  0
VERTEX
  5
2406
  8
0
 10
81.2479142464872837
 20
109.6800889248120967
 30
0.0
  0
VERTEX
  5
2407
  8
0
 10
81.2580435492172626
 20
109.705099110535599
 30
0.0
  0
VERTEX
  5
2408
  8
0
 10
81.2688704991447253
 20
109.7303360660751963
 30
0.0
  0
VERTEX
  5
2409
  8
0
 10
81.2803620237181974
 20
109.7557658595131045
 30
0.0
  0
VERTEX
  5
240A
  8
0
 10
81.2924850503862046
 20
109.781354558931298
 30
0.0
  0
VERTEX
  5
240B
  8
0
 10
81.3052065065972727
 20
109.8070682324120071
 30
0.0
  0
VERTEX
  5
240C
  8
0
 10
81.3184933197999129
 20
109.8328729480373056
 30
0.0
  0
VERTEX
  5
240D
  8
0
 10
81.3323124174427221
 20
109.8587347738891964
 30
0.0
  0
VERTEX
  5
240E
  8
0
 10
81.3466307269741549
 20
109.8846197780498954
 30
0.0
  0
VERTEX
  5
240F
  8
0
 10
81.3614151758427653
 20
109.9104940286014056
 30
0.0
  0
VERTEX
  5
2410
  8
0
 10
81.3766350939790755
 20
109.9363382815665062
 30
0.0
  0
VERTEX
  5
2411
  8
0
 10
81.3922729427709442
 20
109.962168174458597
 30
0.0
  0
VERTEX
  5
2412
  8
0
 10
81.4083146475184378
 20
109.9879779018392014
 30
0.0
  0
VERTEX
  5
2413
  8
0
 10
81.4247460637466673
 20
110.0137603051656043
 30
0.0
  0
VERTEX
  5
2414
  8
0
 10
81.4415530469807436
 20
110.0395082258950055
 30
0.0
  0
VERTEX
  5
2415
  8
0
 10
81.4587214527457775
 20
110.065214505484704
 30
0.0
  0
VERTEX
  5
2416
  8
0
 10
81.476237136566823
 20
110.090871985391999
 30
0.0
  0
VERTEX
  5
2417
  8
0
 10
81.4940859539690052
 20
110.1164735070741045
 30
0.0
  0
VERTEX
  5
2418
  8
0
 10
81.5122537604774209
 20
110.1420119119884049
 30
0.0
  0
VERTEX
  5
2419
  8
0
 10
81.530726411617124
 20
110.1674800415920998
 30
0.0
  0
VERTEX
  5
241A
  8
0
 10
81.5494897629133106
 20
110.1928707373424032
 30
0.0
  0
VERTEX
  5
241B
  8
0
 10
81.5685296698910065
 20
110.218176840696799
 30
0.0
  0
VERTEX
  5
241C
  8
0
 10
81.5878319880753082
 20
110.2433911931123021
 30
0.0
  0
VERTEX
  5
241D
  8
0
 10
81.6073825729913551
 20
110.2685066360462969
 30
0.0
  0
VERTEX
  5
241E
  8
0
 10
81.6271672801642012
 20
110.2935160109561963
 30
0.0
  0
VERTEX
  5
241F
  8
0
 10
81.6471719651189858
 20
110.318412159299001
 30
0.0
  0
VERTEX
  5
2420
  8
0
 10
81.6673824833807487
 20
110.343187922532195
 30
0.0
  0
VERTEX
  5
2421
  8
0
 10
81.6877846904746718
 20
110.3678361421130063
 30
0.0
  0
VERTEX
  5
2422
  8
0
 10
81.7083644419257666
 20
110.3923496594987057
 30
0.0
  0
VERTEX
  5
2423
  8
0
 10
81.7291075932591866
 20
110.4167213161465071
 30
0.0
  0
VERTEX
  5
2424
  8
0
 10
81.75
 20
110.4409439535137949
 30
0.0
  0
SEQEND
  5
2425
  8
0
  0
POLYLINE
  5
1B19
  8
0
 66
     1
 10
0.0
 20
0.0
 30
0.0
  0
VERTEX
  5
2426
  8
0
 10
81.75
 20
111.4644125910889016
 30
0.0
  0
VERTEX
  5
2427
  8
0
 10
81.7292169663050743
 20
111.4502267685594035
 30
0.0
  0
VERTEX
  5
2428
  8
0
 10
81.7086405289806663
 20
111.4363969368232006
 30
0.0
  0
VERTEX
  5
2429
  8
0
 10
81.688274791561895
 20
111.4229280522876024
 30
0.0
  0
VERTEX
  5
242A
  8
0
 10
81.6681238575839927
 20
111.4098250713602027
 30
0.0
  0
VERTEX
  5
242B
  8
0
 10
81.6481918305820358
 20
111.3970929504486946
 30
0.0
  0
VERTEX
  5
242C
  8
0
 10
81.6284828140912992
 20
111.3847366459606008
 30
0.0
  0
VERTEX
  5
242D
  8
0
 10
81.6090009116468593
 20
111.3727611143034011
 30
0.0
  0
VERTEX
  5
242E
  8
0
 10
81.5897502267839059
 20
111.3611713118847035
 30
0.0
  0
VERTEX
  5
242F
  8
0
 10
81.5707348630376146
 20
111.3499721951121018
 30
0.0
  0
VERTEX
  5
2430
  8
0
 10
81.5519589239431184
 20
111.3391687203931042
 30
0.0
  0
VERTEX
  5
2431
  8
0
 10
81.5334205704450028
 20
111.3287631477238051
 30
0.0
  0
VERTEX
  5
2432
  8
0
 10
81.5151087135682246
 20
111.3187562562571031
 30
0.0
  0
VERTEX
  5
2433
  8
0
 10
81.4970411865179756
 20
111.3091652593247005
 30
0.0
  0
VERTEX
  5
2434
  8
0
 10
81.4792383426880633
 20
111.3000086584294053
 30
0.0
  0
VERTEX
  5
2435
  8
0
 10
81.4617205354723239
 20
111.2913049550740965
 30
0.0
  0
VERTEX
  5
2436
  8
0
 10
81.444508118264622
 20
111.2830726507619943
 30
0.0
  0
VERTEX
  5
2437
  8
0
 10
81.4276214444587652
 20
111.2753302469956935
 30
0.0
  0
VERTEX
  5
2438
  8
0
 10
81.4110808674485895
 20
111.2680962452783007
 30
0.0
  0
VERTEX
  5
2439
  8
0
 10
81.3949067406279312
 20
111.2613891471126948
 30
0.0
  0
VERTEX
  5
243A
  8
0
 10
81.3791194173906263
 20
111.2552274540017976
 30
0.0
  0
VERTEX
  5
243B
  8
0
 10
81.3637406941791426
 20
111.249630250288007
 30
0.0
  0
VERTEX
  5
243C
  8
0
 10
81.3488239488655864
 20
111.2446289740077958
 30
0.0
  0
VERTEX
  5
243D
  8
0
 10
81.3344069676621331
 20
111.2402477691713045
 30
0.0
  0
VERTEX
  5
243E
  8
0
 10
81.3205150092104532
 20
111.236505575297798
 30
0.0
  0
VERTEX
  5
243F
  8
0
 10
81.3071733321520043
 20
111.2334213319063991
 30
0.0
  0
VERTEX
  5
2440
  8
0
 10
81.2944071951284144
 20
111.2310139785165006
 30
0.0
  0
VERTEX
  5
2441
  8
0
 10
81.2822418567811837
 20
111.2293024546471969
 30
0.0
  0
VERTEX
  5
2442
  8
0
 10
81.2707025757518409
 20
111.2283056998179944
 30
0.0
  0
VERTEX
  5
2443
  8
0
 10
81.259814610681957
 20
111.2280426535480018
 30
0.0
  0
VERTEX
  5
2444
  8
0
 10
81.2496032202130749
 20
111.2285322553563987
 30
0.0
  0
VERTEX
  5
2445
  8
0
 10
81.2400936629867658
 20
111.2297934447627057
 30
0.0
  0
VERTEX
  5
2446
  8
0
 10
81.2313305221063757
 20
111.2318420677521971
 30
0.0
  0
VERTEX
  5
2447
  8
0
 10
81.2233640346862131
 20
111.2346852527668943
 30
0.0
  0
VERTEX
  5
2448
  8
0
 10
81.2162100099373561
 20
111.2383301535389961
 30
0.0
  0
VERTEX
  5
2449
  8
0
 10
81.2098838369922191
 20
111.2427839563265053
 30
0.0
  0
VERTEX
  5
244A
  8
0
 10
81.2044009049832454
 20
111.2480538473873963
 30
0.0
  0
VERTEX
  5
244B
  8
0
 10
81.1997766030429489
 20
111.2541470129798
 30
0.0
  0
VERTEX
  5
244C
  8
0
 10
81.19602632030373
 20
111.261070639361705
 30
0.0
  0
VERTEX
  5
244D
  8
0
 10
81.1931654458980461
 20
111.2688319127910006
 30
0.0
  0
VERTEX
  5
244E
  8
0
 10
81.1912093689583401
 20
111.2774380195259027
 30
0.0
  0
VERTEX
  5
244F
  8
0
 10
81.1901734786170834
 20
111.2868961458243007
 30
0.0
  0
VERTEX
  5
2450
  8
0
 10
81.1900745306997464
 20
111.2972046437954958
 30
0.0
  0
VERTEX
  5
2451
  8
0
 10
81.1909238712634362
 20
111.3083059749782961
 30
0.0
  0
VERTEX
  5
2452
  8
0
 10
81.1927069678707767
 20
111.3201685408130004
 30
0.0
  0
VERTEX
  5
2453
  8
0
 10
81.1954065610320868
 20
111.332768274685705
 30
0.0
  0
VERTEX
  5
2454
  8
0
 10
81.1990053912576855
 20
111.346081109982606
 30
0.0
  0
VERTEX
  5
2455
  8
0
 10
81.2034861990579486
 20
111.3600829800897003
 30
0.0
  0
VERTEX
  5
2456
  8
0
 10
81.2088317249431384
 20
111.3747498183930986
 30
0.0
  0
VERTEX
  5
2457
  8
0
 10
81.2150247094236306
 20
111.3900575582789969
 30
0.0
  0
VERTEX
  5
2458
  8
0
 10
81.2220478930097158
 20
111.4059821331335058
 30
0.0
  0
VERTEX
  5
2459
  8
0
 10
81.2298840162117557
 20
111.422499476342594
 30
0.0
  0
VERTEX
  5
245A
  8
0
 10
81.2385157156128912
 20
111.4395853937492973
 30
0.0
  0
VERTEX
  5
245B
  8
0
 10
81.2479142894810877
 20
111.4572039671786996
 30
0.0
  0
VERTEX
  5
245C
  8
0
 10
81.2580435891881621
 20
111.4753170092017029
 30
0.0
  0
VERTEX
  5
245D
  8
0
 10
81.2688705405137171
 20
111.4938914307010975
 30
0.0
  0
VERTEX
  5
245E
  8
0
 10
81.2803620692373556
 20
111.5128941425600004
 30
0.0
  0
VERTEX
  5
245F
  8
0
 10
81.2924851011387091
 20
111.5322920556612019
 30
0.0
  0
VERTEX
  5
2460
  8
0
 10
81.3052065619973945
 20
111.5520520808877052
 30
0.0
  0
VERTEX
  5
2461
  8
0
 10
81.3184933775930432
 20
111.5721411291224001
 30
0.0
  0
VERTEX
  5
2462
  8
0
 10
81.3323124737052865
 20
111.5925261112483042
 30
0.0
  0
VERTEX
  5
2463
  8
0
 10
81.3466307761136846
 20
111.613173938148293
 30
0.0
  0
VERTEX
  5
2464
  8
0
 10
81.3614152105979258
 20
111.6340515207052988
 30
0.0
  0
VERTEX
  5
2465
  8
0
 10
81.3766351094513141
 20
111.6551348956467962
 30
0.0
  0
VERTEX
  5
2466
  8
0
 10
81.3922729428936691
 20
111.6764249860827931
 30
0.0
  0
VERTEX
  5
2467
  8
0
 10
81.4083146362550139
 20
111.6979124094846014
 30
0.0
  0
VERTEX
  5
2468
  8
0
 10
81.4247460446556204
 20
111.7195870082102971
 30
0.0
  0
VERTEX
  5
2469
  8
0
 10
81.4415530232157039
 20
111.7414386246180982
 30
0.0
  0
VERTEX
  5
246A
  8
0
 10
81.4587214270555648
 20
111.7634571010661944
 30
0.0
  0
VERTEX
  5
246B
  8
0
 10
81.4762371112954327
 20
111.7856322799127042
 30
0.0
  0
VERTEX
  5
246C
  8
0
 10
81.4940859310555936
 20
111.8079540035157038
 30
0.0
  0
VERTEX
  5
246D
  8
0
 10
81.5122537414562771
 20
111.8304121142334964
 30
0.0
  0
VERTEX
  5
246E
  8
0
 10
81.5307263976177694
 20
111.8529964544240016
 30
0.0
  0
VERTEX
  5
246F
  8
0
 10
81.5494897546602999
 20
111.8756968664454945
 30
0.0
  0
VERTEX
  5
2470
  8
0
 10
81.5685296677041265
 20
111.8985031926560936
 30
0.0
  0
VERTEX
  5
2471
  8
0
 10
81.5878319918695354
 20
111.9214052754141022
 30
0.0
  0
VERTEX
  5
2472
  8
0
 10
81.607382582276756
 20
111.9443929570773975
 30
0.0
  0
VERTEX
  5
2473
  8
0
 10
81.6271672940460746
 20
111.9674560800042968
 30
0.0
  0
VERTEX
  5
2474
  8
0
 10
81.6471719822976922
 20
111.9905844865529048
 30
0.0
  0
VERTEX
  5
2475
  8
0
 10
81.6673825021519377
 20
112.0137680190813967
 30
0.0
  0
VERTEX
  5
2476
  8
0
 10
81.6877847087290263
 20
112.036996519947806
 30
0.0
  0
VERTEX
  5
2477
  8
0
 10
81.7083644571492442
 20
112.060259831510507
 30
0.0
  0
VERTEX
  5
2478
  8
0
 10
81.7291076025327783
 20
112.0835477961274051
 30
0.0
  0
VERTEX
  5
2479
  8
0
 10
81.75
 20
112.1068502561568039
 30
0.0
  0
SEQEND
  5
247A
  8
0
  0
POLYLINE
  5
1B1A
  8
0
 66
     1
 10
0.0
 20
0.0
 30
0.0
  0
VERTEX
  5
247B
  8
0
 10
81.75
 20
97.9850944538431037
 30
0.0
  0
VERTEX
  5
247C
  8
0
 10
81.7292171156138068
 20
98.0005314990808358
 30
0.0
  0
VERTEX
  5
247D
  8
0
 10
81.7086408048816963
 20
98.016378052283514
 30
0.0
  0
VERTEX
  5
247E
  8
0
 10
81.6882751716831876
 20
98.0326407827401169
 30
0.0
  0
VERTEX
  5
247F
  8
0
 10
81.6681243198977285
 20
98.0493263597395099
 30
0.0
  0
VERTEX
  5
2480
  8
0
 10
81.6481923534047667
 20
98.066441452570615
 30
0.0
  0
VERTEX
  5
2481
  8
0
 10
81.6284833760838069
 20
98.083992730522354
 30
0.0
  0
VERTEX
  5
2482
  8
0
 10
81.6090014918142685
 20
98.1019868628836349
 30
0.0
  0
VERTEX
  5
2483
  8
0
 10
81.5897508044756421
 20
98.1204305189433654
 30
0.0
  0
VERTEX
  5
2484
  8
0
 10
81.5707354179473896
 20
98.1393303679904676
 30
0.0
  0
VERTEX
  5
2485
  8
0
 10
81.5519594361089446
 20
98.1586930793138634
 30
0.0
  0
VERTEX
  5
2486
  8
0
 10
81.5334210122069862
 20
98.1785333155683446
 30
0.0
  0
VERTEX
  5
2487
  8
0
 10
81.515109034377133
 20
98.1988866295335754
 30
0.0
  0
VERTEX
  5
2488
  8
0
 10
81.4970413488176462
 20
98.219759968483487
 30
0.0
  0
VERTEX
  5
2489
  8
0
 10
81.4792383251837578
 20
98.2411573396892948
 30
0.0
  0
VERTEX
  5
248A
  8
0
 10
81.4617203331306712
 20
98.2630827504221429
 30
0.0
  0
VERTEX
  5
248B
  8
0
 10
81.4445077423135757
 20
98.285540207953261
 30
0.0
  0
VERTEX
  5
248C
  8
0
 10
81.4276209223877743
 20
98.3085337195538358
 30
0.0
  0
VERTEX
  5
248D
  8
0
 10
81.4110802430083709
 20
98.3320672924950259
 30
0.0
  0
VERTEX
  5
248E
  8
0
 10
81.3949060738306542
 20
98.3561449340480465
 30
0.0
  0
VERTEX
  5
248F
  8
0
 10
81.3791187845098136
 20
98.3807706514840561
 30
0.0
  0
VERTEX
  5
2490
  8
0
 10
81.3637401822883959
 20
98.4059463271353394
 30
0.0
  0
VERTEX
  5
2491
  8
0
 10
81.3488235403546298
 20
98.4316266100980641
 30
0.0
  0
VERTEX
  5
2492
  8
0
 10
81.334406609255339
 20
98.4577873020697609
 30
0.0
  0
VERTEX
  5
2493
  8
0
 10
81.3205146608309661
 20
98.4844223897720781
 30
0.0
  0
VERTEX
  5
2494
  8
0
 10
81.3071729669217689
 20
98.5115258599265928
 30
0.0
  0
VERTEX
  5
2495
  8
0
 10
81.2944067993682324
 20
98.5390916992548966
 30
0.0
  0
VERTEX
  5
2496
  8
0
 10
81.2822414300106146
 20
98.5671138944785667
 30
0.0
  0
VERTEX
  5
2497
  8
0
 10
81.2707021306893864
 20
98.595586432319223
 30
0.0
  0
VERTEX
  5
2498
  8
0
 10
81.2598141732448767
 20
98.6245032994984427
 30
0.0
  0
VERTEX
  5
2499
  8
0
 10
81.2496028295174568
 20
98.6538584827378031
 30
0.0
  0
VERTEX
  5
249A
  8
0
 10
81.2400933713474558
 20
98.6836459687589382
 30
0.0
  0
VERTEX
  5
249B
  8
0
 10
81.2313303522070953
 20
98.7137989718591058
 30
0.0
  0
VERTEX
  5
249C
  8
0
 10
81.2233639500771147
 20
98.7442082791831695
 30
0.0
  0
VERTEX
  5
249D
  8
0
 10
81.2162099794225867
 20
98.7748556411854537
 30
0.0
  0
VERTEX
  5
249E
  8
0
 10
81.2098838354854848
 20
98.8057240198635185
 30
0.0
  0
VERTEX
  5
249F
  8
0
 10
81.2044009135078113
 20
98.8367963772149949
 30
0.0
  0
VERTEX
  5
24A0
  8
0
 10
81.1997766087316393
 20
98.8680556752374713
 30
0.0
  0
VERTEX
  5
24A1
  8
0
 10
81.1960263163989566
 20
98.8994848759285645
 30
0.0
  0
VERTEX
  5
24A2
  8
0
 10
81.1931654317518223
 20
98.9310669412858488
 30
0.0
  0
VERTEX
  5
24A3
  8
0
 10
81.1912093500322243
 20
98.9627848333069551
 30
0.0
  0
VERTEX
  5
24A4
  8
0
 10
81.1901734664821504
 20
98.9946215139895003
 30
0.0
  0
VERTEX
  5
24A5
  8
0
 10
81.1900745404687854
 20
99.0265290583787845
 30
0.0
  0
VERTEX
  5
24A6
  8
0
 10
81.1909239060447732
 20
99.0583003665387594
 30
0.0
  0
VERTEX
  5
24A7
  8
0
 10
81.1927070273975175
 20
99.0898753996185206
 30
0.0
  0
VERTEX
  5
24A8
  8
0
 10
81.1954066439292745
 20
99.1212244790282568
 30
0.0
  0
VERTEX
  5
24A9
  8
0
 10
81.1990054950423996
 20
99.1523179261781848
 30
0.0
  0
VERTEX
  5
24AA
  8
0
 10
81.2034863201390493
 20
99.1831260624785216
 30
0.0
  0
VERTEX
  5
24AB
  8
0
 10
81.208831858621636
 20
99.2136192093394129
 30
0.0
  0
VERTEX
  5
24AC
  8
0
 10
81.2150248498923446
 20
99.2437676881711326
 30
0.0
  0
VERTEX
  5
24AD
  8
0
 10
81.2220480333535306
 20
99.2735418203838549
 30
0.0
  0
VERTEX
  5
24AE
  8
0
 10
81.2298841484074217
 20
99.3029119273877541
 30
0.0
  0
VERTEX
  5
24AF
  8
0
 10
81.2385158307145048
 20
99.331848188310147
 30
0.0
  0
VERTEX
  5
24B0
  8
0
 10
81.2479143915200552
 20
99.3603127097721028
 30
0.0
  0
VERTEX
  5
24B1
  8
0
 10
81.2580436886295843
 20
99.3882807659977203
 30
0.0
  0
VERTEX
  5
24B2
  8
0
 10
81.2688706449486347
 20
99.4157363472818645
 30
0.0
  0
VERTEX
  5
24B3
  8
0
 10
81.2803621833826924
 20
99.4426634439193435
 30
0.0
  0
VERTEX
  5
24B4
  8
0
 10
81.2924852268372859
 20
99.4690460462050083
 30
0.0
  0
VERTEX
  5
24B5
  8
0
 10
81.3052066982179156
 20
99.494868144433724
 30
0.0
  0
VERTEX
  5
24B6
  8
0
 10
81.3184935204300956
 20
99.5201137289003412
 30
0.0
  0
VERTEX
  5
24B7
  8
0
 10
81.332312616379312
 20
99.5447667898996968
 30
0.0
  0
VERTEX
  5
24B8
  8
0
 10
81.3466309089711075
 20
99.5688113177266416
 30
0.0
  0
VERTEX
  5
24B9
  8
0
 10
81.3614153211109539
 20
99.5922313026760264
 30
0.0
  0
VERTEX
  5
24BA
  8
0
 10
81.3766351892364241
 20
99.6150310920459532
 30
0.0
  0
VERTEX
  5
24BB
  8
0
 10
81.3922729989053977
 20
99.6372550666863219
 30
0.0
  0
VERTEX
  5
24BC
  8
0
 10
81.4083146754018543
 20
99.6589100860095556
 30
0.0
  0
VERTEX
  5
24BD
  8
0
 10
81.4247460730417458
 20
99.680000964457065
 30
0.0
  0
VERTEX
  5
24BE
  8
0
 10
81.4415530461409674
 20
99.7005325164701759
 30
0.0
  0
VERTEX
  5
24BF
  8
0
 10
81.4587214490154565
 20
99.7205095564903417
 30
0.0
  0
VERTEX
  5
24C0
  8
0
 10
81.4762371359811652
 20
99.7399368989589306
 30
0.0
  0
VERTEX
  5
24C1
  8
0
 10
81.4940859613540169
 20
99.7588193583173108
 30
0.0
  0
VERTEX
  5
24C2
  8
0
 10
81.5122537794499351
 20
99.7771617490068792
 30
0.0
  0
VERTEX
  5
24C3
  8
0
 10
81.5307264445848432
 20
99.794968885469018
 30
0.0
  0
VERTEX
  5
24C4
  8
0
 10
81.5494898110746931
 20
99.812245582145124
 30
0.0
  0
VERTEX
  5
24C5
  8
0
 10
81.5685297332354367
 20
99.8289966534765654
 30
0.0
  0
VERTEX
  5
24C6
  8
0
 10
81.5878320653829689
 20
99.8452269139047246
 30
0.0
  0
VERTEX
  5
24C7
  8
0
 10
81.6073826618332419
 20
99.860941177871041
 30
0.0
  0
VERTEX
  5
24C8
  8
0
 10
81.6271673769021646
 20
99.8761442598168259
 30
0.0
  0
VERTEX
  5
24C9
  8
0
 10
81.6471720649056891
 20
99.8908409741835186
 30
0.0
  0
VERTEX
  5
24CA
  8
0
 10
81.6673825801597673
 20
99.9050361354124732
 30
0.0
  0
VERTEX
  5
24CB
  8
0
 10
81.6877847769803083
 20
99.9187345579451147
 30
0.0
  0
VERTEX
  5
24CC
  8
0
 10
81.7083645096832356
 20
99.9319410562227546
 30
0.0
  0
VERTEX
  5
24CD
  8
0
 10
81.729107632584487
 20
99.9446604446868747
 30
0.0
  0
VERTEX
  5
24CE
  8
0
 10
81.75
 20
99.9568975377787723
 30
0.0
  0
SEQEND
  5
24CF
  8
0
  0
ENDSEC
  0
EOF
