  0
SECTION
  2
HEADER
  9
$ACADVER
  1
AC1009
  9
$INSBASE
 10
0.0
 20
0.0
 30
0.0
  9
$EXTMIN
 10
0.0
 20
-2.960436562073669
 30
0.0
  9
$EXTMAX
 10
165.0100000000001899
 20
162.5100000000003035
 30
0.0
  9
$LIMMIN
 10
0.0
 20
0.0
  9
$LIMMAX
 10
187.5
 20
135.0
  9
$ORTHOMODE
 70
     1
  9
$REGENMODE
 70
     1
  9
$FILLMODE
 70
     1
  9
$QTEXTMODE
 70
     0
  9
$MIRRTEXT
 70
     0
  9
$DRAGMODE
 70
     2
  9
$LTSCALE
 40
5.0
  9
$OSMODE
 70
    37
  9
$ATTMODE
 70
     1
  9
$TEXTSIZE
 40
5.0
  9
$TRACEWID
 40
0.05
  9
$TEXTSTYLE
  7
STANDARD
  9
$CLAYER
  8
0
  9
$CELTYPE
  6
BYLAYER
  9
$CECOLOR
 62
   256
  9
$DIMSCALE
 40
0.5
  9
$DIMASZ
 40
3.0
  9
$DIMEXO
 40
2.0
  9
$DIMDLI
 40
0.38
  9
$DIMRND
 40
0.0
  9
$DIMDLE
 40
0.0
  9
$DIMEXE
 40
2.0
  9
$DIMTP
 40
0.0
  9
$DIMTM
 40
0.0
  9
$DIMTXT
 40
3.2000000000000002
  9
$DIMCEN
 40
0.09
  9
$DIMTSZ
 40
0.0
  9
$DIMTOL
 70
     0
  9
$DIMLIM
 70
     0
  9
$DIMTIH
 70
     0
  9
$DIMTOH
 70
     0
  9
$DIMSE1
 70
     0
  9
$DIMSE2
 70
     0
  9
$DIMTAD
 70
     1
  9
$DIMZIN
 70
     0
  9
$DIMBLK
  1

  9
$DIMASO
 70
     1
  9
$DIMSHO
 70
     0
  9
$DIMPOST
  1

  9
$DIMAPOST
  1

  9
$DIMALT
 70
     0
  9
$DIMALTD
 70
     2
  9
$DIMALTF
 40
25.3999999999999986
  9
$DIMLFAC
 40
1.0
  9
$DIMTOFL
 70
     0
  9
$DIMTVP
 40
1.6000000000000001
  9
$DIMTIX
 70
     1
  9
$DIMSOXD
 70
     0
  9
$DIMSAH
 70
     0
  9
$DIMBLK1
  1

  9
$DIMBLK2
  1

  9
$DIMSTYLE
  2
STANDARD
  9
$DIMCLRD
 70
     0
  9
$DIMCLRE
 70
     0
  9
$DIMCLRT
 70
     0
  9
$DIMTFAC
 40
1.0
  9
$DIMGAP
 40
0.09
  9
$LUNITS
 70
     2
  9
$LUPREC
 70
     1
  9
$SKETCHINC
 40
0.1
  9
$FILLETRAD
 40
0.0
  9
$AUNITS
 70
     0
  9
$AUPREC
 70
     0
  9
$MENU
  1
E:\r13\win\SUPPORT\ACAD
  9
$ELEVATION
 40
0.0
  9
$PELEVATION
 40
0.0
  9
$THICKNESS
 40
0.0
  9
$LIMCHECK
 70
     0
  9
$BLIPMODE
 70
     0
  9
$CHAMFERA
 40
0.0
  9
$CHAMFERB
 40
0.0
  9
$SKPOLY
 70
     0
  9
$TDCREATE
 40
2449839.7834837958216667
  9
$TDUPDATE
 40
2460580.5713194450363517
  9
$TDINDWG
 40
0.0654712731
  9
$TDUSRTIMER
 40
0.0654712731
  9
$USRTIMER
 70
     1
  9
$ANGBASE
 50
0.0
  9
$ANGDIR
 70
     0
  9
$PDMODE
 70
     0
  9
$PDSIZE
 40
0.0
  9
$PLINEWID
 40
0.0
  9
$COORDS
 70
     1
  9
$SPLFRAME
 70
     0
  9
$SPLINETYPE
 70
     6
  9
$SPLINESEGS
 70
     8
  9
$ATTDIA
 70
     1
  9
$ATTREQ
 70
     1
  9
$HANDLING
 70
     1
  9
$HANDSEED
  5
271B
  9
$SURFTAB1
 70
     6
  9
$SURFTAB2
 70
     6
  9
$SURFTYPE
 70
     6
  9
$SURFU
 70
     6
  9
$SURFV
 70
     6
  9
$UCSNAME
  2

  9
$UCSORG
 10
0.0
 20
0.0
 30
0.0
  9
$UCSXDIR
 10
1.0
 20
0.0
 30
0.0
  9
$UCSYDIR
 10
0.0
 20
1.0
 30
0.0
  9
$PUCSNAME
  2

  9
$PUCSORG
 10
0.0
 20
0.0
 30
0.0
  9
$PUCSXDIR
 10
1.0
 20
0.0
 30
0.0
  9
$PUCSYDIR
 10
0.0
 20
1.0
 30
0.0
  9
$USERI1
 70
     0
  9
$USERI2
 70
     1
  9
$USERI3
 70
     1
  9
$USERI4
 70
     0
  9
$USERI5
 70
     0
  9
$USERR1
 40
0.0
  9
$USERR2
 40
0.0
  9
$USERR3
 40
0.0
  9
$USERR4
 40
0.0
  9
$USERR5
 40
0.0
  9
$WORLDVIEW
 70
     1
  9
$SHADEDGE
 70
     3
  9
$SHADEDIF
 70
    70
  9
$TILEMODE
 70
     1
  9
$MAXACTVP
 70
    16
  9
$PLIMCHECK
 70
     0
  9
$PEXTMIN
 10
1.0000000000000000E+20
 20
1.0000000000000000E+20
 30
1.0000000000000000E+20
  9
$PEXTMAX
 10
-1.0000000000000000E+20
 20
-1.0000000000000000E+20
 30
-1.0000000000000000E+20
  9
$PLIMMIN
 10
0.0
 20
0.0
  9
$PLIMMAX
 10
12.0
 20
9.0
  9
$UNITMODE
 70
     0
  9
$VISRETAIN
 70
     0
  9
$PLINEGEN
 70
     0
  9
$PSLTSCALE
 70
     0
  0
ENDSEC
  0
SECTION
  2
TABLES
  0
TABLE
  2
VPORT
 70
     1
  0
VPORT
  2
*ACTIVE
 70
     0
 10
0.0
 20
0.0
 11
1.0
 21
1.0
 12
199.62438423645321
 22
85.0
 13
0.0
 23
0.0
 14
5.0
 24
5.0
 15
5.0
 25
5.0
 16
0.0
 26
0.0
 36
1.0
 17
0.0
 27
0.0
 37
0.0
 40
170.0
 41
2.3485221674876842
 42
50.0
 43
0.0
 44
0.0
 50
0.0
 51
0.0
 71
     0
 72
   500
 73
     1
 74
     0
 75
     0
 76
     0
 77
     0
 78
     2
  0
ENDTAB
  0
TABLE
  2
LTYPE
 70
     3
  0
LTYPE
  2
CONTINUOUS
 70
     0
  3
Solid Line
 72
    65
 73
     0
 40
0.0
  0
LTYPE
  2
CENTER
 70
     0
  3
____ _ ____ _ ____ _ ____ _ ____ _ ____ _ ____
 72
    65
 73
     4
 40
2.0
 49
1.25
 49
-0.25
 49
0.25
 49
-0.25
  0
LTYPE
  2
HIDDEN
 70
     0
  3
_ _ _ _ _ _ _ _ _ _ _ _ _ _ _ _ _ _ _ _ _ _ _
 72
    65
 73
     2
 40
0.375
 49
0.25
 49
-0.125
  0
ENDTAB
  0
TABLE
  2
LAYER
 70
     4
  0
LAYER
  2
0
 70
     0
 62
     7
  6
CONTINUOUS
  0
LAYER
  2
1
 70
     0
 62
     1
  6
CENTER
  0
LAYER
  2
3
 70
     0
 62
     3
  6
CONTINUOUS
  0
LAYER
  2
2
 70
     0
 62
     2
  6
HIDDEN
  0
ENDTAB
  0
TABLE
  2
STYLE
 70
     2
  0
STYLE
  2
STANDARD
 70
     0
 40
0.0
 41
1.0
 50
0.0
 71
     0
 42
5.0
  3
TXT
  4
BIGFONT
  0
STYLE
  2
STANDARD1
 70
     0
 40
0.0
 41
1.0
 50
0.0
 71
     0
 42
3.0
  3
txt
  4

  0
ENDTAB
  0
TABLE
  2
VIEW
 70
     1
  0
VIEW
  2
ALL
 70
     0
 40
135.0
 10
110.4957983193277045
 20
67.5
 41
0.0
 11
0.0
 21
0.0
 31
1.0
 12
0.0
 22
0.0
 32
0.0
 42
0.0
 43
0.0
 44
0.0
 50
0.0
 71
     0
  0
ENDTAB
  0
TABLE
  2
UCS
 70
     0
  0
ENDTAB
  0
TABLE
  2
APPID
 70
     7
  0
APPID
  2
ACAD
 70
     0
  0
APPID
  2
ACAD_MLEADERVER
 70
     0
  0
APPID
  2
ACAD_NAV_VCDISPLAY
 70
     0
  0
APPID
  2
ACAD_EXEMPT_FROM_CAD_STANDARDS
 70
     0
  0
APPID
  2
ACAD_DSTYLE_DIMJAG
 70
     0
  0
APPID
  2
ACAD_DSTYLE_DIMTALN
 70
     0
  0
APPID
  2
ACAD_TC
 70
     0
  0
ENDTAB
  0
TABLE
  2
DIMSTYLE
 70
     1
  0
DIMSTYLE
  2
STANDARD
 70
     0
  3

  4

  5

  6

  7

 40
1.0
 41
0.18
 42
0.0625
 43
0.38
 44
0.18
 45
0.0
 46
0.0
 47
0.0
 48
0.0
140
0.18
141
0.09
142
0.0
143
25.3999999999999986
144
1.0
145
0.0
146
1.0
147
0.09
 71
     0
 72
     0
 73
     1
 74
     1
 75
     0
 76
     0
 77
     0
 78
     0
170
     0
171
     2
172
     0
173
     0
174
     0
175
     0
176
     0
177
     0
178
     0
  0
ENDTAB
  0
ENDSEC
  0
SECTION
  2
BLOCKS
  0
BLOCK
  8
0
  2
$MODEL_SPACE
 70
     0
 10
0.0
 20
0.0
 30
0.0
  3
$MODEL_SPACE
  1

  0
ENDBLK
  5
3D3
  8
0
  0
BLOCK
 67
     1
  8
0
  2
$PAPER_SPACE
 70
     0
 10
0.0
 20
0.0
 30
0.0
  3
$PAPER_SPACE
  1

  0
ENDBLK
  5
3D1
 67
     1
  8
0
  0
ENDSEC
  0
SECTION
  2
ENTITIES
  0
TEXT
  5
B82
  8
0
 62
     3
 10
0.0
 20
0.0
 30
0.0
 40
10.0
  1
FTK25R-M8X30
  7
STANDARD1
  0
CIRCLE
  5
1BEE
  8
0
 10
49.9999999999999716
 20
100.0000000000000995
 30
0.0
 40
11.75
  0
CIRCLE
  5
1BEF
  8
0
 10
49.9999999999999716
 20
100.0000000000000995
 30
0.0
 40
9.796875
  0
CIRCLE
  5
1BF0
  8
0
 10
50.0
 20
100.0000000000000995
 30
0.0
 40
8.4210526315789291
  0
LINE
  5
1BF1
  8
0
 10
81.193370995038066
 20
111.9433709950381939
 30
0.0
 11
81.0
 21
111.7500000000000995
 31
0.0
  0
LINE
  5
1BF2
  8
0
 10
81.0
 20
88.2500000000001137
 30
0.0
 11
81.7499999999999716
 21
87.5000000000001137
 31
0.0
  0
LINE
  5
1BF3
  8
0
 10
91.2499999999999432
 20
87.4900000000001228
 30
0.0
 11
92.0000000000000568
 21
88.2400000000001228
 31
0.0
  0
LINE
  5
1BF4
  8
0
 10
92.0000000000000568
 20
111.7600000000001046
 30
0.0
 11
91.2499999999999432
 21
112.5100000000001046
 31
0.0
  0
LINE
  5
1BF5
  8
0
 10
90.0999999999999943
 20
87.4900000000001228
 30
0.0
 11
91.2499999999999432
 21
87.4900000000001228
 31
0.0
  0
LINE
  5
1BF6
  8
0
 10
91.2499999999999432
 20
112.5100000000001046
 30
0.0
 11
90.0999999999999943
 21
112.5100000000001046
 31
0.0
  0
LINE
  5
1BF7
  8
0
 10
98.2499999999999432
 20
92.0000000000001279
 30
0.0
 11
99.0000000000000568
 21
92.7500000000001137
 31
0.0
  0
LINE
  5
1BF8
  8
0
 10
99.0000000000000568
 20
107.2500000000000995
 30
0.0
 11
98.2499999999999432
 21
108.0000000000000995
 31
0.0
  0
LINE
  5
1BF9
  8
0
 10
92.0000000000000568
 20
92.0000000000001279
 30
0.0
 11
98.2499999999999432
 21
92.0000000000001279
 31
0.0
  0
LINE
  5
1BFA
  8
0
 10
98.2499999999999432
 20
108.0000000000000995
 30
0.0
 11
92.0000000000000568
 21
108.0000000000000995
 31
0.0
  0
LINE
  5
1BFB
  8
0
 10
99.0000000000000568
 20
94.6666666666667851
 30
0.0
 11
100.0
 21
94.6666666666667851
 31
0.0
  0
LINE
  5
1BFC
  8
0
 10
100.0
 20
105.3333333333333997
 30
0.0
 11
99.0000000000000568
 21
105.3333333333333997
 31
0.0
  0
LINE
  5
1BFD
  8
0
 10
129.2330000000000041
 20
96.0000000000001279
 30
0.0
 11
129.9999999999998863
 21
96.7670000000001238
 31
0.0
  0
LINE
  5
1BFE
  8
0
 10
129.9999999999998863
 20
103.2330000000001036
 30
0.0
 11
129.2330000000000041
 21
104.0000000000000995
 31
0.0
  0
LINE
  5
1BFF
  8
0
 10
119.9999999999999005
 20
96.0000000000001279
 30
0.0
 11
129.2330000000000041
 21
96.0000000000001279
 31
0.0
  0
LINE
  5
1C00
  8
0
 10
129.2330000000000041
 20
104.0000000000000995
 30
0.0
 11
119.9999999999999005
 21
104.0000000000000995
 31
0.0
  0
LINE
  5
1C01
  8
0
 10
100.0
 20
96.7500000000001279
 30
0.0
 11
119.9999999999999005
 21
96.7500000000001279
 31
0.0
  0
LINE
  5
1C02
  8
0
 10
119.9999999999999005
 20
103.2500000000000995
 30
0.0
 11
100.0
 21
103.2500000000000995
 31
0.0
  0
LINE
  5
1C03
  8
0
 10
81.7499999999994458
 20
87.5000000000001137
 30
0.0
 11
90.0999999999999943
 21
87.5000000000001137
 31
0.0
  0
LINE
  5
1C04
  8
0
 10
90.0999999999999943
 20
97.9850944538432742
 30
0.0
 11
81.7499999999999716
 21
97.9850944538432742
 31
0.0
  0
LINE
  5
1C06
  8
0
 10
90.0999999999999943
 20
99.956897537778957
 30
0.0
 11
81.7499999999999716
 21
99.956897537778957
 31
0.0
  0
LINE
  5
1C08
  8
0
 10
81.7499999999999716
 20
112.460791476408005
 30
0.0
 11
81.7499999999999716
 21
112.1068502561569034
 31
0.0
  0
LINE
  5
1C0A
  8
0
 10
81.7499999999999716
 20
111.4644125910891006
 30
0.0
 11
81.7499999999999716
 21
110.4409439535139938
 31
0.0
  0
LINE
  5
1C0C
  8
0
 10
81.7499999999999716
 20
109.2256867128357953
 30
0.0
 11
81.7499999999999716
 21
107.6435993655700969
 31
0.0
  0
LINE
  5
1C0E
  8
0
 10
81.7499999999999716
 20
105.9872145279680069
 30
0.0
 11
81.7499999999999716
 21
104.0179521837024055
 31
0.0
  0
LINE
  5
1C10
  8
0
 10
81.7499999999999716
 20
102.0999347477896038
 30
0.0
 11
81.7499999999999716
 21
99.956897537778957
 31
0.0
  0
LINE
  5
1C11
  8
0
 10
81.7499999999999716
 20
97.9850944538432742
 30
0.0
 11
81.7499999999999716
 21
95.9005137124406986
 31
0.0
  0
LINE
  5
1C13
  8
0
 10
81.7499999999996732
 20
94.0886004403039635
 30
0.0
 11
81.7499999999999716
 21
92.2883728364432443
 31
0.0
  0
LINE
  5
1C15
  8
0
 10
81.7499999999999716
 20
90.8326982938725962
 30
0.0
 11
81.7499999999999716
 21
89.5119064218414167
 31
0.0
  0
LINE
  5
1C17
  8
0
 10
81.7500000000003837
 20
88.5702155326421945
 30
0.0
 11
81.7499999999999716
 21
87.8719876859725986
 31
0.0
  0
LINE
  5
1C19
  8
0
 10
81.7499999999994458
 20
87.5463272698291348
 30
0.0
 11
81.7499999999994458
 21
87.5000000000001137
 31
0.0
  0
LINE
  5
1C1A
  8
0
 10
80.9999999999999432
 20
100.0000000000000995
 30
0.0
 11
81.0
 21
111.7500000000000995
 31
0.0
  0
LINE
  5
1C1B
  8
0
 10
81.0
 20
88.2500000000001137
 30
0.0
 11
80.9999999999999432
 21
100.0000000000000995
 31
0.0
  0
LINE
  5
1C1C
  8
0
 10
91.2499999999999432
 20
87.4900000000001228
 30
0.0
 11
91.2499999999998437
 21
112.5100000000002041
 31
0.0
  0
LINE
  5
1C1D
  8
0
 10
92.0000000000000568
 20
88.2400000000001228
 30
0.0
 11
91.9999999999998295
 21
111.7600000000002041
 31
0.0
  0
LINE
  5
1C1E
  8
0
 10
90.0999999999999943
 20
87.4900000000001228
 30
0.0
 11
90.0999999999998948
 21
112.5100000000001046
 31
0.0
  0
LINE
  5
1C1F
  8
0
 10
90.0999999999999943
 20
102.0999347477896038
 30
0.0
 11
81.7499999999999716
 21
102.0999347477896038
 31
0.0
  0
LINE
  5
1C20
  8
0
 10
90.0999999999999943
 20
104.0179521837024055
 30
0.0
 11
81.7499999999999716
 21
104.0179521837024055
 31
0.0
  0
LINE
  5
1C21
  8
0
 10
90.0999999999999943
 20
95.9005137124406986
 30
0.0
 11
81.7499999999999716
 21
95.9005137124406986
 31
0.0
  0
LINE
  5
1C22
  8
0
 10
90.0999999999999943
 20
94.0886004403039635
 30
0.0
 11
81.7499999999996732
 21
94.0886004403039635
 31
0.0
  0
LINE
  5
1C23
  8
0
 10
90.0999999999999943
 20
105.9872145279680069
 30
0.0
 11
81.7499999999999716
 21
105.9872145279680069
 31
0.0
  0
LINE
  5
1C24
  8
0
 10
90.0999999999999943
 20
107.6435993655700969
 30
0.0
 11
81.7499999999999716
 21
107.6435993655700969
 31
0.0
  0
LINE
  5
1C25
  8
0
 10
90.0999999999999943
 20
92.2883728364432443
 30
0.0
 11
81.7499999999999716
 21
92.2883728364432443
 31
0.0
  0
LINE
  5
1C26
  8
0
 10
90.0999999999999943
 20
90.8326982938725962
 30
0.0
 11
81.7499999999999716
 21
90.8326982938725962
 31
0.0
  0
LINE
  5
1C27
  8
0
 10
90.0999999999999943
 20
109.2256867128357953
 30
0.0
 11
81.7499999999999716
 21
109.2256867128357953
 31
0.0
  0
LINE
  5
1C28
  8
0
 10
90.0999999999999943
 20
110.4409439535139938
 30
0.0
 11
81.7499999999999716
 21
110.4409439535139938
 31
0.0
  0
LINE
  5
1C29
  8
0
 10
90.0999999999999943
 20
89.5119064218414167
 30
0.0
 11
81.7499999999999716
 21
89.5119064218414167
 31
0.0
  0
LINE
  5
1C2A
  8
0
 10
99.0000000000000568
 20
92.7500000000001137
 30
0.0
 11
98.9999999999999432
 21
107.250000000000199
 31
0.0
  0
LINE
  5
1C2B
  8
0
 10
98.2499999999999432
 20
92.0000000000001279
 30
0.0
 11
98.2500000000000568
 21
108.0000000000000995
 31
0.0
  0
LINE
  5
1C2C
  8
0
 10
90.0999999999999943
 20
88.5702155326421945
 30
0.0
 11
81.7500000000003837
 21
88.5702155326421945
 31
0.0
  0
LINE
  5
1C2D
  8
0
 10
90.0999999999999943
 20
111.4644125910891006
 30
0.0
 11
81.7499999999999716
 21
111.4644125910891006
 31
0.0
  0
LINE
  5
1C2E
  8
0
 10
100.0
 20
94.6666666666667851
 30
0.0
 11
99.9999999999999432
 21
105.3333333333333997
 31
0.0
  0
LINE
  5
1C2F
  8
0
 10
90.0999999999999943
 20
112.1068502561569034
 30
0.0
 11
81.7499999999999716
 21
112.1068502561569034
 31
0.0
  0
LINE
  5
1C30
  8
0
 10
90.0999999999999943
 20
87.8719876859725986
 30
0.0
 11
81.7499999999999716
 21
87.8719876859725986
 31
0.0
  0
LINE
  5
1C31
  8
0
 10
129.9999999999998863
 20
96.7670000000001238
 30
0.0
 11
129.9999999999998863
 21
103.2330000000001036
 31
0.0
  0
LINE
  5
1C32
  8
0
 10
129.2330000000000041
 20
96.0000000000001279
 30
0.0
 11
129.2330000000000041
 21
104.0000000000000995
 31
0.0
  0
LINE
  5
1C33
  8
0
 10
119.9999999999999005
 20
96.0000000000001279
 30
0.0
 11
119.9999999999999005
 21
104.0000000000000995
 31
0.0
  0
LINE
  5
1C34
  8
0
 10
90.0999999999999943
 20
112.460791476408005
 30
0.0
 11
81.7499999999999716
 21
112.460791476408005
 31
0.0
  0
LINE
  5
1C35
  8
0
 10
90.0999999999999943
 20
87.5463272698291348
 30
0.0
 11
81.7499999999994458
 21
87.5463272698291348
 31
0.0
  0
LINE
  5
1C36
  8
0
 10
81.7500000000003837
 20
92.2883728364432443
 30
0.0
 11
81.6118243547772551
 21
92.2956879025825287
 31
0.0
  0
LINE
  5
1C37
  8
2
 10
82.6666666666666288
 20
91.5789473684211544
 30
0.0
 11
82.6666666666666288
 21
108.4210526315791014
 31
0.0
  0
LINE
  5
1C38
  8
0
 10
90.0999999999999943
 20
92.3005201488378901
 30
0.0
 11
81.6138293123014762
 21
92.3005201488378901
 31
0.0
  0
LINE
  5
1C39
  8
2
 10
81.0
 20
90.2031250000001137
 30
0.0
 11
82.6666666666666288
 21
91.5789473684211544
 31
0.0
  0
LINE
  5
1C3A
  8
2
 10
82.6666666666666288
 20
108.4210526315791014
 30
0.0
 11
81.0
 21
109.7968750000000995
 31
0.0
  0
LINE
  5
1C3B
  8
0
 10
81.6138293123014051
 20
92.3005201488378901
 30
0.0
 11
81.6118243547772551
 21
92.3005201488378901
 31
0.0
  0
CIRCLE
  5
1C3C
  8
3
 10
150.0
 20
100.0000000000000995
 30
0.0
 40
3.3234999999999242
  0
CIRCLE
  5
1C3D
  8
0
 10
150.0000000000001137
 20
100.0000000000000995
 30
0.0
 40
4.0
  0
CIRCLE
  5
1C3E
  8
0
 10
150.0000000000001137
 20
100.0000000000000995
 30
0.0
 40
5.3333333333333144
  0
CIRCLE
  5
1C3F
  8
0
 10
150.0000000000001137
 20
100.0000000000000995
 30
0.0
 40
7.25
  0
CIRCLE
  5
1C40
  8
0
 10
150.0000000000001137
 20
100.0000000000000995
 30
0.0
 40
7.9999999999999432
  0
CIRCLE
  5
1C41
  8
0
 10
150.000000000000199
 20
100.0000000000000995
 30
0.0
 40
12.5100000000000406
  0
CIRCLE
  5
1C42
  8
0
 10
150.000000000000199
 20
100.0000000000000995
 30
0.0
 40
11.7599999999999891
  0
CIRCLE
  5
1C43
  8
0
 10
150.000000000000199
 20
100.0000000000000995
 30
0.0
 40
10.86956521739131
  0
CIRCLE
  5
1C44
  8
0
 10
150.000000000000199
 20
100.0000000000000995
 30
0.0
 40
8.4210526315789593
  0
LINE
  5
1C45
  8
1
 10
165.0100000000001899
 20
100.0000000000000995
 30
0.0
 11
134.9900000000000944
 21
100.0000000000000995
 31
0.0
  0
LINE
  5
1C46
  8
1
 10
150.0000000000003126
 20
115.0100000000001046
 30
0.0
 11
150.0000000000003126
 21
84.9900000000000659
 31
0.0
  0
LINE
  5
1C47
  8
0
 10
81.7500000000000142
 20
162.5000000000003126
 30
0.0
 11
81.0000000000000568
 21
161.7500000000003126
 31
0.0
  0
LINE
  5
1C48
  8
0
 10
80.9999999999999432
 20
138.2500000000003126
 30
0.0
 11
81.7499999999999716
 21
137.5000000000003126
 31
0.0
  0
LINE
  5
1C49
  8
0
 10
90.0999999999999375
 20
137.490000000000208
 30
0.0
 11
91.2499999999999432
 21
137.490000000000208
 31
0.0
  0
LINE
  5
1C4A
  8
0
 10
91.2500000000000568
 20
162.5100000000001899
 30
0.0
 11
90.1000000000000512
 21
162.5100000000003035
 31
0.0
  0
LINE
  5
1C4B
  8
0
 10
91.2499999999999432
 20
137.490000000000208
 30
0.0
 11
91.9999999999999289
 21
138.240000000000208
 31
0.0
  0
LINE
  5
1C4C
  8
0
 10
92.0000000000000568
 20
161.7600000000001899
 30
0.0
 11
91.2500000000000568
 21
162.5100000000001899
 31
0.0
  0
LINE
  5
1C4D
  8
0
 10
91.9999999999999289
 20
142.000000000000199
 30
0.0
 11
98.2499999999999432
 21
142.000000000000199
 31
0.0
  0
LINE
  5
1C4E
  8
0
 10
98.2500000000000568
 20
158.000000000000199
 30
0.0
 11
92.0000000000000568
 21
158.000000000000199
 31
0.0
  0
LINE
  5
1C4F
  8
0
 10
98.2499999999999432
 20
142.000000000000199
 30
0.0
 11
98.9999999999999432
 21
142.750000000000199
 31
0.0
  0
LINE
  5
1C50
  8
0
 10
99.0000000000000568
 20
157.250000000000199
 30
0.0
 11
98.2500000000000568
 21
158.000000000000199
 31
0.0
  0
LINE
  5
1C51
  8
0
 10
98.9999999999999432
 20
144.6666666666667993
 30
0.0
 11
99.9999999999999432
 21
144.6666666666667993
 31
0.0
  0
LINE
  5
1C52
  8
0
 10
100.0
 20
155.3333333333335133
 30
0.0
 11
99.0000000000000568
 21
155.3333333333335133
 31
0.0
  0
LINE
  5
1C53
  8
0
 10
119.9999999999999005
 20
146.0000000000001137
 30
0.0
 11
129.2330000000000041
 21
146.0000000000001137
 31
0.0
  0
LINE
  5
1C54
  8
0
 10
129.2330000000000041
 20
154.0000000000001137
 30
0.0
 11
120.0
 21
154.0000000000001137
 31
0.0
  0
LINE
  5
1C55
  8
0
 10
129.2330000000000041
 20
146.0000000000001137
 30
0.0
 11
129.9999999999998863
 21
146.7670000000001096
 31
0.0
  0
LINE
  5
1C56
  8
0
 10
129.9999999999998863
 20
153.2330000000000894
 30
0.0
 11
129.2330000000000041
 21
154.0000000000001137
 31
0.0
  0
LINE
  5
1C57
  8
0
 10
99.9999999999999432
 20
146.750000000000199
 30
0.0
 11
119.9999999999999005
 21
146.7500000000001137
 31
0.0
  0
LINE
  5
1C58
  8
0
 10
119.9999999999999005
 20
153.2500000000001137
 30
0.0
 11
100.0
 21
153.250000000000199
 31
0.0
  0
LINE
  5
1C59
  8
0
 10
90.0999999999999943
 20
162.5000000000003126
 30
0.0
 11
81.7499999999999716
 21
162.5000000000003126
 31
0.0
  0
LINE
  5
1C5A
  8
0
 10
81.7499999999999716
 20
137.5000000000003126
 30
0.0
 11
90.0999999999999943
 21
137.500000000000199
 31
0.0
  0
LINE
  5
1C5C
  8
0
 10
81.7499999999995737
 20
159.8906718042134969
 30
0.0
 11
81.7499999999999716
 21
158.4342578023565125
 31
0.0
  0
LINE
  5
1C5E
  8
0
 10
81.7500000000004547
 20
156.8728952676135862
 30
0.0
 11
81.7499999999999716
 21
154.9816908717104127
 31
0.0
  0
LINE
  5
1C60
  8
0
 10
81.7500000000006253
 20
153.1103338848099042
 30
0.0
 11
81.7499999999999716
 21
150.9892804362162906
 31
0.0
  0
LINE
  5
1C62
  8
0
 10
81.7499999999999716
 20
149.0107195637841926
 30
0.0
 11
81.7499999999999716
 21
146.8896661151906073
 31
0.0
  0
LINE
  5
1C64
  8
0
 10
81.7499999999999716
 20
145.0183091282900989
 30
0.0
 11
81.7499999999999716
 21
143.127104732386897
 31
0.0
  0
LINE
  5
1C66
  8
0
 10
81.7499999999999716
 20
141.5657421976439991
 30
0.0
 11
81.7499999999999716
 21
140.1093281957869863
 31
0.0
  0
LINE
  5
1C68
  8
0
 10
81.7499999999999716
 20
139.0271579708771128
 30
0.0
 11
81.7499999999999716
 21
138.1633594187593133
 31
0.0
  0
LINE
  5
1C6A
  8
0
 10
81.7499999999999716
 20
137.6776514391524984
 30
0.0
 11
81.7499999999999716
 21
137.5
 31
0.0
  0
LINE
  5
1C6B
  8
0
 10
81.7500000000000142
 20
162.5000000000003126
 30
0.0
 11
81.7499999999999716
 21
162.3223485608480132
 31
0.0
  0
LINE
  5
1C6D
  8
0
 10
81.7499999999999716
 20
161.836640581241312
 30
0.0
 11
81.7499999999999716
 21
160.9728420291233135
 31
0.0
  0
LINE
  5
1C6E
  8
0
 10
80.9999999999999432
 20
138.2500000000003126
 30
0.0
 11
81.0000000000000568
 21
161.7500000000003126
 31
0.0
  0
LINE
  5
1C6F
  8
0
 10
90.0999999999999943
 20
149.0107195637841073
 30
0.0
 11
81.7499999999999716
 21
149.0107195637841926
 31
0.0
  0
LINE
  5
1C70
  8
0
 10
90.0999999999999943
 20
150.9892804362162906
 30
0.0
 11
81.7499999999999716
 21
150.9892804362162906
 31
0.0
  0
LINE
  5
1C71
  8
0
 10
91.2499999999999432
 20
137.490000000000208
 30
0.0
 11
91.2500000000000568
 21
162.5100000000001899
 31
0.0
  0
LINE
  5
1C72
  8
0
 10
90.0999999999999375
 20
137.490000000000208
 30
0.0
 11
90.1000000000000512
 21
162.5100000000003035
 31
0.0
  0
LINE
  5
1C73
  8
0
 10
91.9999999999999289
 20
138.240000000000208
 30
0.0
 11
92.0000000000000568
 21
161.7600000000001899
 31
0.0
  0
LINE
  5
1C74
  8
0
 10
90.0999999999999943
 20
153.1103338848097906
 30
0.0
 11
81.7500000000006253
 21
153.1103338848099042
 31
0.0
  0
LINE
  5
1C75
  8
0
 10
90.0999999999999943
 20
146.8896661151906073
 30
0.0
 11
81.7499999999999716
 21
146.8896661151906073
 31
0.0
  0
LINE
  5
1C76
  8
0
 10
90.0999999999999943
 20
154.9816908717104127
 30
0.0
 11
81.7499999999999716
 21
154.9816908717104127
 31
0.0
  0
LINE
  5
1C77
  8
0
 10
90.0999999999999943
 20
145.0183091282900136
 30
0.0
 11
81.7499999999999716
 21
145.0183091282900989
 31
0.0
  0
LINE
  5
1C78
  8
0
 10
90.0999999999999943
 20
156.8728952676135862
 30
0.0
 11
81.7500000000004547
 21
156.8728952676135862
 31
0.0
  0
LINE
  5
1C79
  8
0
 10
90.0999999999999943
 20
143.127104732386897
 30
0.0
 11
81.7499999999999716
 21
143.127104732386897
 31
0.0
  0
LINE
  5
1C7A
  8
0
 10
90.0999999999999943
 20
158.4342578023563988
 30
0.0
 11
81.7499999999999716
 21
158.4342578023565125
 31
0.0
  0
LINE
  5
1C7B
  8
0
 10
90.0999999999999943
 20
141.5657421976439139
 30
0.0
 11
81.7499999999999716
 21
141.5657421976439991
 31
0.0
  0
LINE
  5
1C7C
  8
0
 10
90.0999999999999943
 20
159.8906718042134969
 30
0.0
 11
81.7499999999995737
 21
159.8906718042134969
 31
0.0
  0
LINE
  5
1C7D
  8
0
 10
90.0999999999999943
 20
140.1093281957869863
 30
0.0
 11
81.7499999999999716
 21
140.1093281957869863
 31
0.0
  0
LINE
  5
1C7E
  8
0
 10
98.2499999999999432
 20
142.000000000000199
 30
0.0
 11
98.2500000000000568
 21
158.000000000000199
 31
0.0
  0
LINE
  5
1C7F
  8
0
 10
98.9999999999999432
 20
142.750000000000199
 30
0.0
 11
99.0000000000000568
 21
157.250000000000199
 31
0.0
  0
LINE
  5
1C80
  8
0
 10
90.0999999999999943
 20
139.0271579708771128
 30
0.0
 11
81.7499999999999716
 21
139.0271579708771128
 31
0.0
  0
LINE
  5
1C81
  8
0
 10
90.0999999999999943
 20
160.9728420291233135
 30
0.0
 11
81.7499999999999716
 21
160.9728420291233135
 31
0.0
  0
LINE
  5
1C82
  8
0
 10
90.0999999999999943
 20
161.8366405812411983
 30
0.0
 11
81.7499999999999716
 21
161.836640581241312
 31
0.0
  0
LINE
  5
1C83
  8
0
 10
90.0999999999999943
 20
138.1633594187591996
 30
0.0
 11
81.7499999999999716
 21
138.1633594187593133
 31
0.0
  0
LINE
  5
1C84
  8
0
 10
99.9999999999999432
 20
144.6666666666667993
 30
0.0
 11
100.0
 21
155.3333333333335133
 31
0.0
  0
LINE
  5
1C85
  8
0
 10
90.0999999999999943
 20
137.6776514391524984
 30
0.0
 11
81.7499999999999716
 21
137.6776514391524984
 31
0.0
  0
LINE
  5
1C86
  8
0
 10
90.0999999999999943
 20
162.3223485608480132
 30
0.0
 11
81.7499999999999716
 21
162.3223485608480132
 31
0.0
  0
LINE
  5
1C87
  8
0
 10
129.2330000000000041
 20
146.0000000000001137
 30
0.0
 11
129.2330000000000041
 21
154.0000000000001137
 31
0.0
  0
LINE
  5
1C88
  8
0
 10
119.9999999999999005
 20
146.0000000000001137
 30
0.0
 11
120.0
 21
154.0000000000001137
 31
0.0
  0
LINE
  5
1C89
  8
0
 10
129.9999999999998863
 20
146.7670000000001096
 30
0.0
 11
129.9999999999998863
 21
153.2330000000000894
 31
0.0
  0
LINE
  5
1C8A
  8
0
 10
81.7499999999999716
 20
62.5000000000000924
 30
0.0
 11
80.9999999999999432
 21
61.7500000000000711
 31
0.0
  0
LINE
  5
1C8B
  8
0
 10
81.0000000000000568
 20
38.2500000000000924
 30
0.0
 11
81.7500000000000142
 21
37.5000000000000924
 31
0.0
  0
LINE
  5
1C8C
  8
0
 10
91.2500000000000568
 20
37.4900000000001228
 30
0.0
 11
92.0000000000000568
 21
38.2400000000001228
 31
0.0
  0
LINE
  5
1C8D
  8
0
 10
91.9999999999999289
 20
61.7600000000001188
 30
0.0
 11
91.2499999999999432
 21
62.5100000000001188
 31
0.0
  0
LINE
  5
1C8E
  8
0
 10
90.1000000000000512
 20
37.4900000000001228
 30
0.0
 11
91.2500000000000568
 21
37.4900000000001228
 31
0.0
  0
LINE
  5
1C8F
  8
0
 10
91.2499999999999432
 20
62.5100000000001188
 30
0.0
 11
90.0999999999999375
 21
62.5100000000001188
 31
0.0
  0
LINE
  5
1C90
  8
0
 10
92.0000000000000568
 20
42.0000000000001208
 30
0.0
 11
98.2500000000000568
 21
42.0000000000001492
 31
0.0
  0
LINE
  5
1C91
  8
0
 10
98.2499999999999432
 20
58.0000000000001421
 30
0.0
 11
91.9999999999999289
 21
58.0000000000001208
 31
0.0
  0
LINE
  5
1C92
  8
0
 10
98.2500000000000568
 20
42.0000000000001492
 30
0.0
 11
99.0000000000000568
 21
42.7500000000001492
 31
0.0
  0
LINE
  5
1C93
  8
0
 10
98.9999999999999432
 20
57.2500000000001492
 30
0.0
 11
98.2499999999999432
 21
58.0000000000001421
 31
0.0
  0
LINE
  5
1C94
  8
0
 10
99.0000000000000568
 20
44.6666666666668135
 30
0.0
 11
100.0
 21
44.6666666666668135
 31
0.0
  0
LINE
  5
1C95
  8
0
 10
99.9999999999999432
 20
55.3333333333334778
 30
0.0
 11
98.9999999999999432
 21
55.3333333333334778
 31
0.0
  0
LINE
  5
1C96
  8
0
 10
120.0
 20
46.0000000000002132
 30
0.0
 11
129.2330000000000041
 21
46.0000000000002487
 31
0.0
  0
LINE
  5
1C97
  8
0
 10
129.2330000000000041
 20
54.0000000000002629
 30
0.0
 11
119.9999999999999005
 21
54.0000000000002274
 31
0.0
  0
LINE
  5
1C98
  8
0
 10
129.2330000000000041
 20
46.0000000000002487
 30
0.0
 11
129.9999999999998863
 21
46.7670000000002588
 31
0.0
  0
LINE
  5
1C99
  8
0
 10
129.9999999999998863
 20
53.2330000000002528
 30
0.0
 11
129.2330000000000041
 21
54.0000000000002629
 31
0.0
  0
LINE
  5
1C9A
  8
0
 10
100.0
 20
46.7500000000001421
 30
0.0
 11
119.9999999999999005
 21
46.7500000000002203
 31
0.0
  0
LINE
  5
1C9B
  8
0
 10
119.9999999999999005
 20
53.2500000000002274
 30
0.0
 11
99.9999999999999432
 21
53.2500000000001634
 31
0.0
  0
LINE
  5
1C9C
  8
0
 10
81.7499999999999716
 20
37.5000000000000213
 30
0.0
 11
90.0999999999999943
 21
37.5000000000000497
 31
0.0
  0
LINE
  5
1C9D
  8
0
 10
90.0999999999999943
 20
62.5000000000000995
 30
0.0
 11
81.7499999999999716
 21
62.5000000000000711
 31
0.0
  0
LINE
  5
1C9E
  8
0
 10
81.7499999999999716
 20
62.5000000000002913
 30
0.0
 11
81.7499999999999716
 21
62.499925686889199
 31
0.0
  0
LINE
  5
1CA0
  8
0
 10
81.7499999999999716
 20
62.3365374250666022
 30
0.0
 11
81.7499999999999716
 21
61.8086498880318302
 31
0.0
  0
LINE
  5
1CA2
  8
0
 10
81.7499999999996732
 20
61.0138710381784506
 30
0.0
 11
81.7499999999999716
 21
59.8377236437243809
 31
0.0
  0
LINE
  5
1CA4
  8
0
 10
81.7499999999999716
 20
58.4976808264863166
 30
0.0
 11
81.7499999999999716
 21
56.8007273946091615
 31
0.0
  0
LINE
  5
1CA6
  8
0
 10
81.7500000000003837
 20
55.0606350421408806
 30
0.0
 11
81.7499999999999716
 21
53.0267668081299988
 31
0.0
  0
LINE
  5
1CA8
  8
0
 10
81.7499999999994458
 20
51.0751909271362123
 30
0.0
 11
81.7499999999999716
 21
48.9248090728639582
 31
0.0
  0
LINE
  5
1CAA
  8
0
 10
81.7499999999997442
 20
46.9732331918701576
 30
0.0
 11
81.7499999999999716
 21
44.93936495785929
 31
0.0
  0
LINE
  5
1CAC
  8
0
 10
81.7499999999999716
 20
43.1992726053910019
 30
0.0
 11
81.7499999999999716
 21
41.5023191735138326
 31
0.0
  0
LINE
  5
1CAE
  8
0
 10
81.7500000000003837
 20
40.1622763562758109
 30
0.0
 11
81.7499999999999716
 21
38.9861289618217128
 31
0.0
  0
LINE
  5
1CB0
  8
0
 10
81.7499999999996305
 20
38.1913501119683616
 30
0.0
 11
81.7499999999999716
 21
37.6634625749335967
 31
0.0
  0
LINE
  5
1CB2
  8
0
 10
81.7499999999999716
 20
37.5000743131109715
 30
0.0
 11
81.7500000000000142
 21
37.5000000000000924
 31
0.0
  0
LINE
  5
1CB3
  8
0
 10
81.0000000000000568
 20
38.2500000000000924
 30
0.0
 11
80.9999999999999432
 21
61.7500000000000711
 31
0.0
  0
LINE
  5
1CB4
  8
0
 10
90.0999999999999943
 20
51.0751909271362408
 30
0.0
 11
81.7499999999994458
 21
51.0751909271362123
 31
0.0
  0
LINE
  5
1CB5
  8
0
 10
90.0999999999999943
 20
53.0267668081300414
 30
0.0
 11
81.7499999999999716
 21
53.0267668081299988
 31
0.0
  0
LINE
  5
1CB6
  8
0
 10
90.0999999999999943
 20
46.9732331918701789
 30
0.0
 11
81.7499999999997442
 21
46.9732331918701576
 31
0.0
  0
LINE
  5
1CB7
  8
0
 10
90.0999999999999943
 20
48.9248090728639795
 30
0.0
 11
81.7499999999999716
 21
48.9248090728639582
 31
0.0
  0
LINE
  5
1CB8
  8
0
 10
91.2500000000000568
 20
37.4900000000001228
 30
0.0
 11
91.2499999999999432
 21
62.5100000000001188
 31
0.0
  0
LINE
  5
1CB9
  8
0
 10
92.0000000000000568
 20
38.2400000000001228
 30
0.0
 11
91.9999999999999289
 21
61.7600000000001188
 31
0.0
  0
LINE
  5
1CBA
  8
0
 10
90.1000000000000512
 20
37.4900000000001228
 30
0.0
 11
90.0999999999999375
 21
62.5100000000001188
 31
0.0
  0
LINE
  5
1CBB
  8
0
 10
90.0999999999999943
 20
44.9393649578593184
 30
0.0
 11
81.7499999999999716
 21
44.93936495785929
 31
0.0
  0
LINE
  5
1CBC
  8
0
 10
90.0999999999999943
 20
55.060635042140909
 30
0.0
 11
81.7500000000003837
 21
55.0606350421408806
 31
0.0
  0
LINE
  5
1CBD
  8
0
 10
90.0999999999999943
 20
56.80072739460919
 30
0.0
 11
81.7499999999999716
 21
56.8007273946091615
 31
0.0
  0
LINE
  5
1CBE
  8
0
 10
90.0999999999999943
 20
43.1992726053910303
 30
0.0
 11
81.7499999999999716
 21
43.1992726053910019
 31
0.0
  0
LINE
  5
1CBF
  8
0
 10
90.0999999999999943
 20
41.502319173513861
 30
0.0
 11
81.7499999999999716
 21
41.5023191735138326
 31
0.0
  0
LINE
  5
1CC0
  8
0
 10
90.0999999999999943
 20
58.4976808264863521
 30
0.0
 11
81.7499999999999716
 21
58.4976808264863166
 31
0.0
  0
LINE
  5
1CC1
  8
0
 10
90.0999999999999943
 20
40.1622763562758465
 30
0.0
 11
81.7500000000003837
 21
40.1622763562758109
 31
0.0
  0
LINE
  5
1CC2
  8
0
 10
90.0999999999999943
 20
59.8377236437244093
 30
0.0
 11
81.7499999999999716
 21
59.8377236437243809
 31
0.0
  0
LINE
  5
1CC3
  8
0
 10
98.2500000000000568
 20
42.0000000000001492
 30
0.0
 11
98.2499999999999432
 21
58.0000000000001421
 31
0.0
  0
LINE
  5
1CC4
  8
0
 10
99.0000000000000568
 20
42.7500000000001492
 30
0.0
 11
98.9999999999999432
 21
57.2500000000001492
 31
0.0
  0
LINE
  5
1CC5
  8
0
 10
90.0999999999999943
 20
38.986128961821727
 30
0.0
 11
81.7499999999999716
 21
38.9861289618217128
 31
0.0
  0
LINE
  5
1CC6
  8
0
 10
90.0999999999999943
 20
61.0138710381784719
 30
0.0
 11
81.7499999999996732
 21
61.0138710381784506
 31
0.0
  0
LINE
  5
1CC7
  8
0
 10
90.0999999999999943
 20
38.1913501119683829
 30
0.0
 11
81.7499999999996305
 21
38.1913501119683616
 31
0.0
  0
LINE
  5
1CC8
  8
0
 10
90.0999999999999943
 20
61.8086498880318373
 30
0.0
 11
81.7499999999999716
 21
61.8086498880318302
 31
0.0
  0
LINE
  5
1CC9
  8
0
 10
100.0
 20
44.6666666666668135
 30
0.0
 11
99.9999999999999432
 21
55.3333333333334778
 31
0.0
  0
LINE
  5
1CCA
  8
0
 10
90.0999999999999943
 20
37.6634625749336109
 30
0.0
 11
81.7499999999999716
 21
37.6634625749335967
 31
0.0
  0
LINE
  5
1CCB
  8
0
 10
90.0999999999999943
 20
62.3365374250666022
 30
0.0
 11
81.7499999999999716
 21
62.3365374250666022
 31
0.0
  0
LINE
  5
1CCC
  8
0
 10
129.2330000000000041
 20
46.0000000000002487
 30
0.0
 11
129.2330000000000041
 21
54.0000000000002629
 31
0.0
  0
LINE
  5
1CCD
  8
0
 10
120.0
 20
46.0000000000002132
 30
0.0
 11
119.9999999999999005
 21
54.0000000000002274
 31
0.0
  0
LINE
  5
1CCE
  8
0
 10
129.9999999999998863
 20
46.7670000000002588
 30
0.0
 11
129.9999999999998863
 21
53.2330000000002528
 31
0.0
  0
LINE
  5
1CCF
  8
0
 10
90.0999999999999943
 20
37.5000743131110212
 30
0.0
 11
81.7499999999999716
 21
37.5000743131109715
 31
0.0
  0
LINE
  5
1CD0
  8
0
 10
90.0999999999999943
 20
62.499925686889263
 30
0.0
 11
81.7499999999999716
 21
62.499925686889199
 31
0.0
  0
LINE
  5
1CD1
  8
1
 10
132.4999999999998863
 20
50.0000000000003766
 30
0.0
 11
78.5000000000000284
 21
50.0
 31
0.0
  0
LINE
  5
1CD2
  8
3
 10
120.0
 20
53.3235000000003723
 30
0.0
 11
129.9094999999998095
 21
53.3235000000003367
 31
0.0
  0
LINE
  5
1CD3
  8
3
 10
120.0
 20
46.6765000000001606
 30
0.0
 11
129.9094999999998947
 21
46.6765000000001606
 31
0.0
  0
LINE
  5
1CD4
  8
3
 10
120.0
 20
103.3235000000000952
 30
0.0
 11
129.9094999999998095
 21
103.3235000000000952
 31
0.0
  0
LINE
  5
1CD5
  8
3
 10
120.0
 20
96.6764999999999191
 30
0.0
 11
129.9094999999998947
 21
96.6764999999999191
 31
0.0
  0
LINE
  5
1CD6
  8
3
 10
120.0
 20
153.3235000000001094
 30
0.0
 11
129.9094999999998095
 21
153.3235000000001094
 31
0.0
  0
LINE
  5
1CD7
  8
3
 10
120.0
 20
146.6764999999998906
 30
0.0
 11
129.9094999999998947
 21
146.6764999999998906
 31
0.0
  0
LINE
  5
1CD8
  8
1
 10
132.4999999999998863
 20
100.000000000000199
 30
0.0
 11
78.5000000000000284
 21
99.9999999999998437
 31
0.0
  0
LINE
  5
1CD9
  8
1
 10
132.4999999999998863
 20
150.000000000000199
 30
0.0
 11
78.5000000000000284
 21
149.999999999999801
 31
0.0
  0
LINE
  5
1CDA
  8
1
 10
65.0099999999999341
 20
100.0000000000000995
 30
0.0
 11
34.9899999999998386
 21
100.0000000000000995
 31
0.0
  0
LINE
  5
1CDB
  8
1
 10
50.0
 20
115.0100000000001046
 30
0.0
 11
50.0
 21
84.9900000000000659
 31
0.0
  0
CIRCLE
  5
1CDC
  8
0
 10
50.0
 20
100.0000000000000995
 30
0.0
 40
12.5100000000000193
  0
ARC
  5
1D0A
  8
0
 10
49.9999999999999716
 20
113.1400001934718063
 30
0.0
 40
1.2000001095063371
 50
214.4722632163853859
 51
325.5277367836137046
  0
ARC
  5
1D0B
  8
0
 10
45.7334489118302585
 20
112.4280387389352995
 30
0.0
 40
1.2000001095063371
 50
233.4196316374379876
 51
344.4751052046664768
  0
ARC
  5
1D0C
  8
0
 10
41.9292448364249708
 20
110.369306446145103
 30
0.0
 40
1.2000001095063371
 50
252.3670000584907029
 51
3.4224736257192712
  0
ARC
  5
1D0D
  8
0
 10
38.9996323136623104
 20
107.1868989035477995
 30
0.0
 40
1.2000001095063371
 50
271.3143684795433046
 51
22.3698420467714989
  0
ARC
  5
1D0E
  8
0
 10
37.2620803180056228
 20
103.2256793485248068
 30
0.0
 40
1.2000001095063371
 50
290.2617369005960768
 51
41.3172104678243031
  0
ARC
  5
1D0F
  8
0
 10
36.9048795690813805
 20
98.9149073845169937
 30
0.0
 40
1.2000001095063371
 50
309.2091053216487921
 51
60.2645788888769829
  0
ARC
  5
1D10
  8
0
 10
37.96673831057619
 20
94.7217220423434867
 30
0.0
 40
1.2000001095063371
 50
328.1564737427008822
 51
79.211947309929883
  0
ARC
  5
1D11
  8
0
 10
40.3325876714131368
 20
91.1005200178031345
 30
0.0
 40
1.2000001095063371
 50
347.1038421637539955
 51
98.1593157309824704
  0
ARC
  5
1D12
  8
0
 10
43.7460511634103284
 20
88.4437147389936342
 30
0.0
 40
1.2000001095063371
 50
6.0512105848061477
 51
117.106684152035001
  0
ARC
  5
1D13
  8
0
 10
47.8372270518665488
 20
87.0392122824553951
 30
0.0
 40
1.2000001095063371
 50
24.9985790058588897
 51
136.054052573087489
  0
ARC
  5
1D14
  8
0
 10
52.1627729481330391
 20
87.0392122824553525
 30
0.0
 40
1.2000001095063371
 50
43.9459474269116228
 51
155.0014209941400054
  0
ARC
  5
1D15
  8
0
 10
56.2539488365892879
 20
88.443714738993549
 30
0.0
 40
1.2000001095063371
 50
62.8933158479642884
 51
173.948789415193005
  0
ARC
  5
1D16
  8
0
 10
59.6674123285865079
 20
91.1005200178030066
 30
0.0
 40
1.2000001095063371
 50
81.8406842690167338
 51
192.8961578362452087
  0
ARC
  5
1D17
  8
0
 10
62.0332616894234974
 20
94.7217220423433162
 30
0.0
 40
1.2000001095063371
 50
100.788052690069307
 51
211.8435262572982083
  0
ARC
  5
1D18
  8
0
 10
63.0951204309183993
 20
98.914907384516809
 30
0.0
 40
1.2000001095063371
 50
119.7354211111218945
 51
230.7908946783510089
  0
ARC
  5
1D19
  8
0
 10
62.7379196819942209
 20
103.2256793485245936
 30
0.0
 40
1.2000001095063371
 50
138.6827895321748088
 51
249.7382630994034969
  0
ARC
  5
1D1A
  8
0
 10
61.0003676863375617
 20
107.1868989035477
 30
0.0
 40
1.2000001095063371
 50
157.6301579532276946
 51
268.6856315204558996
  0
ARC
  5
1D1B
  8
0
 10
58.070755163574951
 20
110.3693064461450035
 30
0.0
 40
1.2000001095063371
 50
176.5775263742798984
 51
287.6329999415085013
  0
ARC
  5
1D1C
  8
0
 10
54.2665510881696775
 20
112.4280387389352001
 30
0.0
 40
1.2000001095063371
 50
195.5248947953326137
 51
306.5803683625608755
  0
POLYLINE
  5
1D2C
  8
0
 66
     1
 10
0.0
 20
0.0
 30
0.0
  0
VERTEX
  5
1DAA
  8
0
 10
81.7500000000000142
 20
37.5000743131109928
 30
0.0
  0
VERTEX
  5
1DAB
  8
0
 10
81.7292169121700454
 20
37.5209051666514313
 30
0.0
  0
VERTEX
  5
1DAC
  8
0
 10
81.7086404272886568
 20
37.541543480502277
 30
0.0
  0
VERTEX
  5
1DAD
  8
0
 10
81.6882746488039402
 20
37.5619869745607033
 30
0.0
  0
VERTEX
  5
1DAE
  8
0
 10
81.6681236801640296
 20
37.582233368723891
 30
0.0
  0
VERTEX
  5
1DAF
  8
0
 10
81.648191624817045
 20
37.6022803828890133
 30
0.0
  0
VERTEX
  5
1DB0
  8
0
 10
81.6284825862111489
 20
37.6221257369532367
 30
0.0
  0
VERTEX
  5
1DB1
  8
0
 10
81.6090006677944473
 20
37.6417671508137701
 30
0.0
  0
VERTEX
  5
1DB2
  8
0
 10
81.5897499730150457
 20
37.6612023443677728
 30
0.0
  0
VERTEX
  5
1DB3
  8
0
 10
81.5707346053210784
 20
37.6804290375124182
 30
0.0
  0
VERTEX
  5
1DB4
  8
0
 10
81.5519586681606938
 20
37.6994449501449012
 30
0.0
  0
VERTEX
  5
1DB5
  8
0
 10
81.5334203245918161
 20
37.7182538497371667
 30
0.0
  0
VERTEX
  5
1DB6
  8
0
 10
81.5151084919164646
 20
37.7368696507652714
 30
0.0
  0
VERTEX
  5
1DB7
  8
0
 10
81.497040999808064
 20
37.7552777288721373
 30
0.0
  0
VERTEX
  5
1DB8
  8
0
 10
81.4792381972349347
 20
37.7734609340606866
 30
0.0
  0
VERTEX
  5
1DB9
  8
0
 10
81.4617204331653397
 20
37.7914021163337992
 30
0.0
  0
VERTEX
  5
1DBA
  8
0
 10
81.4445080565675141
 20
37.809084125694369
 30
0.0
  0
VERTEX
  5
1DBB
  8
0
 10
81.4276214164097496
 20
37.8264898121452902
 30
0.0
  0
VERTEX
  5
1DBC
  8
0
 10
81.4110808616603236
 20
37.8436020256894494
 30
0.0
  0
VERTEX
  5
1DBD
  8
0
 10
81.3949067412875422
 20
37.8604036163297408
 30
0.0
  0
VERTEX
  5
1DBE
  8
0
 10
81.379119404259626
 20
37.8768774340690513
 30
0.0
  0
VERTEX
  5
1DBF
  8
0
 10
81.3637406440922888
 20
37.8930048498728311
 30
0.0
  0
VERTEX
  5
1DC0
  8
0
 10
81.3488238674381989
 20
37.9087349782055014
 30
0.0
  0
VERTEX
  5
1DC1
  8
0
 10
81.3344068703810734
 20
37.9240331931667569
 30
0.0
  0
VERTEX
  5
1DC2
  8
0
 10
81.3205149080281444
 20
37.9388777493762603
 30
0.0
  0
VERTEX
  5
1DC3
  8
0
 10
81.3071732354865588
 20
37.9532469014536318
 30
0.0
  0
VERTEX
  5
1DC4
  8
0
 10
81.2944071078636057
 20
37.96711890401847
 30
0.0
  0
VERTEX
  5
1DC5
  8
0
 10
81.2822417802664035
 20
37.9804720116904377
 30
0.0
  0
VERTEX
  5
1DC6
  8
0
 10
81.2707025078022127
 20
37.9932844790891835
 30
0.0
  0
VERTEX
  5
1DC7
  8
0
 10
81.2598145455782515
 20
38.0055345608342989
 30
0.0
  0
VERTEX
  5
1DC8
  8
0
 10
81.2496031487016808
 20
38.0172005115454397
 30
0.0
  0
VERTEX
  5
1DC9
  8
0
 10
81.240093572279747
 20
38.0282605858422329
 30
0.0
  0
VERTEX
  5
1DCA
  8
0
 10
81.2313304074893381
 20
38.0386709297393395
 30
0.0
  0
VERTEX
  5
1DCB
  8
0
 10
81.2233639074870837
 20
38.0483789351160979
 30
0.0
  0
VERTEX
  5
1DCC
  8
0
 10
81.2162098800571073
 20
38.0573697769531805
 30
0.0
  0
VERTEX
  5
1DCD
  8
0
 10
81.209883712672962
 20
38.065629100674137
 30
0.0
  0
VERTEX
  5
1DCE
  8
0
 10
81.2044007928080873
 20
38.0731425517025812
 30
0.0
  0
VERTEX
  5
1DCF
  8
0
 10
81.1997765079360647
 20
38.0798957754620702
 30
0.0
  0
VERTEX
  5
1DD0
  8
0
 10
81.1960262455303337
 20
38.0858744173761892
 30
0.0
  0
VERTEX
  5
1DD1
  8
0
 10
81.193165393064433
 20
38.0910641228685307
 30
0.0
  0
VERTEX
  5
1DD2
  8
0
 10
81.1912093380118733
 20
38.0954505373626517
 30
0.0
  0
VERTEX
  5
1DD3
  8
0
 10
81.1901734678461366
 20
38.0990193062821376
 30
0.0
  0
VERTEX
  5
1DD4
  8
0
 10
81.1900745373964128
 20
38.1017522476656794
 30
0.0
  0
VERTEX
  5
1DD5
  8
0
 10
81.1909238957230457
 20
38.1036219997404686
 30
0.0
  0
VERTEX
  5
1DD6
  8
0
 10
81.1927070111450035
 20
38.1046358265007825
 30
0.0
  0
VERTEX
  5
1DD7
  8
0
 10
81.1954066243425956
 20
38.1048059256716201
 30
0.0
  0
VERTEX
  5
1DD8
  8
0
 10
81.1990054759961168
 20
38.1041444949780512
 30
0.0
  0
VERTEX
  5
1DD9
  8
0
 10
81.2034863067857202
 20
38.1026637321451176
 30
0.0
  0
VERTEX
  5
1DDA
  8
0
 10
81.2088318573917718
 20
38.1003758348978607
 30
0.0
  0
VERTEX
  5
1DDB
  8
0
 10
81.2150248684944955
 20
38.0972930009613222
 30
0.0
  0
VERTEX
  5
1DDC
  8
0
 10
81.2220480807742149
 20
38.0934274280605365
 30
0.0
  0
VERTEX
  5
1DDD
  8
0
 10
81.2298842349111681
 20
38.0887913139205594
 30
0.0
  0
VERTEX
  5
1DDE
  8
0
 10
81.2385159676108515
 20
38.0833969267217682
 30
0.0
  0
VERTEX
  5
1DDF
  8
0
 10
81.2479145737131461
 20
38.0772650897347091
 30
0.0
  0
VERTEX
  5
1DE0
  8
0
 10
81.2580439028855039
 20
38.0704243981751418
 30
0.0
  0
VERTEX
  5
1DE1
  8
0
 10
81.2688708815994545
 20
38.0629018884206474
 30
0.0
  0
VERTEX
  5
1DE2
  8
0
 10
81.2803624363263992
 20
38.0547245968487928
 30
0.0
  0
VERTEX
  5
1DE3
  8
0
 10
81.2924854935378676
 20
38.0459195598371593
 30
0.0
  0
VERTEX
  5
1DE4
  8
0
 10
81.3052069797052468
 20
38.036513813763321
 30
0.0
  0
VERTEX
  5
1DE5
  8
0
 10
81.3184938213000237
 20
38.0265343950048376
 30
0.0
  0
VERTEX
  5
1DE6
  8
0
 10
81.3323129447936992
 20
38.0160083399392974
 30
0.0
  0
VERTEX
  5
1DE7
  8
0
 10
81.3466312766576891
 20
38.0049626849442888
 30
0.0
  0
VERTEX
  5
1DE8
  8
0
 10
81.3614157433634659
 20
37.9934244663973573
 30
0.0
  0
VERTEX
  5
1DE9
  8
0
 10
81.3766356770387347
 20
37.9814198659641491
 30
0.0
  0
VERTEX
  5
1DEA
  8
0
 10
81.3922735456391706
 20
37.9689663252010305
 30
0.0
  0
VERTEX
  5
1DEB
  8
0
 10
81.4083152734247051
 20
37.9560762339890303
 30
0.0
  0
VERTEX
  5
1DEC
  8
0
 10
81.4247467145232378
 20
37.9427619240031433
 30
0.0
  0
VERTEX
  5
1DED
  8
0
 10
81.4415537230626256
 20
37.9290357269184071
 30
0.0
  0
VERTEX
  5
1DEE
  8
0
 10
81.4587221531707826
 20
37.9149099744098379
 30
0.0
  0
VERTEX
  5
1DEF
  8
0
 10
81.4762378589755656
 20
37.9003969981524591
 30
0.0
  0
VERTEX
  5
1DF0
  8
0
 10
81.4940866946048175
 20
37.8855091298212798
 30
0.0
  0
VERTEX
  5
1DF1
  8
0
 10
81.5122545141864805
 20
37.8702587010913305
 30
0.0
  0
VERTEX
  5
1DF2
  8
0
 10
81.5307271718483833
 20
37.854658043637599
 30
0.0
  0
VERTEX
  5
1DF3
  8
0
 10
81.5494905217184254
 20
37.8387194891351371
 30
0.0
  0
VERTEX
  5
1DF4
  8
0
 10
81.5685304179245065
 20
37.8224553692589467
 30
0.0
  0
VERTEX
  5
1DF5
  8
0
 10
81.5878327145944979
 20
37.8058780156840513
 30
0.0
  0
VERTEX
  5
1DF6
  8
0
 10
81.6073832658562424
 20
37.7889997600854599
 30
0.0
  0
VERTEX
  5
1DF7
  8
0
 10
81.6271679258376253
 20
37.7718329341382031
 30
0.0
  0
VERTEX
  5
1DF8
  8
0
 10
81.6471725486665747
 20
37.754389869517297
 30
0.0
  0
VERTEX
  5
1DF9
  8
0
 10
81.6673829884709335
 20
37.7366828978977509
 30
0.0
  0
VERTEX
  5
1DFA
  8
0
 10
81.6877850993785586
 20
37.7187243509546022
 30
0.0
  0
VERTEX
  5
1DFB
  8
0
 10
81.7083647355173923
 20
37.7005265603628317
 30
0.0
  0
VERTEX
  5
1DFC
  8
0
 10
81.7291077510152491
 20
37.6821018577974982
 30
0.0
  0
VERTEX
  5
1DFD
  8
0
 10
81.7500000000000142
 20
37.6634625749335967
 30
0.0
  0
SEQEND
  5
1DFE
  8
0
  0
POLYLINE
  5
1D2D
  8
0
 66
     1
 10
0.0
 20
0.0
 30
0.0
  0
VERTEX
  5
1DFF
  8
0
 10
81.7499999999998579
 20
38.1913501119685179
 30
0.0
  0
VERTEX
  5
1E00
  8
0
 10
81.7292168607344536
 20
38.2150054372100385
 30
0.0
  0
VERTEX
  5
1E01
  8
0
 10
81.7086403332755538
 20
38.2386238802247576
 30
0.0
  0
VERTEX
  5
1E02
  8
0
 10
81.6882745209290704
 20
38.2622056027085833
 30
0.0
  0
VERTEX
  5
1E03
  8
0
 10
81.6681235270009438
 20
38.2857507663574026
 30
0.0
  0
VERTEX
  5
1E04
  8
0
 10
81.6481914547971144
 20
38.3092595328671166
 30
0.0
  0
VERTEX
  5
1E05
  8
0
 10
81.6284824076235225
 20
38.3327320639336335
 30
0.0
  0
VERTEX
  5
1E06
  8
0
 10
81.6090004887860658
 20
38.3561685212528403
 30
0.0
  0
VERTEX
  5
1E07
  8
0
 10
81.589749801590699
 20
38.3795690665206308
 30
0.0
  0
VERTEX
  5
1E08
  8
0
 10
81.5707344493433482
 20
38.4029338614329205
 30
0.0
  0
VERTEX
  5
1E09
  8
0
 10
81.5519585353499536
 20
38.4262630676855892
 30
0.0
  0
VERTEX
  5
1E0A
  8
0
 10
81.5334202257490261
 20
38.4495648595920514
 30
0.0
  0
VERTEX
  5
1E0B
  8
0
 10
81.5151084470088847
 20
38.4728633143934289
 30
0.0
  0
VERTEX
  5
1E0C
  8
0
 10
81.4970410235878546
 20
38.4961476945337679
 30
0.0
  0
VERTEX
  5
1E0D
  8
0
 10
81.4792382979292853
 20
38.5194040471037624
 30
0.0
  0
VERTEX
  5
1E0E
  8
0
 10
81.4617206124765261
 20
38.5426184191940919
 30
0.0
  0
VERTEX
  5
1E0F
  8
0
 10
81.4445083096728979
 20
38.5657768578954503
 30
0.0
  0
VERTEX
  5
1E10
  8
0
 10
81.4276217319617501
 20
38.5888654102985313
 30
0.0
  0
VERTEX
  5
1E11
  8
0
 10
81.4110812217864463
 20
38.6118701234940218
 30
0.0
  0
VERTEX
  5
1E12
  8
0
 10
81.3949071215903359
 20
38.6347770445726013
 30
0.0
  0
VERTEX
  5
1E13
  8
0
 10
81.3791197738167114
 20
38.6575722206249566
 30
0.0
  0
VERTEX
  5
1E14
  8
0
 10
81.3637409676394441
 20
38.6802396732371321
 30
0.0
  0
VERTEX
  5
1E15
  8
0
 10
81.3488241515238428
 20
38.7027189632561814
 30
0.0
  0
VERTEX
  5
1E16
  8
0
 10
81.3344071357586529
 20
38.7249712087393476
 30
0.0
  0
VERTEX
  5
1E17
  8
0
 10
81.3205151701207853
 20
38.7469750642349027
 30
0.0
  0
VERTEX
  5
1E18
  8
0
 10
81.3071735043871939
 20
38.7687091842911329
 30
0.0
  0
VERTEX
  5
1E19
  8
0
 10
81.2944073883348466
 20
38.7901522234563032
 30
0.0
  0
VERTEX
  5
1E1A
  8
0
 10
81.282242071740697
 20
38.8112828362786786
 30
0.0
  0
VERTEX
  5
1E1B
  8
0
 10
81.2707028043816138
 20
38.8320796773065595
 30
0.0
  0
VERTEX
  5
1E1C
  8
0
 10
81.2598148360346215
 20
38.8525214010881967
 30
0.0
  0
VERTEX
  5
1E1D
  8
0
 10
81.2496034164766456
 20
38.8725866621718978
 30
0.0
  0
VERTEX
  5
1E1E
  8
0
 10
81.240093795484654
 20
38.8922541151059065
 30
0.0
  0
VERTEX
  5
1E1F
  8
0
 10
81.2313305761128959
 20
38.9114625981992432
 30
0.0
  0
VERTEX
  5
1E20
  8
0
 10
81.223364035266016
 20
38.9301291200025474
 30
0.0
  0
VERTEX
  5
1E21
  8
0
 10
81.2162099786195739
 20
38.9482344757662489
 30
0.0
  0
VERTEX
  5
1E22
  8
0
 10
81.2098837911950397
 20
38.9657602810279684
 30
0.0
  0
VERTEX
  5
1E23
  8
0
 10
81.2044008580136847
 20
38.9826881513253198
 30
0.0
  0
VERTEX
  5
1E24
  8
0
 10
81.1997765640968652
 20
38.9989997021959525
 30
0.0
  0
VERTEX
  5
1E25
  8
0
 10
81.1960262944659803
 20
39.014676549177473
 30
0.0
  0
VERTEX
  5
1E26
  8
0
 10
81.1931654341423439
 20
39.0297003078075022
 30
0.0
  0
VERTEX
  5
1E27
  8
0
 10
81.191209368147284
 20
39.0440525936236895
 30
0.0
  0
VERTEX
  5
1E28
  8
0
 10
81.1901734815022138
 20
39.0577150221636487
 30
0.0
  0
VERTEX
  5
1E29
  8
0
 10
81.1900745276362841
 20
39.0706556056281329
 30
0.0
  0
VERTEX
  5
1E2A
  8
0
 10
81.1909238605878159
 20
39.0827816524332405
 30
0.0
  0
VERTEX
  5
1E2B
  8
0
 10
81.1927069501305567
 20
39.09407986330136
 30
0.0
  0
VERTEX
  5
1E2C
  8
0
 10
81.195406537471257
 20
39.1045513548361825
 30
0.0
  0
VERTEX
  5
1E2D
  8
0
 10
81.1990053638169229
 20
39.114197243641371
 30
0.0
  0
VERTEX
  5
1E2E
  8
0
 10
81.20348617037439
 20
39.1230186463206024
 30
0.0
  0
VERTEX
  5
1E2F
  8
0
 10
81.2088316983505365
 20
39.1310166794775895
 30
0.0
  0
VERTEX
  5
1E30
  8
0
 10
81.2150246889522407
 20
39.1381924597160022
 30
0.0
  0
VERTEX
  5
1E31
  8
0
 10
81.2220478833863808
 20
39.1445471036395034
 30
0.0
  0
VERTEX
  5
1E32
  8
0
 10
81.2298840228598635
 20
39.1500817278517985
 30
0.0
  0
VERTEX
  5
1E33
  8
0
 10
81.2385157445286268
 20
39.1547974644633214
 30
0.0
  0
VERTEX
  5
1E34
  8
0
 10
81.2479143379614754
 20
39.1587003779907619
 30
0.0
  0
VERTEX
  5
1E35
  8
0
 10
81.2580436502157681
 20
39.1618078060926322
 30
0.0
  0
VERTEX
  5
1E36
  8
0
 10
81.268870608972648
 20
39.1641385880883277
 30
0.0
  0
VERTEX
  5
1E37
  8
0
 10
81.2803621419132014
 20
39.1657115632972292
 30
0.0
  0
VERTEX
  5
1E38
  8
0
 10
81.292485176718543
 20
39.1665455710387675
 30
0.0
  0
VERTEX
  5
1E39
  8
0
 10
81.3052066410697591
 20
39.1666594506323165
 30
0.0
  0
VERTEX
  5
1E3A
  8
0
 10
81.3184934626479929
 20
39.1660720413972925
 30
0.0
  0
VERTEX
  5
1E3B
  8
0
 10
81.3323125691343733
 20
39.1648021826530623
 30
0.0
  0
VERTEX
  5
1E3C
  8
0
 10
81.3466308882099867
 20
39.1628687137190425
 30
0.0
  0
VERTEX
  5
1E3D
  8
0
 10
81.3614153475559192
 20
39.1602904739146425
 30
0.0
  0
VERTEX
  5
1E3E
  8
0
 10
81.3766352770360299
 20
39.1570922375318702
 30
0.0
  0
VERTEX
  5
1E3F
  8
0
 10
81.3922731372585702
 20
39.1533041566318403
 30
0.0
  0
VERTEX
  5
1E40
  8
0
 10
81.4083148531780267
 20
39.1489395356474077
 30
0.0
  0
VERTEX
  5
1E41
  8
0
 10
81.4247462800015285
 20
39.1440109543665926
 30
0.0
  0
VERTEX
  5
1E42
  8
0
 10
81.4415532729361473
 20
39.1385309925773726
 30
0.0
  0
VERTEX
  5
1E43
  8
0
 10
81.4587216871890405
 20
39.1325122300677819
 30
0.0
  0
VERTEX
  5
1E44
  8
0
 10
81.4762373779672657
 20
39.1259672466258124
 30
0.0
  0
VERTEX
  5
1E45
  8
0
 10
81.4940862004779092
 20
39.1189086220394699
 30
0.0
  0
VERTEX
  5
1E46
  8
0
 10
81.5122540099281139
 20
39.1113489360967606
 30
0.0
  0
VERTEX
  5
1E47
  8
0
 10
81.5307266615249659
 20
39.1033007685856973
 30
0.0
  0
VERTEX
  5
1E48
  8
0
 10
81.54949001047558
 20
39.0947766992942718
 30
0.0
  0
VERTEX
  5
1E49
  8
0
 10
81.5685299119870137
 20
39.0857893080105114
 30
0.0
  0
VERTEX
  5
1E4A
  8
0
 10
81.5878322212664244
 20
39.0763511745223866
 30
0.0
  0
VERTEX
  5
1E4B
  8
0
 10
81.607382793520884
 20
39.0664748786179317
 30
0.0
  0
VERTEX
  5
1E4C
  8
0
 10
81.627167483957507
 20
39.0561730000851526
 30
0.0
  0
VERTEX
  5
1E4D
  8
0
 10
81.6471721477833512
 20
39.0454581187120411
 30
0.0
  0
VERTEX
  5
1E4E
  8
0
 10
81.6673826402055454
 20
39.0343428142866031
 30
0.0
  0
VERTEX
  5
1E4F
  8
0
 10
81.6877848164312041
 20
39.0228396665968376
 30
0.0
  0
VERTEX
  5
1E50
  8
0
 10
81.7083645316674563
 20
39.0109612554307787
 30
0.0
  0
VERTEX
  5
1E51
  8
0
 10
81.7291076411213453
 20
38.9987201605764113
 30
0.0
  0
VERTEX
  5
1E52
  8
0
 10
81.75
 20
38.9861289618217413
 30
0.0
  0
SEQEND
  5
1E53
  8
0
  0
POLYLINE
  5
1D2E
  8
0
 66
     1
 10
0.0
 20
0.0
 30
0.0
  0
VERTEX
  5
1E54
  8
0
 10
81.750000000000199
 20
40.1622763562756191
 30
0.0
  0
VERTEX
  5
1E55
  8
0
 10
81.7292168605375338
 20
40.1861926803248295
 30
0.0
  0
VERTEX
  5
1E56
  8
0
 10
81.708640333338991
 20
40.2102317846371733
 30
0.0
  0
VERTEX
  5
1E57
  8
0
 10
81.6882745217002935
 20
40.2343962550472511
 30
0.0
  0
VERTEX
  5
1E58
  8
0
 10
81.6681235289171639
 20
40.2586886773897419
 30
0.0
  0
VERTEX
  5
1E59
  8
0
 10
81.6481914582853392
 20
40.2831116374992604
 30
0.0
  0
VERTEX
  5
1E5A
  8
0
 10
81.6284824131004854
 20
40.3076677212104713
 30
0.0
  0
VERTEX
  5
1E5B
  8
0
 10
81.6090004966584104
 20
40.3323595143580107
 30
0.0
  0
VERTEX
  5
1E5C
  8
0
 10
81.5897498122547375
 20
40.3571896027765291
 30
0.0
  0
VERTEX
  5
1E5D
  8
0
 10
81.5707344631852891
 20
40.3821605723006485
 30
0.0
  0
VERTEX
  5
1E5E
  8
0
 10
81.5519585527457025
 20
40.4072750087650405
 30
0.0
  0
VERTEX
  5
1E5F
  8
0
 10
81.5334202472604233
 20
40.4325446104215516
 30
0.0
  0
VERTEX
  5
1E60
  8
0
 10
81.515108473752818
 20
40.4580010168250794
 30
0.0
  0
VERTEX
  5
1E61
  8
0
 10
81.4970410563591656
 20
40.4836385359183311
 30
0.0
  0
VERTEX
  5
1E62
  8
0
 10
81.4792383371210462
 20
40.509447917773123
 30
0.0
  0
VERTEX
  5
1E63
  8
0
 10
81.4617206580799973
 20
40.5354199124612293
 30
0.0
  0
VERTEX
  5
1E64
  8
0
 10
81.4445083612776273
 20
40.5615452700544878
 30
0.0
  0
VERTEX
  5
1E65
  8
0
 10
81.4276217887554594
 20
40.5878147406246867
 30
0.0
  0
VERTEX
  5
1E66
  8
0
 10
81.4110812825551022
 20
40.6142190742436426
 30
0.0
  0
VERTEX
  5
1E67
  8
0
 10
81.3949071847180932
 20
40.6407490209831508
 30
0.0
  0
VERTEX
  5
1E68
  8
0
 10
81.3791198372860549
 20
40.6673953309150207
 30
0.0
  0
VERTEX
  5
1E69
  8
0
 10
81.3637410291625827
 20
40.6941464037031366
 30
0.0
  0
VERTEX
  5
1E6A
  8
0
 10
81.3488242113229347
 20
40.7209388357487825
 30
0.0
  0
VERTEX
  5
1E6B
  8
0
 10
81.3344071948940268
 20
40.7477337159104067
 30
0.0
  0
VERTEX
  5
1E6C
  8
0
 10
81.3205152293120364
 20
40.7745124066273235
 30
0.0
  0
VERTEX
  5
1E6D
  8
0
 10
81.3071735640131692
 20
40.8012562703388326
 30
0.0
  0
VERTEX
  5
1E6E
  8
0
 10
81.294407448433617
 20
40.8279466694842483
 30
0.0
  0
VERTEX
  5
1E6F
  8
0
 10
81.2822421320095998
 20
40.8545649665028634
 30
0.0
  0
VERTEX
  5
1E70
  8
0
 10
81.2707028641773093
 20
40.8810925238340133
 30
0.0
  0
VERTEX
  5
1E71
  8
0
 10
81.259814894372937
 20
40.9075107039169694
 30
0.0
  0
VERTEX
  5
1E72
  8
0
 10
81.2496034720327316
 20
40.9338008691910815
 30
0.0
  0
VERTEX
  5
1E73
  8
0
 10
81.2400938465928562
 20
40.9599443820956211
 30
0.0
  0
VERTEX
  5
1E74
  8
0
 10
81.2313306218364062
 20
40.9858694131548731
 30
0.0
  0
VERTEX
  5
1E75
  8
0
 10
81.2233640761404843
 20
41.0114716047573609
 30
0.0
  0
VERTEX
  5
1E76
  8
0
 10
81.216210015050379
 20
41.0367294512151233
 30
0.0
  0
VERTEX
  5
1E77
  8
0
 10
81.2098838234358169
 20
41.0616225277351674
 30
0.0
  0
VERTEX
  5
1E78
  8
0
 10
81.2044008861663542
 20
41.0861304095245714
 30
0.0
  0
VERTEX
  5
1E79
  8
0
 10
81.1997765881117743
 20
41.1102326717903708
 30
0.0
  0
VERTEX
  5
1E7A
  8
0
 10
81.196026314141676
 20
41.133908889739601
 30
0.0
  0
VERTEX
  5
1E7B
  8
0
 10
81.1931654491257575
 20
41.1571386385793119
 30
0.0
  0
VERTEX
  5
1E7C
  8
0
 10
81.1912093779336743
 20
41.179901493516553
 30
0.0
  0
VERTEX
  5
1E7D
  8
0
 10
81.1901734854350821
 20
41.2021770297583672
 30
0.0
  0
VERTEX
  5
1E7E
  8
0
 10
81.1900745249802185
 20
41.2239229188516276
 30
0.0
  0
VERTEX
  5
1E7F
  8
0
 10
81.1909238509715578
 20
41.2449911913266689
 30
0.0
  0
VERTEX
  5
1E80
  8
0
 10
81.1927069333079316
 20
41.265349427345889
 30
0.0
  0
VERTEX
  5
1E81
  8
0
 10
81.1954065132575238
 20
41.2849875415412129
 30
0.0
  0
VERTEX
  5
1E82
  8
0
 10
81.199005332088575
 20
41.3038954485446013
 30
0.0
  0
VERTEX
  5
1E83
  8
0
 10
81.2034861310692548
 20
41.3220630629879722
 30
0.0
  0
VERTEX
  5
1E84
  8
0
 10
81.2088316514678468
 20
41.339480299503272
 30
0.0
  0
VERTEX
  5
1E85
  8
0
 10
81.2150246345524636
 20
41.35613707272244
 30
0.0
  0
VERTEX
  5
1E86
  8
0
 10
81.222047821591346
 20
41.3720232972774085
 30
0.0
  0
VERTEX
  5
1E87
  8
0
 10
81.2298839538527488
 20
41.3871288878001309
 30
0.0
  0
VERTEX
  5
1E88
  8
0
 10
81.2385156685485867
 20
41.4014437177481511
 30
0.0
  0
VERTEX
  5
1E89
  8
0
 10
81.2479142549003654
 20
41.4149584319473618
 30
0.0
  0
VERTEX
  5
1E8A
  8
0
 10
81.2580435597945723
 20
41.4276772299720619
 30
0.0
  0
VERTEX
  5
1E8B
  8
0
 10
81.268870511006611
 20
41.4396087134838993
 30
0.0
  0
VERTEX
  5
1E8C
  8
0
 10
81.2803620363119563
 20
41.4507614841445502
 30
0.0
  0
VERTEX
  5
1E8D
  8
0
 10
81.2924850634860263
 20
41.4611441436156269
 30
0.0
  0
VERTEX
  5
1E8E
  8
0
 10
81.3052065203042957
 20
41.4707652935587987
 30
0.0
  0
VERTEX
  5
1E8F
  8
0
 10
81.318493334542211
 20
41.4796335356357133
 30
0.0
  0
VERTEX
  5
1E90
  8
0
 10
81.3323124339752184
 20
41.4877574715079902
 30
0.0
  0
VERTEX
  5
1E91
  8
0
 10
81.3466307463787928
 20
41.4951457028372985
 30
0.0
  0
VERTEX
  5
1E92
  8
0
 10
81.3614151995283379
 20
41.5018068312852719
 30
0.0
  0
VERTEX
  5
1E93
  8
0
 10
81.3766351229368752
 20
41.5077615373015476
 30
0.0
  0
VERTEX
  5
1E94
  8
0
 10
81.392272976340081
 20
41.5130494102324974
 30
0.0
  0
VERTEX
  5
1E95
  8
0
 10
81.4083146849732344
 20
41.5176832278490622
 30
0.0
  0
VERTEX
  5
1E96
  8
0
 10
81.424746104376112
 20
41.521674455666421
 30
0.0
  0
VERTEX
  5
1E97
  8
0
 10
81.441553090088405
 20
41.5250345591998027
 30
0.0
  0
VERTEX
  5
1E98
  8
0
 10
81.4587214976498615
 20
41.5277750039643934
 30
0.0
  0
VERTEX
  5
1E99
  8
0
 10
81.4762371826002578
 20
41.5299072554753934
 30
0.0
  0
VERTEX
  5
1E9A
  8
0
 10
81.4940860004793421
 20
41.5314427792480032
 30
0.0
  0
VERTEX
  5
1E9B
  8
0
 10
81.5122538068268341
 20
41.5323930407974089
 30
0.0
  0
VERTEX
  5
1E9C
  8
0
 10
81.5307264571824817
 20
41.5327695056388393
 30
0.0
  0
VERTEX
  5
1E9D
  8
0
 10
81.5494898070860472
 20
41.5325836392874592
 30
0.0
  0
VERTEX
  5
1E9E
  8
0
 10
81.5685297120772361
 20
41.5318469072584975
 30
0.0
  0
VERTEX
  5
1E9F
  8
0
 10
81.5878320276958249
 20
41.5305707750671331
 30
0.0
  0
VERTEX
  5
1EA0
  8
0
 10
81.6073826094815473
 20
41.5287667082285665
 30
0.0
  0
VERTEX
  5
1EA1
  8
0
 10
81.6271673129741657
 20
41.5264461722580194
 30
0.0
  0
VERTEX
  5
1EA2
  8
0
 10
81.6471719937134139
 20
41.5236206326706494
 30
0.0
  0
VERTEX
  5
1EA3
  8
0
 10
81.6673825072389974
 20
41.5203015549816925
 30
0.0
  0
VERTEX
  5
1EA4
  8
0
 10
81.6877847090907352
 20
41.516500404706342
 30
0.0
  0
VERTEX
  5
1EA5
  8
0
 10
81.7083644548083328
 20
41.5122286473597697
 30
0.0
  0
VERTEX
  5
1EA6
  8
0
 10
81.7291075999314955
 20
41.5074977484572116
 30
0.0
  0
VERTEX
  5
1EA7
  8
0
 10
81.7500000000000142
 20
41.5023191735138397
 30
0.0
  0
SEQEND
  5
1EA8
  8
0
  0
POLYLINE
  5
1D2F
  8
0
 66
     1
 10
0.0
 20
0.0
 30
0.0
  0
VERTEX
  5
1EA9
  8
0
 10
81.7500000000000142
 20
43.199272605391009
 30
0.0
  0
VERTEX
  5
1EAA
  8
0
 10
81.7292169120275673
 20
43.2208581690326028
 30
0.0
  0
VERTEX
  5
1EAB
  8
0
 10
81.708640428656139
 20
43.242712876444017
 30
0.0
  0
VERTEX
  5
1EAC
  8
0
 10
81.6882746532963608
 20
43.2648414577886484
 30
0.0
  0
VERTEX
  5
1EAD
  8
0
 10
81.6681236893587936
 20
43.2872486432297734
 30
0.0
  0
VERTEX
  5
1EAE
  8
0
 10
81.6481916402540691
 20
43.3099391629307604
 30
0.0
  0
VERTEX
  5
1EAF
  8
0
 10
81.6284826093927904
 20
43.3329177470549212
 30
0.0
  0
VERTEX
  5
1EB0
  8
0
 10
81.6090007001855611
 20
43.3561891257655887
 30
0.0
  0
VERTEX
  5
1EB1
  8
0
 10
81.5897500160429274
 20
43.3797580292261173
 30
0.0
  0
VERTEX
  5
1EB2
  8
0
 10
81.5707346603755354
 20
43.4036291875998117
 30
0.0
  0
VERTEX
  5
1EB3
  8
0
 10
81.5519587365939742
 20
43.427807331050019
 30
0.0
  0
VERTEX
  5
1EB4
  8
0
 10
81.5334204084332725
 20
43.4523064200390507
 30
0.0
  0
VERTEX
  5
1EB5
  8
0
 10
81.515108595216816
 20
43.4771622445843278
 30
0.0
  0
VERTEX
  5
1EB6
  8
0
 10
81.4970411254434737
 20
43.5023747673647634
 30
0.0
  0
VERTEX
  5
1EB7
  8
0
 10
81.4792383466162278
 20
43.5279404339822094
 30
0.0
  0
VERTEX
  5
1EB8
  8
0
 10
81.4617206062381456
 20
43.5538556900385174
 30
0.0
  0
VERTEX
  5
1EB9
  8
0
 10
81.4445082518121382
 20
43.5801169811355393
 30
0.0
  0
VERTEX
  5
1EBA
  8
0
 10
81.4276216308413154
 20
43.6067207528751624
 30
0.0
  0
VERTEX
  5
1EBB
  8
0
 10
81.4110810908286169
 20
43.6336634508592027
 30
0.0
  0
VERTEX
  5
1EBC
  8
0
 10
81.3949069792770246
 20
43.6609415206895619
 30
0.0
  0
VERTEX
  5
1EBD
  8
0
 10
81.37911964368962
 20
43.6885514079680632
 30
0.0
  0
VERTEX
  5
1EBE
  8
0
 10
81.3637408765963528
 20
43.7164871413578098
 30
0.0
  0
VERTEX
  5
1EBF
  8
0
 10
81.3488240937913361
 20
43.7446892939719589
 30
0.0
  0
VERTEX
  5
1EC0
  8
0
 10
81.3344070944081921
 20
43.7731231635349474
 30
0.0
  0
VERTEX
  5
1EC1
  8
0
 10
81.3205151323089126
 20
43.8017748282791999
 30
0.0
  0
VERTEX
  5
1EC2
  8
0
 10
81.3071734613554327
 20
43.8306303664371697
 30
0.0
  0
VERTEX
  5
1EC3
  8
0
 10
81.2944073354097441
 20
43.8596758562412816
 30
0.0
  0
VERTEX
  5
1EC4
  8
0
 10
81.2822420083337676
 20
43.8888973759240031
 30
0.0
  0
VERTEX
  5
1EC5
  8
0
 10
81.270702733989566
 20
43.9182810037177518
 30
0.0
  0
VERTEX
  5
1EC6
  8
0
 10
81.2598147662390033
 20
43.9478128178549809
 30
0.0
  0
VERTEX
  5
1EC7
  8
0
 10
81.249603358944114
 20
43.9774788965681296
 30
0.0
  0
VERTEX
  5
1EC8
  8
0
 10
81.2400937659668756
 20
44.0072653180896509
 30
0.0
  0
VERTEX
  5
1EC9
  8
0
 10
81.2313305811418189
 20
44.0370974076893873
 30
0.0
  0
VERTEX
  5
1ECA
  8
0
 10
81.2233640629985558
 20
44.0668608186951687
 30
0.0
  0
VERTEX
  5
1ECB
  8
0
 10
81.2162100188456577
 20
44.0965340638430234
 30
0.0
  0
VERTEX
  5
1ECC
  8
0
 10
81.2098838356031649
 20
44.1260968792092996
 30
0.0
  0
VERTEX
  5
1ECD
  8
0
 10
81.204400900191203
 20
44.155529000870402
 30
0.0
  0
VERTEX
  5
1ECE
  8
0
 10
81.1997765995299261
 20
44.1848101649026717
 30
0.0
  0
VERTEX
  5
1ECF
  8
0
 10
81.1960263205392891
 20
44.2139201073825134
 30
0.0
  0
VERTEX
  5
1ED0
  8
0
 10
81.1931654501394746
 20
44.2428385643862612
 30
0.0
  0
VERTEX
  5
1ED1
  8
0
 10
81.1912093752505655
 20
44.2715452719903269
 30
0.0
  0
VERTEX
  5
1ED2
  8
0
 10
81.190173482792602
 20
44.3000199662710727
 30
0.0
  0
VERTEX
  5
1ED3
  8
0
 10
81.1900745273080133
 20
44.3282145650304429
 30
0.0
  0
VERTEX
  5
1ED4
  8
0
 10
81.1909238591968005
 20
44.3559419186472894
 30
0.0
  0
VERTEX
  5
1ED5
  8
0
 10
81.1927069472412484
 20
44.3831540061266523
 30
0.0
  0
VERTEX
  5
1ED6
  8
0
 10
81.1954065323509582
 20
44.4098306274089794
 30
0.0
  0
VERTEX
  5
1ED7
  8
0
 10
81.1990053554355455
 20
44.4359515824347469
 30
0.0
  0
VERTEX
  5
1ED8
  8
0
 10
81.2034861574045692
 20
44.4614966711444168
 30
0.0
  0
VERTEX
  5
1ED9
  8
0
 10
81.2088316791675737
 20
44.48644569347843
 30
0.0
  0
VERTEX
  5
1EDA
  8
0
 10
81.2150246616342031
 20
44.5107784493772698
 30
0.0
  0
VERTEX
  5
1EDB
  8
0
 10
81.2220478457139734
 20
44.5344747387813769
 30
0.0
  0
VERTEX
  5
1EDC
  8
0
 10
81.2298839723165145
 20
44.5575143616312275
 30
0.0
  0
VERTEX
  5
1EDD
  8
0
 10
81.2385156783570892
 20
44.5798770247306919
 30
0.0
  0
VERTEX
  5
1EDE
  8
0
 10
81.2479142574045881
 20
44.6015389822527908
 30
0.0
  0
VERTEX
  5
1EDF
  8
0
 10
81.2580435585011571
 20
44.6224908510283527
 30
0.0
  0
VERTEX
  5
1EE0
  8
0
 10
81.2688705084661365
 20
44.6427300612790035
 30
0.0
  0
VERTEX
  5
1EE1
  8
0
 10
81.2803620341188662
 20
44.6622540432263193
 30
0.0
  0
VERTEX
  5
1EE2
  8
0
 10
81.2924850622787574
 20
44.681060227091919
 30
0.0
  0
VERTEX
  5
1EE3
  8
0
 10
81.3052065197651928
 20
44.6991460430974001
 30
0.0
  0
VERTEX
  5
1EE4
  8
0
 10
81.3184933333975266
 20
44.7165089214643601
 30
0.0
  0
VERTEX
  5
1EE5
  8
0
 10
81.3323124299951417
 20
44.7331462924143892
 30
0.0
  0
VERTEX
  5
1EE6
  8
0
 10
81.3466307363773922
 20
44.7490555861691135
 30
0.0
  0
VERTEX
  5
1EE7
  8
0
 10
81.3614151793636893
 20
44.7642342329501091
 30
0.0
  0
VERTEX
  5
1EE8
  8
0
 10
81.3766350897610238
 20
44.778696579196982
 30
0.0
  0
VERTEX
  5
1EE9
  8
0
 10
81.3922729322623582
 20
44.7924873668462382
 30
0.0
  0
VERTEX
  5
1EEA
  8
0
 10
81.4083146321975732
 20
44.8056174626622834
 30
0.0
  0
VERTEX
  5
1EEB
  8
0
 10
81.4247460449594769
 20
44.8180959754819028
 30
0.0
  0
VERTEX
  5
1EEC
  8
0
 10
81.4415530259408058
 20
44.8299320141419599
 30
0.0
  0
VERTEX
  5
1EED
  8
0
 10
81.4587214305344105
 20
44.8411346874792969
 30
0.0
  0
VERTEX
  5
1EEE
  8
0
 10
81.4762371141330135
 20
44.8517131043307273
 30
0.0
  0
VERTEX
  5
1EEF
  8
0
 10
81.4940859321294226
 20
44.8616763735331006
 30
0.0
  0
VERTEX
  5
1EF0
  8
0
 10
81.5122537399164457
 20
44.8710336039232587
 30
0.0
  0
VERTEX
  5
1EF1
  8
0
 10
81.5307263928868338
 20
44.8797939043380225
 30
0.0
  0
VERTEX
  5
1EF2
  8
0
 10
81.5494897464333661
 20
44.88796638361422
 30
0.0
  0
VERTEX
  5
1EF3
  8
0
 10
81.5685296559488364
 20
44.8955601505887003
 30
0.0
  0
VERTEX
  5
1EF4
  8
0
 10
81.5878319768260667
 20
44.9025843140982985
 30
0.0
  0
VERTEX
  5
1EF5
  8
0
 10
81.6073825644577937
 20
44.9090479829798284
 30
0.0
  0
VERTEX
  5
1EF6
  8
0
 10
81.6271672742367969
 20
44.9149602660701532
 30
0.0
  0
VERTEX
  5
1EF7
  8
0
 10
81.6471719615558982
 20
44.9203302722060869
 30
0.0
  0
VERTEX
  5
1EF8
  8
0
 10
81.6673824818078629
 20
44.9251671102244927
 30
0.0
  0
VERTEX
  5
1EF9
  8
0
 10
81.6877846903854845
 20
44.9294798889621774
 30
0.0
  0
VERTEX
  5
1EFA
  8
0
 10
81.7083644426814999
 20
44.933277717255983
 30
0.0
  0
VERTEX
  5
1EFB
  8
0
 10
81.7291075940887737
 20
44.9365697039427303
 30
0.0
  0
VERTEX
  5
1EFC
  8
0
 10
81.7500000000000142
 20
44.93936495785929
 30
0.0
  0
SEQEND
  5
1EFD
  8
0
  0
POLYLINE
  5
1D30
  8
0
 66
     1
 10
0.0
 20
0.0
 30
0.0
  0
VERTEX
  5
1EFE
  8
0
 10
81.7499999999999147
 20
46.9732331918702428
 30
0.0
  0
VERTEX
  5
1EFF
  8
0
 10
81.7292170531174236
 20
46.9901488071035018
 30
0.0
  0
VERTEX
  5
1F00
  8
0
 10
81.708640689400184
 20
47.0074507668261177
 30
0.0
  0
VERTEX
  5
1F01
  8
0
 10
81.6882750125834747
 20
47.0251454340961317
 30
0.0
  0
VERTEX
  5
1F02
  8
0
 10
81.6681241264025743
 20
47.0432391719715568
 30
0.0
  0
VERTEX
  5
1F03
  8
0
 10
81.648192134592847
 20
47.0617383435104699
 30
0.0
  0
VERTEX
  5
1F04
  8
0
 10
81.628483140889557
 20
47.0806493117708698
 30
0.0
  0
VERTEX
  5
1F05
  8
0
 10
81.6090012490279832
 20
47.0999784398108403
 30
0.0
  0
VERTEX
  5
1F06
  8
0
 10
81.5897505627434754
 20
47.1197320906883803
 30
0.0
  0
VERTEX
  5
1F07
  8
0
 10
81.5707351857713547
 20
47.1399166274615382
 30
0.0
  0
VERTEX
  5
1F08
  8
0
 10
81.5519592218468574
 20
47.1605384131883767
 30
0.0
  0
VERTEX
  5
1F09
  8
0
 10
81.5334208274382206
 20
47.1816121678654028
 30
0.0
  0
VERTEX
  5
1F0A
  8
0
 10
81.5151089002597189
 20
47.2031739814931512
 30
0.0
  0
VERTEX
  5
1F0B
  8
0
 10
81.4970412810703664
 20
47.2252294642083683
 30
0.0
  0
VERTEX
  5
1F0C
  8
0
 10
81.4792383327183529
 20
47.2477811273758235
 30
0.0
  0
VERTEX
  5
1F0D
  8
0
 10
81.4617204180518115
 20
47.2708314823603217
 30
0.0
  0
VERTEX
  5
1F0E
  8
0
 10
81.4445078999189036
 20
47.294383040526661
 30
0.0
  0
VERTEX
  5
1F0F
  8
0
 10
81.4276211411677764
 20
47.3184383132396604
 30
0.0
  0
VERTEX
  5
1F10
  8
0
 10
81.4110805046465487
 20
47.3429998118640896
 30
0.0
  0
VERTEX
  5
1F11
  8
0
 10
81.3949063532034245
 20
47.3680700477647676
 30
0.0
  0
VERTEX
  5
1F12
  8
0
 10
81.3791190496865084
 20
47.3936515323064924
 30
0.0
  0
VERTEX
  5
1F13
  8
0
 10
81.3637403968175761
 20
47.4197445611734025
 30
0.0
  0
VERTEX
  5
1F14
  8
0
 10
81.3488237116079915
 20
47.4463002367987201
 30
0.0
  0
VERTEX
  5
1F15
  8
0
 10
81.334406759534744
 20
47.4732918588507715
 30
0.0
  0
VERTEX
  5
1F16
  8
0
 10
81.3205148069126551
 20
47.5007117090993418
 30
0.0
  0
VERTEX
  5
1F17
  8
0
 10
81.3071731200564756
 20
47.5285520693141308
 30
0.0
  0
VERTEX
  5
1F18
  8
0
 10
81.2944069652810555
 20
47.5568052212649235
 30
0.0
  0
VERTEX
  5
1F19
  8
0
 10
81.282241608901117
 20
47.585463446721441
 30
0.0
  0
VERTEX
  5
1F1A
  8
0
 10
81.2707023172314109
 20
47.6145190274534329
 30
0.0
  0
VERTEX
  5
1F1B
  8
0
 10
81.2598143565868156
 20
47.6439642452306487
 30
0.0
  0
VERTEX
  5
1F1C
  8
0
 10
81.249602993282025
 20
47.6737913818228165
 30
0.0
  0
VERTEX
  5
1F1D
  8
0
 10
81.240093493631889
 20
47.7039927189997073
 30
0.0
  0
VERTEX
  5
1F1E
  8
0
 10
81.2313304235137537
 20
47.7344989042668502
 30
0.0
  0
VERTEX
  5
1F1F
  8
0
 10
81.2233639856647329
 20
47.7651981229129277
 30
0.0
  0
VERTEX
  5
1F20
  8
0
 10
81.2162099923502012
 20
47.7960712114141231
 30
0.0
  0
VERTEX
  5
1F21
  8
0
 10
81.2098838362541926
 20
47.8271002374897307
 30
0.0
  0
VERTEX
  5
1F22
  8
0
 10
81.2044009100608548
 20
47.8582672688589597
 30
0.0
  0
VERTEX
  5
1F23
  8
0
 10
81.1997766064543498
 20
47.8895543732410829
 30
0.0
  0
VERTEX
  5
1F24
  8
0
 10
81.1960263181187258
 20
47.9209436183553308
 30
0.0
  0
VERTEX
  5
1F25
  8
0
 10
81.1931654377381449
 20
47.9524170719209906
 30
0.0
  0
VERTEX
  5
1F26
  8
0
 10
81.1912093579967404
 20
47.9839568016572784
 30
0.0
  0
VERTEX
  5
1F27
  8
0
 10
81.1901734715785892
 20
48.0155448752834602
 30
0.0
  0
VERTEX
  5
1F28
  8
0
 10
81.1900745363681438
 20
48.0471326688743616
 30
0.0
  0
VERTEX
  5
1F29
  8
0
 10
81.1909238914443137
 20
48.0785142726537771
 30
0.0
  0
VERTEX
  5
1F2A
  8
0
 10
81.1927070024077864
 20
48.109631280978121
 30
0.0
  0
VERTEX
  5
1F2B
  8
0
 10
81.1954066091248876
 20
48.1404555545560981
 30
0.0
  0
VERTEX
  5
1F2C
  8
0
 10
81.1990054514619146
 20
48.1709589540964274
 30
0.0
  0
VERTEX
  5
1F2D
  8
0
 10
81.2034862692851647
 20
48.2011133403078205
 30
0.0
  0
VERTEX
  5
1F2E
  8
0
 10
81.2088318024609919
 20
48.2308905738989893
 30
0.0
  0
VERTEX
  5
1F2F
  8
0
 10
81.2150247908556651
 20
48.2602625155786527
 30
0.0
  0
VERTEX
  5
1F30
  8
0
 10
81.2220479743355241
 20
48.2892010260555011
 30
0.0
  0
VERTEX
  5
1F31
  8
0
 10
81.2298840927668664
 20
48.3176779660382891
 30
0.0
  0
VERTEX
  5
1F32
  8
0
 10
81.2385157821965436
 20
48.3456650619100614
 30
0.0
  0
VERTEX
  5
1F33
  8
0
 10
81.247914348437277
 20
48.3731267917164587
 30
0.0
  0
VERTEX
  5
1F34
  8
0
 10
81.2580436466011236
 20
48.4000412334296968
 30
0.0
  0
VERTEX
  5
1F35
  8
0
 10
81.2688706007969017
 20
48.4263949191028829
 30
0.0
  0
VERTEX
  5
1F36
  8
0
 10
81.2803621351332453
 20
48.4521743807891099
 30
0.0
  0
VERTEX
  5
1F37
  8
0
 10
81.2924851737189584
 20
48.4773661505415205
 30
0.0
  0
VERTEX
  5
1F38
  8
0
 10
81.3052066406627603
 20
48.5019567604132291
 30
0.0
  0
VERTEX
  5
1F39
  8
0
 10
81.3184934600733129
 20
48.5259327424573499
 30
0.0
  0
VERTEX
  5
1F3A
  8
0
 10
81.3323125560594065
 20
48.5492806287269971
 30
0.0
  0
VERTEX
  5
1F3B
  8
0
 10
81.3466308527297457
 20
48.5719869512752922
 30
0.0
  0
VERTEX
  5
1F3C
  8
0
 10
81.3614152741930639
 20
48.5940382421553565
 30
0.0
  0
VERTEX
  5
1F3D
  8
0
 10
81.3766351551510638
 20
48.6154409634781288
 30
0.0
  0
VERTEX
  5
1F3E
  8
0
 10
81.3922729747390292
 20
48.63624018172451
 30
0.0
  0
VERTEX
  5
1F3F
  8
0
 10
81.408314658261375
 20
48.6564436754049296
 30
0.0
  0
VERTEX
  5
1F40
  8
0
 10
81.4247460603721578
 20
48.6760572089158927
 30
0.0
  0
VERTEX
  5
1F41
  8
0
 10
81.4415530357253488
 20
48.6950865466538403
 30
0.0
  0
VERTEX
  5
1F42
  8
0
 10
81.458721438974905
 20
48.7135374530152774
 30
0.0
  0
VERTEX
  5
1F43
  8
0
 10
81.4762371247748263
 20
48.7314156923967019
 30
0.0
  0
VERTEX
  5
1F44
  8
0
 10
81.4940859477791548
 20
48.7487270291945691
 30
0.0
  0
VERTEX
  5
1F45
  8
0
 10
81.5122537626418335
 20
48.765477227805377
 30
0.0
  0
VERTEX
  5
1F46
  8
0
 10
81.5307264240168763
 20
48.781672052625602
 30
0.0
  0
VERTEX
  5
1F47
  8
0
 10
81.5494897865582686
 20
48.797317268051728
 30
0.0
  0
VERTEX
  5
1F48
  8
0
 10
81.5685297049200244
 20
48.8124186384802528
 30
0.0
  0
VERTEX
  5
1F49
  8
0
 10
81.5878320337560865
 20
48.8269819283076387
 30
0.0
  0
VERTEX
  5
1F4A
  8
0
 10
81.6073826277204688
 20
48.8410129019303767
 30
0.0
  0
VERTEX
  5
1F4B
  8
0
 10
81.6271673414672136
 20
48.8545173237449504
 30
0.0
  0
VERTEX
  5
1F4C
  8
0
 10
81.6471720296502639
 20
48.8675009581478434
 30
0.0
  0
VERTEX
  5
1F4D
  8
0
 10
81.667382546923605
 20
48.8799695695355325
 30
0.0
  0
VERTEX
  5
1F4E
  8
0
 10
81.6877847479412651
 20
48.8919289223045084
 30
0.0
  0
VERTEX
  5
1F4F
  8
0
 10
81.7083644873572155
 20
48.9033847808512618
 30
0.0
  0
VERTEX
  5
1F50
  8
0
 10
81.7291076198254416
 20
48.9143429095722411
 30
0.0
  0
VERTEX
  5
1F51
  8
0
 10
81.7499999999999432
 20
48.9248090728639724
 30
0.0
  0
SEQEND
  5
1F52
  8
0
  0
POLYLINE
  5
1D31
  8
0
 66
     1
 10
0.0
 20
0.0
 30
0.0
  0
VERTEX
  5
1F53
  8
0
 10
81.7499999999998153
 20
51.0751909271362976
 30
0.0
  0
VERTEX
  5
1F54
  8
0
 10
81.7292168934771439
 20
51.0856037555012605
 30
0.0
  0
VERTEX
  5
1F55
  8
0
 10
81.7086403931050143
 20
51.0964782435672404
 30
0.0
  0
VERTEX
  5
1F56
  8
0
 10
81.6882746022802166
 20
51.1078216950024284
 30
0.0
  0
VERTEX
  5
1F57
  8
0
 10
81.6681236243995983
 20
51.119641413475037
 30
0.0
  0
VERTEX
  5
1F58
  8
0
 10
81.6481915628600348
 20
51.1319447026532927
 30
0.0
  0
VERTEX
  5
1F59
  8
0
 10
81.6284825210583165
 20
51.1447388662053868
 30
0.0
  0
VERTEX
  5
1F5A
  8
0
 10
81.6090006023913332
 20
51.1580312077995174
 30
0.0
  0
VERTEX
  5
1F5B
  8
0
 10
81.5897499102559181
 20
51.1718290311039326
 30
0.0
  0
VERTEX
  5
1F5C
  8
0
 10
81.5707345480489181
 20
51.186139639786802
 30
0.0
  0
VERTEX
  5
1F5D
  8
0
 10
81.5519586191671806
 20
51.2009703375163525
 30
0.0
  0
VERTEX
  5
1F5E
  8
0
 10
81.5334202877808139
 20
51.2163349788208677
 30
0.0
  0
VERTEX
  5
1F5F
  8
0
 10
81.5151084745012042
 20
51.2322659597276626
 30
0.0
  0
VERTEX
  5
1F60
  8
0
 10
81.4970410071189093
 20
51.248773965421293
 30
0.0
  0
VERTEX
  5
1F61
  8
0
 10
81.4792382322465585
 20
51.2658673473336322
 30
0.0
  0
VERTEX
  5
1F62
  8
0
 10
81.4617204964966248
 20
51.2835544568965602
 30
0.0
  0
VERTEX
  5
1F63
  8
0
 10
81.4445081464817946
 20
51.3018436455419575
 30
0.0
  0
VERTEX
  5
1F64
  8
0
 10
81.4276215288145409
 20
51.3207432647017328
 30
0.0
  0
VERTEX
  5
1F65
  8
0
 10
81.411080990107493
 20
51.340261665807752
 30
0.0
  0
VERTEX
  5
1F66
  8
0
 10
81.3949068769732094
 20
51.3604072002919025
 30
0.0
  0
VERTEX
  5
1F67
  8
0
 10
81.3791195360242341
 20
51.3811882195860576
 30
0.0
  0
VERTEX
  5
1F68
  8
0
 10
81.3637407592088948
 20
51.4026112829982225
 30
0.0
  0
VERTEX
  5
1F69
  8
0
 10
81.3488239682784808
 20
51.4246429794080271
 30
0.0
  0
VERTEX
  5
1F6A
  8
0
 10
81.3344069644467851
 20
51.447267402457463
 30
0.0
  0
VERTEX
  5
1F6B
  8
0
 10
81.3205150008971032
 20
51.4704839340063103
 30
0.0
  0
VERTEX
  5
1F6C
  8
0
 10
81.3071733308126738
 20
51.494291955914413
 30
0.0
  0
VERTEX
  5
1F6D
  8
0
 10
81.2944072073767359
 20
51.518690850041537
 30
0.0
  0
VERTEX
  5
1F6E
  8
0
 10
81.2822418837725849
 20
51.5436799982475193
 30
0.0
  0
VERTEX
  5
1F6F
  8
0
 10
81.2707026131834596
 20
51.5692587823921684
 30
0.0
  0
VERTEX
  5
1F70
  8
0
 10
81.2598146487926272
 20
51.5954265843352928
 30
0.0
  0
VERTEX
  5
1F71
  8
0
 10
81.2496032437833833
 20
51.6221827859366869
 30
0.0
  0
VERTEX
  5
1F72
  8
0
 10
81.240093651338924
 20
51.6495267690561732
 30
0.0
  0
VERTEX
  5
1F73
  8
0
 10
81.2313304669246747
 20
51.677401810668627
 30
0.0
  0
VERTEX
  5
1F74
  8
0
 10
81.2233639522709439
 20
51.7057103821465631
 30
0.0
  0
VERTEX
  5
1F75
  8
0
 10
81.216209914400622
 20
51.7344377823219332
 30
0.0
  0
VERTEX
  5
1F76
  8
0
 10
81.2098837399018549
 20
51.7635704212436067
 30
0.0
  0
VERTEX
  5
1F77
  8
0
 10
81.2044008153628738
 20
51.7930947089604601
 30
0.0
  0
VERTEX
  5
1F78
  8
0
 10
81.199776527371796
 20
51.8229970555213484
 30
0.0
  0
VERTEX
  5
1F79
  8
0
 10
81.1960262625167957
 20
51.853263870975141
 30
0.0
  0
VERTEX
  5
1F7A
  8
0
 10
81.1931654073860756
 20
51.8838815653707073
 30
0.0
  0
VERTEX
  5
1F7B
  8
0
 10
81.1912093485677957
 20
51.9148365487569166
 30
0.0
  0
VERTEX
  5
1F7C
  8
0
 10
81.1901734726500877
 20
51.9461152311826169
 30
0.0
  0
VERTEX
  5
1F7D
  8
0
 10
81.1900745339564338
 20
51.9776737137739531
 30
0.0
  0
VERTEX
  5
1F7E
  8
0
 10
81.1909238833420943
 20
52.009309276140641
 30
0.0
  0
VERTEX
  5
1F7F
  8
0
 10
81.1927069896498494
 20
52.0409594228801282
 30
0.0
  0
VERTEX
  5
1F80
  8
0
 10
81.1954065937489133
 20
52.07259115896791
 30
0.0
  0
VERTEX
  5
1F81
  8
0
 10
81.1990054365085143
 20
52.1041714893794179
 30
0.0
  0
VERTEX
  5
1F82
  8
0
 10
81.2034862587978523
 20
52.1356674190901472
 30
0.0
  0
VERTEX
  5
1F83
  8
0
 10
81.2088318014861557
 20
52.1670459530755366
 30
0.0
  0
VERTEX
  5
1F84
  8
0
 10
81.2150248054426527
 20
52.1982740963110814
 30
0.0
  0
VERTEX
  5
1F85
  8
0
 10
81.2220480115365433
 20
52.2293188537722202
 30
0.0
  0
VERTEX
  5
1F86
  8
0
 10
81.2298841606370843
 20
52.260147230434427
 30
0.0
  0
VERTEX
  5
1F87
  8
0
 10
81.2385158896112074
 20
52.2907260686611082
 30
0.0
  0
VERTEX
  5
1F88
  8
0
 10
81.2479144913967275
 20
52.3210118202346308
 30
0.0
  0
VERTEX
  5
1F89
  8
0
 10
81.2580438147191728
 20
52.3509723336675066
 30
0.0
  0
VERTEX
  5
1F8A
  8
0
 10
81.2688707864859055
 20
52.3805847143144874
 30
0.0
  0
VERTEX
  5
1F8B
  8
0
 10
81.2803623336043159
 20
52.4098260675302825
 30
0.0
  0
VERTEX
  5
1F8C
  8
0
 10
81.292485382981738
 20
52.4386734986696013
 30
0.0
  0
VERTEX
  5
1F8D
  8
0
 10
81.3052068615255479
 20
52.4671041130871387
 30
0.0
  0
VERTEX
  5
1F8E
  8
0
 10
81.3184936961431788
 20
52.4950950161376326
 30
0.0
  0
VERTEX
  5
1F8F
  8
0
 10
81.332312813741936
 20
52.5226233131757922
 30
0.0
  0
VERTEX
  5
1F90
  8
0
 10
81.3466311412291958
 20
52.5496661095563198
 30
0.0
  0
VERTEX
  5
1F91
  8
0
 10
81.361415605512363
 20
52.5762005106339387
 30
0.0
  0
VERTEX
  5
1F92
  8
0
 10
81.3766355379105164
 20
52.6022243846918229
 30
0.0
  0
VERTEX
  5
1F93
  8
0
 10
81.3922734037438858
 20
52.6277781936110927
 30
0.0
  0
VERTEX
  5
1F94
  8
0
 10
81.408315127513518
 20
52.6528657835471066
 30
0.0
  0
VERTEX
  5
1F95
  8
0
 10
81.4247465637260177
 20
52.6774889508611608
 30
0.0
  0
VERTEX
  5
1F96
  8
0
 10
81.4415535668879755
 20
52.7016494919145302
 30
0.0
  0
VERTEX
  5
1F97
  8
0
 10
81.4587219915059961
 20
52.7253492030685322
 30
0.0
  0
VERTEX
  5
1F98
  8
0
 10
81.4762376920866842
 20
52.7485898806844276
 30
0.0
  0
VERTEX
  5
1F99
  8
0
 10
81.4940865231367013
 20
52.7713733211235265
 30
0.0
  0
VERTEX
  5
1F9A
  8
0
 10
81.5122543391625669
 20
52.7937013207471111
 30
0.0
  0
VERTEX
  5
1F9B
  8
0
 10
81.5307269946710136
 20
52.8155756759164703
 30
0.0
  0
VERTEX
  5
1F9C
  8
0
 10
81.549490344168575
 20
52.8369981829929074
 30
0.0
  0
VERTEX
  5
1F9D
  8
0
 10
81.568530242161799
 20
52.8579706383377115
 30
0.0
  0
VERTEX
  5
1F9E
  8
0
 10
81.5878325431574467
 20
52.8784948383121574
 30
0.0
  0
VERTEX
  5
1F9F
  8
0
 10
81.6073831016619948
 20
52.8985725792775412
 30
0.0
  0
VERTEX
  5
1FA0
  8
0
 10
81.6271677721821618
 20
52.9182056575951592
 30
0.0
  0
VERTEX
  5
1FA1
  8
0
 10
81.6471724092244528
 20
52.9373958696263003
 30
0.0
  0
VERTEX
  5
1FA2
  8
0
 10
81.6673828672955437
 20
52.9561450117322607
 30
0.0
  0
VERTEX
  5
1FA3
  8
0
 10
81.687785000902025
 20
52.9744548802743225
 30
0.0
  0
VERTEX
  5
1FA4
  8
0
 10
81.7083646645505439
 20
52.9923272716137816
 30
0.0
  0
VERTEX
  5
1FA5
  8
0
 10
81.7291077127476626
 20
53.0097639821119131
 30
0.0
  0
VERTEX
  5
1FA6
  8
0
 10
81.75
 20
53.0267668081300272
 30
0.0
  0
SEQEND
  5
1FA7
  8
0
  0
POLYLINE
  5
1D32
  8
0
 66
     1
 10
0.0
 20
0.0
 30
0.0
  0
VERTEX
  5
1FA8
  8
0
 10
81.7500000000001421
 20
55.0606350421408521
 30
0.0
  0
VERTEX
  5
1FA9
  8
0
 10
81.7292168563215142
 20
55.0634165652462428
 30
0.0
  0
VERTEX
  5
1FAA
  8
0
 10
81.7086403252632465
 20
55.0666850466481606
 30
0.0
  0
VERTEX
  5
1FAB
  8
0
 10
81.6882745101178358
 20
55.0704479401746596
 30
0.0
  0
VERTEX
  5
1FAC
  8
0
 10
81.668123514177779
 20
55.0747126996538725
 30
0.0
  0
VERTEX
  5
1FAD
  8
0
 10
81.6481914407355589
 20
55.079486778913882
 30
0.0
  0
VERTEX
  5
1FAE
  8
0
 10
81.6284823930837149
 20
55.0847776317827709
 30
0.0
  0
VERTEX
  5
1FAF
  8
0
 10
81.6090004745146871
 20
55.090592712088629
 30
0.0
  0
VERTEX
  5
1FB0
  8
0
 10
81.5897497883210434
 20
55.0969394736595675
 30
0.0
  0
VERTEX
  5
1FB1
  8
0
 10
81.5707344377952666
 20
55.1038253703236833
 30
0.0
  0
VERTEX
  5
1FB2
  8
0
 10
81.5519585262298108
 20
55.1112578559090522
 30
0.0
  0
VERTEX
  5
1FB3
  8
0
 10
81.5334202200497771
 20
55.1192484314157198
 30
0.0
  0
VERTEX
  5
1FB4
  8
0
 10
81.5151084465763631
 20
55.1278223255503192
 30
0.0
  0
VERTEX
  5
1FB5
  8
0
 10
81.4970410297819541
 20
55.1369941240755423
 30
0.0
  0
VERTEX
  5
1FB6
  8
0
 10
81.4792383115021153
 20
55.1467770919709892
 30
0.0
  0
VERTEX
  5
1FB7
  8
0
 10
81.4617206335722983
 20
55.1571844942163096
 30
0.0
  0
VERTEX
  5
1FB8
  8
0
 10
81.4445083378280259
 20
55.1682295957911535
 30
0.0
  0
VERTEX
  5
1FB9
  8
0
 10
81.4276217661048349
 20
55.1799256616751279
 30
0.0
  0
VERTEX
  5
1FBA
  8
0
 10
81.4110812602382623
 20
55.1922859568478898
 30
0.0
  0
VERTEX
  5
1FBB
  8
0
 10
81.3949071620637881
 20
55.2053237462890607
 30
0.0
  0
VERTEX
  5
1FBC
  8
0
 10
81.3791198134169349
 20
55.2190522949782903
 30
0.0
  0
VERTEX
  5
1FBD
  8
0
 10
81.363741003066707
 20
55.23348370163108
 30
0.0
  0
VERTEX
  5
1FBE
  8
0
 10
81.3488241833650676
 20
55.2486038175894905
 30
0.0
  0
VERTEX
  5
1FBF
  8
0
 10
81.334407165919373
 20
55.2644093011775581
 30
0.0
  0
VERTEX
  5
1FC0
  8
0
 10
81.3205152000084155
 20
55.2809066749985476
 30
0.0
  0
VERTEX
  5
1FC1
  8
0
 10
81.307173534911044
 20
55.2981024616557022
 30
0.0
  0
VERTEX
  5
1FC2
  8
0
 10
81.2944074199061077
 20
55.3160031837522723
 30
0.0
  0
VERTEX
  5
1FC3
  8
0
 10
81.2822421042724557
 20
55.3346153638915084
 30
0.0
  0
VERTEX
  5
1FC4
  8
0
 10
81.2707028372889226
 20
55.3539455246766821
 30
0.0
  0
VERTEX
  5
1FC5
  8
0
 10
81.2598148682343151
 20
55.3740001887110083
 30
0.0
  0
VERTEX
  5
1FC6
  8
0
 10
81.2496034463875105
 20
55.3947858785977729
 30
0.0
  0
VERTEX
  5
1FC7
  8
0
 10
81.240093821027358
 20
55.4163091169402122
 30
0.0
  0
VERTEX
  5
1FC8
  8
0
 10
81.2313305963141659
 20
55.4385320452462622
 30
0.0
  0
VERTEX
  5
1FC9
  8
0
 10
81.223364051365877
 20
55.461382144928848
 30
0.0
  0
VERTEX
  5
1FCA
  8
0
 10
81.2162099916616853
 20
55.4848507448566011
 30
0.0
  0
VERTEX
  5
1FCB
  8
0
 10
81.2098838019944651
 20
55.5089300423292826
 30
0.0
  0
VERTEX
  5
1FCC
  8
0
 10
81.2044008671570765
 20
55.533612234646661
 30
0.0
  0
VERTEX
  5
1FCD
  8
0
 10
81.1997765719423512
 20
55.5588895191085328
 30
0.0
  0
VERTEX
  5
1FCE
  8
0
 10
81.1960263011431778
 20
55.5847540930146735
 30
0.0
  0
VERTEX
  5
1FCF
  8
0
 10
81.1931654395523879
 20
55.6111981536648514
 30
0.0
  0
VERTEX
  5
1FD0
  8
0
 10
81.1912093719628274
 20
55.6382138983588419
 30
0.0
  0
VERTEX
  5
1FD1
  8
0
 10
81.1901734831673565
 20
55.6657935243964275
 30
0.0
  0
VERTEX
  5
1FD2
  8
0
 10
81.1900745264657928
 20
55.6939026154458787
 30
0.0
  0
VERTEX
  5
1FD3
  8
0
 10
81.1909238563673341
 20
55.7223637548406288
 30
0.0
  0
VERTEX
  5
1FD4
  8
0
 10
81.1927069427857191
 20
55.7511171440180391
 30
0.0
  0
VERTEX
  5
1FD5
  8
0
 10
81.1954065269805341
 20
55.7801284944717608
 30
0.0
  0
VERTEX
  5
1FD6
  8
0
 10
81.1990053502114506
 20
55.8093635176954592
 30
0.0
  0
VERTEX
  5
1FD7
  8
0
 10
81.2034861537380266
 20
55.838787925182757
 30
0.0
  0
VERTEX
  5
1FD8
  8
0
 10
81.2088316788198767
 20
55.8683674284273124
 30
0.0
  0
VERTEX
  5
1FD9
  8
0
 10
81.2150246667166584
 20
55.8980677389227409
 30
0.0
  0
VERTEX
  5
1FDA
  8
0
 10
81.2220478586879153
 20
55.9278545681627222
 30
0.0
  0
VERTEX
  5
1FDB
  8
0
 10
81.2298839959932764
 20
55.9576936276409
 30
0.0
  0
VERTEX
  5
1FDC
  8
0
 10
81.2385157158342679
 20
55.9875504561904975
 30
0.0
  0
VERTEX
  5
1FDD
  8
0
 10
81.2479143072857823
 20
56.0173782351787608
 30
0.0
  0
VERTEX
  5
1FDE
  8
0
 10
81.2580436171607658
 20
56.0471380925767235
 30
0.0
  0
VERTEX
  5
1FDF
  8
0
 10
81.2688705732554979
 20
56.0768001837745089
 30
0.0
  0
VERTEX
  5
1FE0
  8
0
 10
81.2803621033663433
 20
56.1063346641622687
 30
0.0
  0
VERTEX
  5
1FE1
  8
0
 10
81.2924851352895814
 20
56.1357116891301118
 30
0.0
  0
VERTEX
  5
1FE2
  8
0
 10
81.3052065968215629
 20
56.1649014140681686
 30
0.0
  0
VERTEX
  5
1FE3
  8
0
 10
81.3184934157586099
 20
56.1938739943665695
 30
0.0
  0
VERTEX
  5
1FE4
  8
0
 10
81.332312519897016
 20
56.2225995854154377
 30
0.0
  0
VERTEX
  5
1FE5
  8
0
 10
81.3466308370331461
 20
56.2510483426049177
 30
0.0
  0
VERTEX
  5
1FE6
  8
0
 10
81.3614152949632654
 20
56.2791904213251186
 30
0.0
  0
VERTEX
  5
1FE7
  8
0
 10
81.3766352233135422
 20
56.3070153299159415
 30
0.0
  0
VERTEX
  5
1FE8
  8
0
 10
81.3922730819541016
 20
56.3345545564164425
 30
0.0
  0
VERTEX
  5
1FE9
  8
0
 10
81.4083147959344871
 20
56.3618075987208513
 30
0.0
  0
VERTEX
  5
1FEA
  8
0
 10
81.4247462205962336
 20
56.3887720906291392
 30
0.0
  0
VERTEX
  5
1FEB
  8
0
 10
81.4415532112808478
 20
56.4154456659412418
 30
0.0
  0
VERTEX
  5
1FEC
  8
0
 10
81.4587216233297653
 20
56.4418259584571018
 30
0.0
  0
VERTEX
  5
1FED
  8
0
 10
81.4762373120845353
 20
56.4679106019766692
 30
0.0
  0
VERTEX
  5
1FEE
  8
0
 10
81.4940861328866077
 20
56.4936972302998868
 30
0.0
  0
VERTEX
  5
1FEF
  8
0
 10
81.5122539410775175
 20
56.5191834772267114
 30
0.0
  0
VERTEX
  5
1FF0
  8
0
 10
81.5307265919987572
 20
56.5443669765570718
 30
0.0
  0
VERTEX
  5
1FF1
  8
0
 10
81.5494899409917764
 20
56.5692453620909177
 30
0.0
  0
VERTEX
  5
1FF2
  8
0
 10
81.5685298433980961
 20
56.5938162676281991
 30
0.0
  0
VERTEX
  5
1FF3
  8
0
 10
81.5878321545592087
 20
56.6180773269688515
 30
0.0
  0
VERTEX
  5
1FF4
  8
0
 10
81.607382729816635
 20
56.6420261739128392
 30
0.0
  0
VERTEX
  5
1FF5
  8
0
 10
81.6271674245118106
 20
56.6656604422600907
 30
0.0
  0
VERTEX
  5
1FF6
  8
0
 10
81.6471720939862848
 20
56.6889777658105487
 30
0.0
  0
VERTEX
  5
1FF7
  8
0
 10
81.6673825935815358
 20
56.7119757783641774
 30
0.0
  0
VERTEX
  5
1FF8
  8
0
 10
81.6877847786389992
 20
56.7346521137208981
 30
0.0
  0
VERTEX
  5
1FF9
  8
0
 10
81.7083645045002527
 20
56.7570044056806893
 30
0.0
  0
VERTEX
  5
1FFA
  8
0
 10
81.7291076265067602
 20
56.7790302880434581
 30
0.0
  0
VERTEX
  5
1FFB
  8
0
 10
81.75
 20
56.8007273946091829
 30
0.0
  0
SEQEND
  5
1FFC
  8
0
  0
POLYLINE
  5
1D33
  8
0
 66
     1
 10
0.0
 20
0.0
 30
0.0
  0
VERTEX
  5
1FFD
  8
0
 10
81.7499999999999716
 20
58.4976808264863166
 30
0.0
  0
VERTEX
  5
1FFE
  8
0
 10
81.7292168679389306
 20
58.4925296066812024
 30
0.0
  0
VERTEX
  5
1FFF
  8
0
 10
81.7086403470765248
 20
58.4878378748031125
 30
0.0
  0
VERTEX
  5
2000
  8
0
 10
81.6882745407241941
 20
58.4836124276640135
 30
0.0
  0
VERTEX
  5
2001
  8
0
 10
81.668123552193336
 20
58.4798600620758009
 30
0.0
  0
VERTEX
  5
2002
  8
0
 10
81.6481914847953476
 20
58.4765875748504484
 30
0.0
  0
VERTEX
  5
2003
  8
0
 10
81.6284824418416548
 20
58.473801762799873
 30
0.0
  0
VERTEX
  5
2004
  8
0
 10
81.6090005266437259
 20
58.4715094227359771
 30
0.0
  0
VERTEX
  5
2005
  8
0
 10
81.5897498425128447
 20
58.4697173514707416
 30
0.0
  0
VERTEX
  5
2006
  8
0
 10
81.5707344927605362
 20
58.4684323458160691
 30
0.0
  0
VERTEX
  5
2007
  8
0
 10
81.5519585806981553
 20
58.4676612025838978
 30
0.0
  0
VERTEX
  5
2008
  8
0
 10
81.5334202722926875
 20
58.4674118273513628
 30
0.0
  0
VERTEX
  5
2009
  8
0
 10
81.5151084935045276
 20
58.4676995596426181
 30
0.0
  0
VERTEX
  5
200A
  8
0
 10
81.4970410690714147
 20
58.4685413005029417
 30
0.0
  0
VERTEX
  5
200B
  8
0
 10
81.4792383417881041
 20
58.4699537847439501
 30
0.0
  0
VERTEX
  5
200C
  8
0
 10
81.4617206544491808
 20
58.4719537471772881
 30
0.0
  0
VERTEX
  5
200D
  8
0
 10
81.4445083498493148
 20
58.4745579226146006
 30
0.0
  0
VERTEX
  5
200E
  8
0
 10
81.4276217707831904
 20
58.4777830458675325
 30
0.0
  0
VERTEX
  5
200F
  8
0
 10
81.4110812600454352
 20
58.4816458517477074
 30
0.0
  0
VERTEX
  5
2010
  8
0
 10
81.3949071604307903
 20
58.4861630750667771
 30
0.0
  0
VERTEX
  5
2011
  8
0
 10
81.3791198147338548
 20
58.4913514506363867
 30
0.0
  0
VERTEX
  5
2012
  8
0
 10
81.3637410123580764
 20
58.4972273017499305
 30
0.0
  0
VERTEX
  5
2013
  8
0
 10
81.3488241994210171
 20
58.5037973234850313
 30
0.0
  0
VERTEX
  5
2014
  8
0
 10
81.3344071853920951
 20
58.5110711145530473
 30
0.0
  0
VERTEX
  5
2015
  8
0
 10
81.3205152203164943
 20
58.5190616222500708
 30
0.0
  0
VERTEX
  5
2016
  8
0
 10
81.3071735542394265
 20
58.5277817938722222
 30
0.0
  0
VERTEX
  5
2017
  8
0
 10
81.294407437206047
 20
58.5372445767156222
 30
0.0
  0
VERTEX
  5
2018
  8
0
 10
81.2822421192615536
 20
58.547462918076377
 30
0.0
  0
VERTEX
  5
2019
  8
0
 10
81.2707028504511158
 20
58.5584497652506002
 30
0.0
  0
VERTEX
  5
201A
  8
0
 10
81.2598148808199454
 20
58.570218065534398
 30
0.0
  0
VERTEX
  5
201B
  8
0
 10
81.2496034604131836
 20
58.5827807662238982
 30
0.0
  0
VERTEX
  5
201C
  8
0
 10
81.240093839276085
 20
58.5961508146152212
 30
0.0
  0
VERTEX
  5
201D
  8
0
 10
81.2313306198196443
 20
58.6103133533686105
 30
0.0
  0
VERTEX
  5
201E
  8
0
 10
81.2233640776854031
 20
58.625228790736081
 30
0.0
  0
VERTEX
  5
201F
  8
0
 10
81.2162100186617266
 20
58.6408954145494974
 30
0.0
  0
VERTEX
  5
2020
  8
0
 10
81.2098838279008532
 20
58.6573120432884565
 30
0.0
  0
VERTEX
  5
2021
  8
0
 10
81.2044008905551777
 20
58.6744774954325905
 30
0.0
  0
VERTEX
  5
2022
  8
0
 10
81.1997765917769527
 20
58.6923905894615103
 30
0.0
  0
VERTEX
  5
2023
  8
0
 10
81.1960263167185587
 20
58.7110501438548269
 30
0.0
  0
VERTEX
  5
2024
  8
0
 10
81.1931654505322342
 20
58.7304549770921724
 30
0.0
  0
VERTEX
  5
2025
  8
0
 10
81.1912093783703313
 20
58.7506039076531366
 30
0.0
  0
VERTEX
  5
2026
  8
0
 10
81.1901734853851735
 20
58.7714957540173728
 30
0.0
  0
VERTEX
  5
2027
  8
0
 10
81.1900745250920863
 20
58.7931093128209881
 30
0.0
  0
VERTEX
  5
2028
  8
0
 10
81.1909238513475202
 20
58.8153117622691823
 30
0.0
  0
VERTEX
  5
2029
  8
0
 10
81.1927069338999843
 20
58.8380524865634413
 30
0.0
  0
VERTEX
  5
202A
  8
0
 10
81.1954065139711929
 20
58.8612996129472066
 30
0.0
  0
VERTEX
  5
202B
  8
0
 10
81.1990053327828321
 20
58.8850212686639694
 30
0.0
  0
VERTEX
  5
202C
  8
0
 10
81.2034861315566161
 20
58.9091855809571712
 30
0.0
  0
VERTEX
  5
202D
  8
0
 10
81.2088316515142026
 20
58.933760677070282
 30
0.0
  0
VERTEX
  5
202E
  8
0
 10
81.2150246338773343
 20
58.9587146842467504
 30
0.0
  0
VERTEX
  5
202F
  8
0
 10
81.2220478198676972
 20
58.9840157297300394
 30
0.0
  0
VERTEX
  5
2030
  8
0
 10
81.229883950706963
 20
59.0096319407636329
 30
0.0
  0
VERTEX
  5
2031
  8
0
 10
81.238515663569089
 20
59.0355312809244026
 30
0.0
  0
VERTEX
  5
2032
  8
0
 10
81.2479142482727639
 20
59.0616687549218966
 30
0.0
  0
VERTEX
  5
2033
  8
0
 10
81.2580435520006006
 20
59.0880029957514097
 30
0.0
  0
VERTEX
  5
2034
  8
0
 10
81.2688705023982152
 20
59.1145004403841696
 30
0.0
  0
VERTEX
  5
2035
  8
0
 10
81.2803620271112663
 20
59.1411275257913687
 30
0.0
  0
VERTEX
  5
2036
  8
0
 10
81.2924850537853843
 20
59.1678506889442275
 30
0.0
  0
VERTEX
  5
2037
  8
0
 10
81.3052065100661849
 20
59.1946363668139668
 30
0.0
  0
VERTEX
  5
2038
  8
0
 10
81.3184933235993412
 20
59.2214509963718001
 30
0.0
  0
VERTEX
  5
2039
  8
0
 10
81.3323124220304265
 20
59.248261014588941
 30
0.0
  0
VERTEX
  5
203A
  8
0
 10
81.3466307330051563
 20
59.2750328584365889
 30
0.0
  0
VERTEX
  5
203B
  8
0
 10
81.3614151841690898
 20
59.3017329648859786
 30
0.0
  0
VERTEX
  5
203C
  8
0
 10
81.3766351051921646
 20
59.3283436214637518
 30
0.0
  0
VERTEX
  5
203D
  8
0
 10
81.3922729564509382
 20
59.3548839403390929
 30
0.0
  0
VERTEX
  5
203E
  8
0
 10
81.4083146632178938
 20
59.3813491256274801
 30
0.0
  0
VERTEX
  5
203F
  8
0
 10
81.4247460810396433
 20
59.4077329045449432
 30
0.0
  0
VERTEX
  5
2040
  8
0
 10
81.4415530654626991
 20
59.4340290043075115
 30
0.0
  0
VERTEX
  5
2041
  8
0
 10
81.4587214720336306
 20
59.4602311521312075
 30
0.0
  0
VERTEX
  5
2042
  8
0
 10
81.4762371562989927
 20
59.486333075232082
 30
0.0
  0
VERTEX
  5
2043
  8
0
 10
81.4940859738053263
 20
59.5123285008261504
 30
0.0
  0
VERTEX
  5
2044
  8
0
 10
81.5122537800992006
 20
59.5382111561294565
 30
0.0
  0
VERTEX
  5
2045
  8
0
 10
81.5307264307271851
 20
59.5639747683580225
 30
0.0
  0
VERTEX
  5
2046
  8
0
 10
81.5494897812358346
 20
59.589613064727871
 30
0.0
  0
VERTEX
  5
2047
  8
0
 10
81.5685296871716474
 20
59.6151197724550599
 30
0.0
  0
VERTEX
  5
2048
  8
0
 10
81.5878320040812355
 20
59.6404886187555974
 30
0.0
  0
VERTEX
  5
2049
  8
0
 10
81.6073825875111538
 20
59.6657133308455201
 30
0.0
  0
VERTEX
  5
204A
  8
0
 10
81.6271672930079433
 20
59.6907876359408505
 30
0.0
  0
VERTEX
  5
204B
  8
0
 10
81.6471719761181163
 20
59.7157052612576393
 30
0.0
  0
VERTEX
  5
204C
  8
0
 10
81.6673824923883132
 20
59.740459934011902
 30
0.0
  0
VERTEX
  5
204D
  8
0
 10
81.6877846973650747
 20
59.7650453814196823
 30
0.0
  0
VERTEX
  5
204E
  8
0
 10
81.7083644465948566
 20
59.7894553306970025
 30
0.0
  0
VERTEX
  5
204F
  8
0
 10
81.7291075956243134
 20
59.8136835090598922
 30
0.0
  0
VERTEX
  5
2050
  8
0
 10
81.75
 20
59.8377236437243809
 30
0.0
  0
SEQEND
  5
2051
  8
0
  0
POLYLINE
  5
1D34
  8
0
 66
     1
 10
0.0
 20
0.0
 30
0.0
  0
VERTEX
  5
2052
  8
0
 10
81.7499999999998579
 20
61.0138710381783795
 30
0.0
  0
VERTEX
  5
2053
  8
0
 10
81.7292169360140832
 20
61.0013453323259682
 30
0.0
  0
VERTEX
  5
2054
  8
0
 10
81.7086404729974873
 20
60.9892018439836221
 30
0.0
  0
VERTEX
  5
2055
  8
0
 10
81.6882747144155843
 20
60.9774459767737227
 30
0.0
  0
VERTEX
  5
2056
  8
0
 10
81.6681237637338455
 20
60.9660831343186302
 30
0.0
  0
VERTEX
  5
2057
  8
0
 10
81.6481917244178135
 20
60.9551187202407192
 30
0.0
  0
VERTEX
  5
2058
  8
0
 10
81.6284826999330448
 20
60.9445581381623569
 30
0.0
  0
VERTEX
  5
2059
  8
0
 10
81.6090007937450537
 20
60.9344067917059107
 30
0.0
  0
VERTEX
  5
205A
  8
0
 10
81.5897501093193682
 20
60.9246700844937692
 30
0.0
  0
VERTEX
  5
205B
  8
0
 10
81.5707347501215168
 20
60.9153534201482714
 30
0.0
  0
VERTEX
  5
205C
  8
0
 10
81.5519588196169991
 20
60.9064622022917987
 30
0.0
  0
VERTEX
  5
205D
  8
0
 10
81.5334204803097293
 20
60.8979998836852374
 30
0.0
  0
VERTEX
  5
205E
  8
0
 10
81.5151086478615952
 20
60.8899702498097
 30
0.0
  0
VERTEX
  5
205F
  8
0
 10
81.4970411528477143
 20
60.8823906878455219
 30
0.0
  0
VERTEX
  5
2060
  8
0
 10
81.4792383453697937
 20
60.8752795917439968
 30
0.0
  0
VERTEX
  5
2061
  8
0
 10
81.461720575529597
 20
60.8686553554564469
 30
0.0
  0
VERTEX
  5
2062
  8
0
 10
81.4445081934289306
 20
60.8625363729341871
 30
0.0
  0
VERTEX
  5
2063
  8
0
 10
81.4276215491695439
 20
60.856941038128511
 30
0.0
  0
VERTEX
  5
2064
  8
0
 10
81.4110809928531864
 20
60.8518877449907407
 30
0.0
  0
VERTEX
  5
2065
  8
0
 10
81.3949068745816646
 20
60.84739488747217
 30
0.0
  0
VERTEX
  5
2066
  8
0
 10
81.3791195444566853
 20
60.8434808595241066
 30
0.0
  0
VERTEX
  5
2067
  8
0
 10
81.3637407967343051
 20
60.8401644421441716
 30
0.0
  0
VERTEX
  5
2068
  8
0
 10
81.3488240304785251
 20
60.8374724337837165
 30
0.0
  0
VERTEX
  5
2069
  8
0
 10
81.3344070391221834
 20
60.8354263272069034
 30
0.0
  0
VERTEX
  5
206A
  8
0
 10
81.320515078635637
 20
60.8340440919746612
 30
0.0
  0
VERTEX
  5
206B
  8
0
 10
81.3071734049890438
 20
60.8333436976479405
 30
0.0
  0
VERTEX
  5
206C
  8
0
 10
81.2944072741527037
 20
60.8333431137876701
 30
0.0
  0
VERTEX
  5
206D
  8
0
 10
81.2822419420968458
 20
60.8340603099548005
 30
0.0
  0
VERTEX
  5
206E
  8
0
 10
81.2707026647917843
 20
60.8355132557102394
 30
0.0
  0
VERTEX
  5
206F
  8
0
 10
81.2598146982077054
 20
60.8377199206149584
 30
0.0
  0
VERTEX
  5
2070
  8
0
 10
81.249603298314895
 20
60.8406982742298865
 30
0.0
  0
VERTEX
  5
2071
  8
0
 10
81.2400937210836389
 20
60.84446628611596
 30
0.0
  0
VERTEX
  5
2072
  8
0
 10
81.2313305556145338
 20
60.849033714001159
 30
0.0
  0
VERTEX
  5
2073
  8
0
 10
81.2233640509902557
 20
60.8543981873082984
 30
0.0
  0
VERTEX
  5
2074
  8
0
 10
81.2162100153585556
 20
60.8605651358487805
 30
0.0
  0
VERTEX
  5
2075
  8
0
 10
81.2098838366155462
 20
60.8675401247191701
 30
0.0
  0
VERTEX
  5
2076
  8
0
 10
81.2044009026571985
 20
60.8753287190160322
 30
0.0
  0
VERTEX
  5
2077
  8
0
 10
81.1997766013794831
 20
60.8839364838359174
 30
0.0
  0
VERTEX
  5
2078
  8
0
 10
81.1960263206784703
 20
60.8933689842753907
 30
0.0
  0
VERTEX
  5
2079
  8
0
 10
81.1931654484501735
 20
60.903631785431017
 30
0.0
  0
VERTEX
  5
207A
  8
0
 10
81.1912093725905777
 20
60.9147304523993611
 30
0.0
  0
VERTEX
  5
207B
  8
0
 10
81.1901734809957247
 20
60.926670550276981
 30
0.0
  0
VERTEX
  5
207C
  8
0
 10
81.1900745287741046
 20
60.9394463878487969
 30
0.0
  0
VERTEX
  5
207D
  8
0
 10
81.1909238644108058
 20
60.9529841531871881
 30
0.0
  0
VERTEX
  5
207E
  8
0
 10
81.1927069561506158
 20
60.9672478994602187
 30
0.0
  0
VERTEX
  5
207F
  8
0
 10
81.1954065447274331
 20
60.9822116206860088
 30
0.0
  0
VERTEX
  5
2080
  8
0
 10
81.1990053708751134
 20
60.9978493108826925
 30
0.0
  0
VERTEX
  5
2081
  8
0
 10
81.2034861753275266
 20
61.0141349640683686
 30
0.0
  0
VERTEX
  5
2082
  8
0
 10
81.2088316988185852
 20
61.0310425742611571
 30
0.0
  0
VERTEX
  5
2083
  8
0
 10
81.2150246820821167
 20
61.0485461354791781
 30
0.0
  0
VERTEX
  5
2084
  8
0
 10
81.2220478658520335
 20
61.0666196417405516
 30
0.0
  0
VERTEX
  5
2085
  8
0
 10
81.2298839908622341
 20
61.0852370870633834
 30
0.0
  0
VERTEX
  5
2086
  8
0
 10
81.2385156938818227
 20
61.1043723287176235
 30
0.0
  0
VERTEX
  5
2087
  8
0
 10
81.247914270552414
 20
61.1239870827341321
 30
0.0
  0
VERTEX
  5
2088
  8
0
 10
81.2580435709436983
 20
61.1440419770865802
 30
0.0
  0
VERTEX
  5
2089
  8
0
 10
81.2688705214166305
 20
61.1645033654719867
 30
0.0
  0
VERTEX
  5
208A
  8
0
 10
81.2803620483321652
 20
61.1853376015873707
 30
0.0
  0
VERTEX
  5
208B
  8
0
 10
81.2924850780512855
 20
61.2065110391297793
 30
0.0
  0
VERTEX
  5
208C
  8
0
 10
81.305206536934989
 20
61.2279900317962316
 30
0.0
  0
VERTEX
  5
208D
  8
0
 10
81.3184933513442161
 20
61.2497409332837606
 30
0.0
  0
VERTEX
  5
208E
  8
0
 10
81.3323124476399641
 20
61.2717300972893781
 30
0.0
  0
VERTEX
  5
208F
  8
0
 10
81.3466307521831737
 20
61.2939238775101529
 30
0.0
  0
VERTEX
  5
2090
  8
0
 10
81.3614151913348564
 20
61.3162886276430825
 30
0.0
  0
VERTEX
  5
2091
  8
0
 10
81.376635096554665
 20
61.3388013360710929
 30
0.0
  0
VERTEX
  5
2092
  8
0
 10
81.3922729349675365
 20
61.36146667700298
 30
0.0
  0
VERTEX
  5
2093
  8
0
 10
81.4083146319069613
 20
61.3842760804251313
 30
0.0
  0
VERTEX
  5
2094
  8
0
 10
81.4247460426493745
 20
61.4072200462148885
 30
0.0
  0
VERTEX
  5
2095
  8
0
 10
81.441553022471183
 20
61.4302890742496004
 30
0.0
  0
VERTEX
  5
2096
  8
0
 10
81.458721426648907
 20
61.4534736644066086
 30
0.0
  0
VERTEX
  5
2097
  8
0
 10
81.4762371104589249
 20
61.476764316563262
 30
0.0
  0
VERTEX
  5
2098
  8
0
 10
81.494085929177686
 20
61.5001515305969022
 30
0.0
  0
VERTEX
  5
2099
  8
0
 10
81.5122537380816539
 20
61.5236258063848709
 30
0.0
  0
VERTEX
  5
209A
  8
0
 10
81.5307263924472352
 20
61.5471776438045168
 30
0.0
  0
VERTEX
  5
209B
  8
0
 10
81.5494897475509077
 20
61.5707975427331817
 30
0.0
  0
VERTEX
  5
209C
  8
0
 10
81.5685296586691493
 20
61.5944760030482072
 30
0.0
  0
VERTEX
  5
209D
  8
0
 10
81.5878319810783239
 20
61.6182035246269635
 30
0.0
  0
VERTEX
  5
209E
  8
0
 10
81.6073825700549378
 20
61.6419706073467566
 30
0.0
  0
VERTEX
  5
209F
  8
0
 10
81.6271672808753976
 20
61.6657677510849496
 30
0.0
  0
VERTEX
  5
20A0
  8
0
 10
81.6471719688161386
 20
61.6895854557188983
 30
0.0
  0
VERTEX
  5
20A1
  8
0
 10
81.6673824891536526
 20
61.7134142211259302
 30
0.0
  0
VERTEX
  5
20A2
  8
0
 10
81.6877846971643464
 20
61.7372445471834013
 30
0.0
  0
VERTEX
  5
20A3
  8
0
 10
81.7083644481246552
 20
61.7610669337686389
 30
0.0
  0
VERTEX
  5
20A4
  8
0
 10
81.729107597311085
 20
61.7848718807590132
 30
0.0
  0
VERTEX
  5
20A5
  8
0
 10
81.7499999999999716
 20
61.8086498880318302
 30
0.0
  0
SEQEND
  5
20A6
  8
0
  0
POLYLINE
  5
1D35
  8
0
 66
     1
 10
0.0
 20
0.0
 30
0.0
  0
VERTEX
  5
20A7
  8
0
 10
81.7499999999999716
 20
62.3365374250666093
 30
0.0
  0
VERTEX
  5
20A8
  8
0
 10
81.7292171156137641
 20
62.3179947315249265
 30
0.0
  0
VERTEX
  5
20A9
  8
0
 10
81.7086408048816963
 20
62.2997155453446467
 30
0.0
  0
VERTEX
  5
20AA
  8
0
 10
81.6882751716831876
 20
62.2817032914357327
 30
0.0
  0
VERTEX
  5
20AB
  8
0
 10
81.6681243198977143
 20
62.263961394708133
 30
0.0
  0
VERTEX
  5
20AC
  8
0
 10
81.6481923534047667
 20
62.2464932800718529
 30
0.0
  0
VERTEX
  5
20AD
  8
0
 10
81.6284833760837785
 20
62.2293023724368197
 30
0.0
  0
VERTEX
  5
20AE
  8
0
 10
81.6090014918142401
 20
62.2123920967130317
 30
0.0
  0
VERTEX
  5
20AF
  8
0
 10
81.5897508044756137
 20
62.1957658778104303
 30
0.0
  0
VERTEX
  5
20B0
  8
0
 10
81.5707354179473469
 20
62.1794271406389996
 30
0.0
  0
VERTEX
  5
20B1
  8
0
 10
81.5519594361089162
 20
62.1633793101087022
 30
0.0
  0
VERTEX
  5
20B2
  8
0
 10
81.5334210122069578
 20
62.1476210028073197
 30
0.0
  0
VERTEX
  5
20B3
  8
0
 10
81.5151090343771045
 20
62.1321440130700893
 30
0.0
  0
VERTEX
  5
20B4
  8
0
 10
81.4970413488176177
 20
62.1169643440935175
 30
0.0
  0
VERTEX
  5
20B5
  8
0
 10
81.4792383251837151
 20
62.1021000734928919
 30
0.0
  0
VERTEX
  5
20B6
  8
0
 10
81.4617203331306428
 20
62.087569278883457
 30
0.0
  0
VERTEX
  5
20B7
  8
0
 10
81.4445077423135757
 20
62.0733900378805288
 30
0.0
  0
VERTEX
  5
20B8
  8
0
 10
81.4276209223877458
 20
62.0595804280993519
 30
0.0
  0
VERTEX
  5
20B9
  8
0
 10
81.4110802430083709
 20
62.0461585271551996
 30
0.0
  0
VERTEX
  5
20BA
  8
0
 10
81.3949060738306542
 20
62.0331424126633806
 30
0.0
  0
VERTEX
  5
20BB
  8
0
 10
81.3791187845097852
 20
62.0205501622391324
 30
0.0
  0
VERTEX
  5
20BC
  8
0
 10
81.3637401822883817
 20
62.0084009909421425
 30
0.0
  0
VERTEX
  5
20BD
  8
0
 10
81.3488235403545872
 20
61.9967387772088472
 30
0.0
  0
VERTEX
  5
20BE
  8
0
 10
81.3344066092553248
 20
61.9855945397700268
 30
0.0
  0
VERTEX
  5
20BF
  8
0
 10
81.3205146608309235
 20
61.9749893400930603
 30
0.0
  0
VERTEX
  5
20C0
  8
0
 10
81.3071729669217262
 20
61.9649442396454191
 30
0.0
  0
VERTEX
  5
20C1
  8
0
 10
81.2944067993681756
 20
61.955480299894532
 30
0.0
  0
VERTEX
  5
20C2
  8
0
 10
81.2822414300106146
 20
61.9466185823078135
 30
0.0
  0
VERTEX
  5
20C3
  8
0
 10
81.270702130689358
 20
61.9383801483527208
 30
0.0
  0
VERTEX
  5
20C4
  8
0
 10
81.2598141732448482
 20
61.9307860594966613
 30
0.0
  0
VERTEX
  5
20C5
  8
0
 10
81.2496028295174142
 20
61.9238573772070922
 30
0.0
  0
VERTEX
  5
20C6
  8
0
 10
81.2400933713474132
 20
61.9176151629514422
 30
0.0
  0
VERTEX
  5
20C7
  8
0
 10
81.2313303522070669
 20
61.9120926859871616
 30
0.0
  0
VERTEX
  5
20C8
  8
0
 10
81.2233639500771005
 20
61.9073249676258897
 30
0.0
  0
VERTEX
  5
20C9
  8
0
 10
81.2162099794225298
 20
61.9033240022719795
 30
0.0
  0
VERTEX
  5
20CA
  8
0
 10
81.2098838354854422
 20
61.9001015108668824
 30
0.0
  0
VERTEX
  5
20CB
  8
0
 10
81.2044009135077687
 20
61.8976692143520566
 30
0.0
  0
VERTEX
  5
20CC
  8
0
 10
81.1997766087316108
 20
61.8960388336690173
 30
0.0
  0
VERTEX
  5
20CD
  8
0
 10
81.196026316398914
 20
61.8952220897592085
 30
0.0
  0
VERTEX
  5
20CE
  8
0
 10
81.1931654317517939
 20
61.8952307035641098
 30
0.0
  0
VERTEX
  5
20CF
  8
0
 10
81.1912093500321816
 20
61.8960763960252009
 30
0.0
  0
VERTEX
  5
20D0
  8
0
 10
81.1901734664821504
 20
61.8977708880839472
 30
0.0
  0
VERTEX
  5
20D1
  8
0
 10
81.1900745404687854
 20
61.9003246198438291
 30
0.0
  0
VERTEX
  5
20D2
  8
0
 10
81.1909239060447732
 20
61.9037307376012933
 30
0.0
  0
VERTEX
  5
20D3
  8
0
 10
81.1927070273975175
 20
61.9079718524388483
 30
0.0
  0
VERTEX
  5
20D4
  8
0
 10
81.1954066439293172
 20
61.9130306463196192
 30
0.0
  0
VERTEX
  5
20D5
  8
0
 10
81.1990054950423996
 20
61.9188898012066673
 30
0.0
  0
VERTEX
  5
20D6
  8
0
 10
81.203486320139092
 20
61.9255319990631108
 30
0.0
  0
VERTEX
  5
20D7
  8
0
 10
81.208831858621636
 20
61.9329399218520322
 30
0.0
  0
VERTEX
  5
20D8
  8
0
 10
81.2150248498923446
 20
61.9410962515365426
 30
0.0
  0
VERTEX
  5
20D9
  8
0
 10
81.2220480333535306
 20
61.9499836700797175
 30
0.0
  0
VERTEX
  5
20DA
  8
0
 10
81.2298841484074217
 20
61.9595848594446608
 30
0.0
  0
VERTEX
  5
20DB
  8
0
 10
81.2385158307144764
 20
61.9698824065378702
 30
0.0
  0
VERTEX
  5
20DC
  8
0
 10
81.2479143915199984
 20
61.9808488860177889
 30
0.0
  0
VERTEX
  5
20DD
  8
0
 10
81.2580436886295558
 20
61.9924511848146267
 30
0.0
  0
VERTEX
  5
20DE
  8
0
 10
81.2688706449485636
 20
62.0046592186002314
 30
0.0
  0
VERTEX
  5
20DF
  8
0
 10
81.2803621833826639
 20
62.017442903046458
 30
0.0
  0
VERTEX
  5
20E0
  8
0
 10
81.2924852268372433
 20
62.0307721538251613
 30
0.0
  0
VERTEX
  5
20E1
  8
0
 10
81.3052066982178587
 20
62.0446168866081678
 30
0.0
  0
VERTEX
  5
20E2
  8
0
 10
81.318493520430053
 20
62.0589470170673607
 30
0.0
  0
VERTEX
  5
20E3
  8
0
 10
81.3323126163792551
 20
62.0737324608745524
 30
0.0
  0
VERTEX
  5
20E4
  8
0
 10
81.3466309089710364
 20
62.0889431337015978
 30
0.0
  0
VERTEX
  5
20E5
  8
0
 10
81.3614153211109112
 20
62.1045489512203588
 30
0.0
  0
VERTEX
  5
20E6
  8
0
 10
81.3766351892363531
 20
62.1205240985349292
 30
0.0
  0
VERTEX
  5
20E7
  8
0
 10
81.3922729989053551
 20
62.1368583121338887
 30
0.0
  0
VERTEX
  5
20E8
  8
0
 10
81.4083146754018117
 20
62.1535401763672866
 30
0.0
  0
VERTEX
  5
20E9
  8
0
 10
81.424746073041689
 20
62.1705579927226708
 30
0.0
  0
VERTEX
  5
20EA
  8
0
 10
81.4415530461409105
 20
62.1879000626876106
 30
0.0
  0
VERTEX
  5
20EB
  8
0
 10
81.4587214490153997
 20
62.2055546877497108
 30
0.0
  0
VERTEX
  5
20EC
  8
0
 10
81.4762371359811084
 20
62.2235101693965191
 30
0.0
  0
VERTEX
  5
20ED
  8
0
 10
81.4940859613539601
 20
62.2417548091156334
 30
0.0
  0
VERTEX
  5
20EE
  8
0
 10
81.5122537794498641
 20
62.2602769083946086
 30
0.0
  0
VERTEX
  5
20EF
  8
0
 10
81.5307264445847863
 20
62.2790647687210281
 30
0.0
  0
VERTEX
  5
20F0
  8
0
 10
81.5494898110746647
 20
62.2981066915824684
 30
0.0
  0
VERTEX
  5
20F1
  8
0
 10
81.5685297332353656
 20
62.3173909784664914
 30
0.0
  0
VERTEX
  5
20F2
  8
0
 10
81.5878320653829121
 20
62.3369059308606879
 30
0.0
  0
VERTEX
  5
20F3
  8
0
 10
81.607382661833185
 20
62.3566398502526198
 30
0.0
  0
VERTEX
  5
20F4
  8
0
 10
81.627167376902122
 20
62.3765810381298778
 30
0.0
  0
VERTEX
  5
20F5
  8
0
 10
81.6471720649056465
 20
62.3967177959800168
 30
0.0
  0
VERTEX
  5
20F6
  8
0
 10
81.6673825801597246
 20
62.4170384252906274
 30
0.0
  0
VERTEX
  5
20F7
  8
0
 10
81.6877847769802656
 20
62.4375312275492789
 30
0.0
  0
VERTEX
  5
20F8
  8
0
 10
81.7083645096831788
 20
62.4581845042435475
 30
0.0
  0
VERTEX
  5
20F9
  8
0
 10
81.7291076325844585
 20
62.4789865568610097
 30
0.0
  0
VERTEX
  5
20FA
  8
0
 10
81.7499999999999716
 20
62.4999256868892417
 30
0.0
  0
SEQEND
  5
20FB
  8
0
  0
POLYLINE
  5
1D36
  8
0
 66
     1
 10
0.0
 20
0.0
 30
0.0
  0
VERTEX
  5
20FC
  8
0
 10
81.7500000000000142
 20
161.836640581241312
 30
0.0
  0
VERTEX
  5
20FD
  8
0
 10
81.7292170045427611
 20
161.8208915563444918
 30
0.0
  0
VERTEX
  5
20FE
  8
0
 10
81.708640599642024
 20
161.8054698622329113
 30
0.0
  0
VERTEX
  5
20FF
  8
0
 10
81.6882748889210291
 20
161.7903799742393005
 30
0.0
  0
VERTEX
  5
2100
  8
0
 10
81.6681239760030735
 20
161.7756263676965887
 30
0.0
  0
VERTEX
  5
2101
  8
0
 10
81.648191964511426
 20
161.7612135179375912
 30
0.0
  0
VERTEX
  5
2102
  8
0
 10
81.628482958069327
 20
161.7471459002950951
 30
0.0
  0
VERTEX
  5
2103
  8
0
 10
81.6090010603000735
 20
161.7334279901020011
 30
0.0
  0
VERTEX
  5
2104
  8
0
 10
81.589750374826906
 20
161.720064262691011
 30
0.0
  0
VERTEX
  5
2105
  8
0
 10
81.5707350052731215
 20
161.707059193394997
 30
0.0
  0
VERTEX
  5
2106
  8
0
 10
81.5519590552619746
 20
161.694417257547002
 30
0.0
  0
VERTEX
  5
2107
  8
0
 10
81.5334206837667352
 20
161.6821395062187037
 30
0.0
  0
VERTEX
  5
2108
  8
0
 10
81.515108795950681
 20
161.670223704813111
 30
0.0
  0
VERTEX
  5
2109
  8
0
 10
81.4970412283448127
 20
161.6586867763091959
 30
0.0
  0
VERTEX
  5
210A
  8
0
 10
81.4792383385057377
 20
161.6475472047492019
 30
0.0
  0
VERTEX
  5
210B
  8
0
 10
81.4617204839901206
 20
161.6368234741750882
 30
0.0
  0
VERTEX
  5
210C
  8
0
 10
81.4445080223544551
 20
161.6265340686290983
 30
0.0
  0
VERTEX
  5
210D
  8
0
 10
81.4276213111553631
 20
161.6166974721531915
 30
0.0
  0
VERTEX
  5
210E
  8
0
 10
81.4110807079495089
 20
161.6073321687896112
 30
0.0
  0
VERTEX
  5
210F
  8
0
 10
81.3949065702934149
 20
161.5984566425804871
 30
0.0
  0
VERTEX
  5
2110
  8
0
 10
81.3791192557437171
 20
161.5900893775678071
 30
0.0
  0
VERTEX
  5
2111
  8
0
 10
81.3637405635076476
 20
161.5822496319617869
 30
0.0
  0
VERTEX
  5
2112
  8
0
 10
81.3488238446606999
 20
161.5749732593669137
 30
0.0
  0
VERTEX
  5
2113
  8
0
 10
81.3344068762853283
 20
161.5682868871045912
 30
0.0
  0
VERTEX
  5
2114
  8
0
 10
81.3205149204014219
 20
161.5622102966146088
 30
0.0
  0
VERTEX
  5
2115
  8
0
 10
81.3071732390288275
 20
161.5567632693366136
 30
0.0
  0
VERTEX
  5
2116
  8
0
 10
81.2944070941874344
 20
161.5519655867101108
 30
0.0
  0
VERTEX
  5
2117
  8
0
 10
81.2822417478970749
 20
161.5478370301750033
 30
0.0
  0
VERTEX
  5
2118
  8
0
 10
81.2707024621776384
 20
161.54439738117091
 30
0.0
  0
VERTEX
  5
2119
  8
0
 10
81.2598144990489857
 20
161.5416664211373075
 30
0.0
  0
VERTEX
  5
211A
  8
0
 10
81.2496031205309492
 20
161.5396639315140987
 30
0.0
  0
VERTEX
  5
211B
  8
0
 10
81.2400935886434468
 20
161.5384096937409026
 30
0.0
  0
VERTEX
  5
211C
  8
0
 10
81.2313304789057042
 20
161.5379255300755972
 30
0.0
  0
VERTEX
  5
211D
  8
0
 10
81.223364013296603
 20
161.5382280123527892
 30
0.0
  0
VERTEX
  5
211E
  8
0
 10
81.2162100023719802
 20
161.5393259702780142
 30
0.0
  0
VERTEX
  5
211F
  8
0
 10
81.209883836827828
 20
161.5412281632038969
 30
0.0
  0
VERTEX
  5
2120
  8
0
 10
81.2044009073603377
 20
161.5439433504834028
 30
0.0
  0
VERTEX
  5
2121
  8
0
 10
81.1997766046656295
 20
161.5474802914689008
 30
0.0
  0
VERTEX
  5
2122
  8
0
 10
81.1960263194397669
 20
161.5518477455131858
 30
0.0
  0
VERTEX
  5
2123
  8
0
 10
81.1931654423788842
 20
161.55705447196911
 30
0.0
  0
VERTEX
  5
2124
  8
0
 10
81.1912093641791159
 20
161.5631092301892124
 30
0.0
  0
VERTEX
  5
2125
  8
0
 10
81.1901734755365538
 20
161.5700207795262031
 30
0.0
  0
VERTEX
  5
2126
  8
0
 10
81.1900745331831644
 20
161.5777915268405138
 30
0.0
  0
VERTEX
  5
2127
  8
0
 10
81.1909238801043216
 20
161.5863805958136084
 30
0.0
  0
VERTEX
  5
2128
  8
0
 10
81.1927069829989847
 20
161.5957609514748867
 30
0.0
  0
VERTEX
  5
2129
  8
0
 10
81.1954065820941082
 20
161.6059106312661129
 30
0.0
  0
VERTEX
  5
212A
  8
0
 10
81.1990054176166609
 20
161.6168076726293066
 30
0.0
  0
VERTEX
  5
212B
  8
0
 10
81.2034862297935831
 20
161.6284301130064023
 30
0.0
  0
VERTEX
  5
212C
  8
0
 10
81.2088317588518578
 20
161.640755989839306
 30
0.0
  0
VERTEX
  5
212D
  8
0
 10
81.2150247450184111
 20
161.6537633405698955
 30
0.0
  0
VERTEX
  5
212E
  8
0
 10
81.2220479285201975
 20
161.6674302026403041
 30
0.0
  0
VERTEX
  5
212F
  8
0
 10
81.2298840495841858
 20
161.6817346134924094
 30
0.0
  0
VERTEX
  5
2130
  8
0
 10
81.2385157445575885
 20
161.6966544930942007
 30
0.0
  0
VERTEX
  5
2131
  8
0
 10
81.2479143150300729
 20
161.7121565341147118
 30
0.0
  0
VERTEX
  5
2132
  8
0
 10
81.2580436140202664
 20
161.7282039942544998
 30
0.0
  0
VERTEX
  5
2133
  8
0
 10
81.2688705665721471
 20
161.7447645675790966
 30
0.0
  0
VERTEX
  5
2134
  8
0
 10
81.2803620977298351
 20
161.7618059481540058
 30
0.0
  0
VERTEX
  5
2135
  8
0
 10
81.2924851325373368
 20
161.7792958300445889
 30
0.0
  0
VERTEX
  5
2136
  8
0
 10
81.3052065960386443
 20
161.7972019073164063
 30
0.0
  0
VERTEX
  5
2137
  8
0
 10
81.3184934132778352
 20
161.8154918740349046
 30
0.0
  0
VERTEX
  5
2138
  8
0
 10
81.3323125092989869
 20
161.8341334242653886
 30
0.0
  0
VERTEX
  5
2139
  8
0
 10
81.3466308091460633
 20
161.8530942520737028
 30
0.0
  0
VERTEX
  5
213A
  8
0
 10
81.3614152378631559
 20
161.8723420515250098
 30
0.0
  0
VERTEX
  5
213B
  8
0
 10
81.3766351288027749
 20
161.8918520715224076
 30
0.0
  0
VERTEX
  5
213C
  8
0
 10
81.3922729561077745
 20
161.9116214781599865
 30
0.0
  0
VERTEX
  5
213D
  8
0
 10
81.4083146450983293
 20
161.931640140471103
 30
0.0
  0
VERTEX
  5
213E
  8
0
 10
81.4247460506909704
 20
161.9518973126475885
 30
0.0
  0
VERTEX
  5
213F
  8
0
 10
81.4415530278022288
 20
161.9723822488813028
 30
0.0
  0
VERTEX
  5
2140
  8
0
 10
81.4587214313486356
 20
161.9930842033637077
 30
0.0
  0
VERTEX
  5
2141
  8
0
 10
81.4762371162466934
 20
162.0139924302866916
 30
0.0
  0
VERTEX
  5
2142
  8
0
 10
81.4940859374129332
 20
162.0350961838420858
 30
0.0
  0
VERTEX
  5
2143
  8
0
 10
81.5122537497639144
 20
162.0563847182214943
 30
0.0
  0
VERTEX
  5
2144
  8
0
 10
81.5307264082161396
 20
162.0778472876168053
 30
0.0
  0
VERTEX
  5
2145
  8
0
 10
81.5494897676861257
 20
162.0994731462195944
 30
0.0
  0
VERTEX
  5
2146
  8
0
 10
81.5685296830904463
 20
162.1212515482216929
 30
0.0
  0
VERTEX
  5
2147
  8
0
 10
81.5878320093455898
 20
162.1431717478149039
 30
0.0
  0
VERTEX
  5
2148
  8
0
 10
81.6073826013681014
 20
162.1652229991908882
 30
0.0
  0
VERTEX
  5
2149
  8
0
 10
81.6271673140744838
 20
162.1873945565413919
 30
0.0
  0
VERTEX
  5
214A
  8
0
 10
81.6471720023812964
 20
162.2096756740583032
 30
0.0
  0
VERTEX
  5
214B
  8
0
 10
81.6673825212050417
 20
162.2320556059331125
 30
0.0
  0
VERTEX
  5
214C
  8
0
 10
81.6877847254622509
 20
162.2545236063577931
 30
0.0
  0
VERTEX
  5
214D
  8
0
 10
81.7083644700694833
 20
162.2770689295240061
 30
0.0
  0
VERTEX
  5
214E
  8
0
 10
81.7291076099432559
 20
162.2996808296234974
 30
0.0
  0
VERTEX
  5
214F
  8
0
 10
81.7500000000000142
 20
162.3223485608480132
 30
0.0
  0
SEQEND
  5
2150
  8
0
  0
POLYLINE
  5
1D37
  8
0
 66
     1
 10
0.0
 20
0.0
 30
0.0
  0
VERTEX
  5
2151
  8
0
 10
81.7499999999999716
 20
137.6776514391524984
 30
0.0
  0
VERTEX
  5
2152
  8
0
 10
81.7292168790006599
 20
137.7002020962989945
 30
0.0
  0
VERTEX
  5
2153
  8
0
 10
81.7086403666325083
 20
137.7226364551482902
 30
0.0
  0
VERTEX
  5
2154
  8
0
 10
81.6882745662526872
 20
137.7449534419077111
 30
0.0
  0
VERTEX
  5
2155
  8
0
 10
81.6681235812182251
 20
137.7671519827840996
 30
0.0
  0
VERTEX
  5
2156
  8
0
 10
81.6481915148862925
 20
137.7892310039848951
 30
0.0
  0
VERTEX
  5
2157
  8
0
 10
81.6284824706139318
 20
137.8111894317171107
 30
0.0
  0
VERTEX
  5
2158
  8
0
 10
81.6090005517582853
 20
137.8330261921877877
 30
0.0
  0
VERTEX
  5
2159
  8
0
 10
81.5897498616764949
 20
137.8547402116043088
 30
0.0
  0
VERTEX
  5
215A
  8
0
 10
81.5707345037255891
 20
137.8763304161736869
 30
0.0
  0
VERTEX
  5
215B
  8
0
 10
81.5519585812627383
 20
137.8977957321031909
 30
0.0
  0
VERTEX
  5
215C
  8
0
 10
81.5334202593199535
 20
137.9191422126934015
 30
0.0
  0
VERTEX
  5
215D
  8
0
 10
81.5151084610733108
 20
137.9403891159344937
 30
0.0
  0
VERTEX
  5
215E
  8
0
 10
81.4970410128544245
 20
137.961523585957309
 30
0.0
  0
VERTEX
  5
215F
  8
0
 10
81.4792382594503977
 20
137.9825298567907907
 30
0.0
  0
VERTEX
  5
2160
  8
0
 10
81.4617205456484328
 20
138.0033921624641948
 30
0.0
  0
VERTEX
  5
2161
  8
0
 10
81.4445082162356186
 20
138.0240947370066067
 30
0.0
  0
VERTEX
  5
2162
  8
0
 10
81.4276216159991577
 20
138.0446218144471118
 30
0.0
  0
VERTEX
  5
2163
  8
0
 10
81.411081089726153
 20
138.0649576288149945
 30
0.0
  0
VERTEX
  5
2164
  8
0
 10
81.3949069822038354
 20
138.085086414139198
 30
0.0
  0
VERTEX
  5
2165
  8
0
 10
81.3791196382191941
 20
138.1049924044490069
 30
0.0
  0
VERTEX
  5
2166
  8
0
 10
81.3637408485060547
 20
138.1246580571236962
 30
0.0
  0
VERTEX
  5
2167
  8
0
 10
81.3488240465151762
 20
138.1440269372995999
 30
0.0
  0
VERTEX
  5
2168
  8
0
 10
81.3344070374353549
 20
138.1630617817172038
 30
0.0
  0
VERTEX
  5
2169
  8
0
 10
81.3205150729591253
 20
138.1817407472292984
 30
0.0
  0
VERTEX
  5
216A
  8
0
 10
81.3071734047788368
 20
138.2000419906889874
 30
0.0
  0
VERTEX
  5
216B
  8
0
 10
81.2944072845869243
 20
138.2179436689490899
 30
0.0
  0
VERTEX
  5
216C
  8
0
 10
81.2822419640758369
 20
138.2354239388625956
 30
0.0
  0
VERTEX
  5
216D
  8
0
 10
81.2707026949379951
 20
138.252460957282409
 30
0.0
  0
VERTEX
  5
216E
  8
0
 10
81.2598147288658339
 20
138.2690328810616052
 30
0.0
  0
VERTEX
  5
216F
  8
0
 10
81.249603317551788
 20
138.2851178670530885
 30
0.0
  0
VERTEX
  5
2170
  8
0
 10
81.2400937126882638
 20
138.3006940721097919
 30
0.0
  0
VERTEX
  5
2171
  8
0
 10
81.2313305130635683
 20
138.3157082627128887
 30
0.0
  0
VERTEX
  5
2172
  8
0
 10
81.2233639870514708
 20
138.3300917017508027
 30
0.0
  0
VERTEX
  5
2173
  8
0
 10
81.2162099410849976
 20
138.3438271387379928
 30
0.0
  0
VERTEX
  5
2174
  8
0
 10
81.2098837610663224
 20
138.3568979774728973
 30
0.0
  0
VERTEX
  5
2175
  8
0
 10
81.2044008328976332
 20
138.3692876217536991
 30
0.0
  0
VERTEX
  5
2176
  8
0
 10
81.1997765424810751
 20
138.3809794753788083
 30
0.0
  0
VERTEX
  5
2177
  8
0
 10
81.1960262757188787
 20
138.3919569421466065
 30
0.0
  0
VERTEX
  5
2178
  8
0
 10
81.1931654185131748
 20
138.4022034258553902
 30
0.0
  0
VERTEX
  5
2179
  8
0
 10
81.1912093567660946
 20
138.4117023303035978
 30
0.0
  0
VERTEX
  5
217A
  8
0
 10
81.1901734763799254
 20
138.4204370592894122
 30
0.0
  0
VERTEX
  5
217B
  8
0
 10
81.1900745312861147
 20
138.4283821813108943
 30
0.0
  0
VERTEX
  5
217C
  8
0
 10
81.1909238737309522
 20
138.4354768427328963
 30
0.0
  0
VERTEX
  5
217D
  8
0
 10
81.1927069729631512
 20
138.4417179843266013
 30
0.0
  0
VERTEX
  5
217E
  8
0
 10
81.1954065699983545
 20
138.4471123548713933
 30
0.0
  0
VERTEX
  5
217F
  8
0
 10
81.1990054058523469
 20
138.4516667031464863
 30
0.0
  0
VERTEX
  5
2180
  8
0
 10
81.2034862215407287
 20
138.4553877779310938
 30
0.0
  0
VERTEX
  5
2181
  8
0
 10
81.2088317580792705
 20
138.4582823280044863
 30
0.0
  0
VERTEX
  5
2182
  8
0
 10
81.2150247564836434
 20
138.4603571021459061
 30
0.0
  0
VERTEX
  5
2183
  8
0
 10
81.2220479577695471
 20
138.4616188491345952
 30
0.0
  0
VERTEX
  5
2184
  8
0
 10
81.229884102952667
 20
138.4620743177497957
 30
0.0
  0
VERTEX
  5
2185
  8
0
 10
81.2385158290251752
 20
138.461730300375109
 30
0.0
  0
VERTEX
  5
2186
  8
0
 10
81.247914427450894
 20
138.4606004286441987
 30
0.0
  0
VERTEX
  5
2187
  8
0
 10
81.2580437462254537
 20
138.4587079876523887
 30
0.0
  0
VERTEX
  5
2188
  8
0
 10
81.2688707125940084
 20
138.4560762321106893
 30
0.0
  0
VERTEX
  5
2189
  8
0
 10
81.280362253801826
 20
138.4527284167295988
 30
0.0
  0
VERTEX
  5
218A
  8
0
 10
81.2924852970940464
 20
138.4486877962202129
 30
0.0
  0
VERTEX
  5
218B
  8
0
 10
81.3052067697159373
 20
138.4439776252930869
 30
0.0
  0
VERTEX
  5
218C
  8
0
 10
81.3184935989126245
 20
138.4386211586590889
 30
0.0
  0
VERTEX
  5
218D
  8
0
 10
81.3323127119293758
 20
138.4326416510290869
 30
0.0
  0
VERTEX
  5
218E
  8
0
 10
81.346631036011388
 20
138.4260623571138069
 30
0.0
  0
VERTEX
  5
218F
  8
0
 10
81.3614154984038294
 20
138.4189065316240885
 30
0.0
  0
VERTEX
  5
2190
  8
0
 10
81.3766354297986823
 20
138.4112000052595874
 30
0.0
  0
VERTEX
  5
2191
  8
0
 10
81.3922732934729538
 20
138.4029669054328053
 30
0.0
  0
VERTEX
  5
2192
  8
0
 10
81.4083150141149758
 20
138.394220256846495
 30
0.0
  0
VERTEX
  5
2193
  8
0
 10
81.4247464465255462
 20
138.3849726872851136
 30
0.0
  0
VERTEX
  5
2194
  8
0
 10
81.4415534455053063
 20
138.3752368245330899
 30
0.0
  0
VERTEX
  5
2195
  8
0
 10
81.4587218658550967
 20
138.3650252963751086
 30
0.0
  0
VERTEX
  5
2196
  8
0
 10
81.4762375623755872
 20
138.3543507305955984
 30
0.0
  0
VERTEX
  5
2197
  8
0
 10
81.4940863898675332
 20
138.3432257549791018
 30
0.0
  0
VERTEX
  5
2198
  8
0
 10
81.5122542031316755
 20
138.3316629973101897
 30
0.0
  0
VERTEX
  5
2199
  8
0
 10
81.5307268569687551
 20
138.3196750853732908
 30
0.0
  0
VERTEX
  5
219A
  8
0
 10
81.5494902061794562
 20
138.3072746469530898
 30
0.0
  0
VERTEX
  5
219B
  8
0
 10
81.568530105564605
 20
138.294474309833987
 30
0.0
  0
VERTEX
  5
219C
  8
0
 10
81.5878324099248573
 20
138.2812867018004965
 30
0.0
  0
VERTEX
  5
219D
  8
0
 10
81.6073829740609824
 20
138.2677244506371892
 30
0.0
  0
VERTEX
  5
219E
  8
0
 10
81.6271676527736929
 20
138.2538001841286075
 30
0.0
  0
VERTEX
  5
219F
  8
0
 10
81.6471723008637582
 20
138.2395265300592087
 30
0.0
  0
VERTEX
  5
21A0
  8
0
 10
81.6673827731319051
 20
138.224916116213592
 30
0.0
  0
VERTEX
  5
21A1
  8
0
 10
81.6877849243788887
 20
138.2099815703762999
 30
0.0
  0
VERTEX
  5
21A2
  8
0
 10
81.708364609405379
 20
138.1947355203317898
 30
0.0
  0
VERTEX
  5
21A3
  8
0
 10
81.7291076830121881
 20
138.1791905938646039
 30
0.0
  0
VERTEX
  5
21A4
  8
0
 10
81.75
 20
138.1633594187591996
 30
0.0
  0
SEQEND
  5
21A5
  8
0
  0
POLYLINE
  5
1D38
  8
0
 66
     1
 10
0.0
 20
0.0
 30
0.0
  0
VERTEX
  5
21A6
  8
0
 10
81.7499999999999716
 20
139.0271579708771128
 30
0.0
  0
VERTEX
  5
21A7
  8
0
 10
81.7292168548305256
 20
139.0512726956264089
 30
0.0
  0
VERTEX
  5
21A8
  8
0
 10
81.7086403226238076
 20
139.0754309623407892
 30
0.0
  0
VERTEX
  5
21A9
  8
0
 10
81.6882745066662892
 20
139.0996341637631133
 30
0.0
  0
VERTEX
  5
21AA
  8
0
 10
81.6681235102443139
 20
139.1238836926362978
 30
0.0
  0
VERTEX
  5
21AB
  8
0
 10
81.6481914366444244
 20
139.1481809417034015
 30
0.0
  0
VERTEX
  5
21AC
  8
0
 10
81.6284823891529356
 20
139.1725273037071986
 30
0.0
  0
VERTEX
  5
21AD
  8
0
 10
81.6090004710563193
 20
139.1969241713906911
 30
0.0
  0
VERTEX
  5
21AE
  8
0
 10
81.5897497856410325
 20
139.2213729374969091
 30
0.0
  0
VERTEX
  5
21AF
  8
0
 10
81.5707344361934332
 20
139.2458749947685988
 30
0.0
  0
VERTEX
  5
21B0
  8
0
 10
81.5519585260000071
 20
139.270431735948705
 30
0.0
  0
VERTEX
  5
21B1
  8
0
 10
81.5334202216102994
 20
139.2950532341421024
 30
0.0
  0
VERTEX
  5
21B2
  8
0
 10
81.5151084507164398
 20
139.3197677313168867
 30
0.0
  0
VERTEX
  5
21B3
  8
0
 10
81.4970410370785601
 20
139.3445668998766109
 30
0.0
  0
VERTEX
  5
21B4
  8
0
 10
81.4792383222668661
 20
139.3694389790078958
 30
0.0
  0
VERTEX
  5
21B5
  8
0
 10
81.4617206478515357
 20
139.3943722078975895
 30
0.0
  0
VERTEX
  5
21B6
  8
0
 10
81.4445083554027462
 20
139.4193548257325119
 30
0.0
  0
VERTEX
  5
21B7
  8
0
 10
81.4276217864906471
 20
139.4443750716991985
 30
0.0
  0
VERTEX
  5
21B8
  8
0
 10
81.4110812826854584
 20
139.4694211849844976
 30
0.0
  0
VERTEX
  5
21B9
  8
0
 10
81.3949071855573436
 20
139.4944814047752004
 30
0.0
  0
VERTEX
  5
21BA
  8
0
 10
81.3791198366764661
 20
139.5195439702580131
 30
0.0
  0
VERTEX
  5
21BB
  8
0
 10
81.3637410246346775
 20
139.5445949020416947
 30
0.0
  0
VERTEX
  5
21BC
  8
0
 10
81.3488242034711959
 20
139.569571415487502
 30
0.0
  0
VERTEX
  5
21BD
  8
0
 10
81.3344071853635171
 20
139.5944340739883955
 30
0.0
  0
VERTEX
  5
21BE
  8
0
 10
81.3205152193711882
 20
139.6191626106972024
 30
0.0
  0
VERTEX
  5
21BF
  8
0
 10
81.3071735545538559
 20
139.6437367587668064
 30
0.0
  0
VERTEX
  5
21C0
  8
0
 10
81.2944074399709962
 20
139.6681362513500062
 30
0.0
  0
VERTEX
  5
21C1
  8
0
 10
81.2822421246821989
 20
139.6923408215999132
 30
0.0
  0
VERTEX
  5
21C2
  8
0
 10
81.2707028577470538
 20
139.7163302026692122
 30
0.0
  0
VERTEX
  5
21C3
  8
0
 10
81.2598148882250939
 20
139.7400841277109009
 30
0.0
  0
VERTEX
  5
21C4
  8
0
 10
81.2496034651758663
 20
139.7635823298776927
 30
0.0
  0
VERTEX
  5
21C5
  8
0
 10
81.240093837658975
 20
139.7868045423226988
 30
0.0
  0
VERTEX
  5
21C6
  8
0
 10
81.2313306103171442
 20
139.8096833467348006
 30
0.0
  0
VERTEX
  5
21C7
  8
0
 10
81.2233640632360618
 20
139.8321237673883104
 30
0.0
  0
VERTEX
  5
21C8
  8
0
 10
81.216210001809074
 20
139.8541051684771901
 30
0.0
  0
VERTEX
  5
21C9
  8
0
 10
81.2098838107292238
 20
139.8756078780195935
 30
0.0
  0
VERTEX
  5
21CA
  8
0
 10
81.2044008746894832
 20
139.8966122240335892
 30
0.0
  0
VERTEX
  5
21CB
  8
0
 10
81.1997765783828953
 20
139.9170985345371037
 30
0.0
  0
VERTEX
  5
21CC
  8
0
 10
81.1960263065023753
 20
139.9370471375482907
 30
0.0
  0
VERTEX
  5
21CD
  8
0
 10
81.1931654437410657
 20
139.9564383610851053
 30
0.0
  0
VERTEX
  5
21CE
  8
0
 10
81.1912093747918959
 20
139.9752525331655022
 30
0.0
  0
VERTEX
  5
21CF
  8
0
 10
81.1901734843478664
 20
139.9934699818076069
 30
0.0
  0
VERTEX
  5
21D0
  8
0
 10
81.1900745256533156
 20
140.0110530351662987
 30
0.0
  0
VERTEX
  5
21D1
  8
0
 10
81.1909238534315563
 20
140.0278796943123041
 30
0.0
  0
VERTEX
  5
21D2
  8
0
 10
81.1927069376626633
 20
140.0439267831033874
 30
0.0
  0
VERTEX
  5
21D3
  8
0
 10
81.1954065196334653
 20
140.0591897555084131
 30
0.0
  0
VERTEX
  5
21D4
  8
0
 10
81.1990053406309045
 20
140.0736640654961889
 30
0.0
  0
VERTEX
  5
21D5
  8
0
 10
81.2034861419417666
 20
140.0873451670356928
 30
0.0
  0
VERTEX
  5
21D6
  8
0
 10
81.2088316648529656
 20
140.1002285140957042
 30
0.0
  0
VERTEX
  5
21D7
  8
0
 10
81.215024650651344
 20
140.1123095606452011
 30
0.0
  0
VERTEX
  5
21D8
  8
0
 10
81.2220478406237874
 20
140.123583760652906
 30
0.0
  0
VERTEX
  5
21D9
  8
0
 10
81.2298839760571383
 20
140.1340465680877969
 30
0.0
  0
VERTEX
  5
21DA
  8
0
 10
81.2385156941769537
 20
140.1436934238938932
 30
0.0
  0
VERTEX
  5
21DB
  8
0
 10
81.2479142838391937
 20
140.1525226592304136
 30
0.0
  0
VERTEX
  5
21DC
  8
0
 10
81.2580435917485886
 20
140.1605451910411091
 30
0.0
  0
VERTEX
  5
21DD
  8
0
 10
81.2688705457546519
 20
140.1677749295839135
 30
0.0
  0
VERTEX
  5
21DE
  8
0
 10
81.2803620737069252
 20
140.1742257851165903
 30
0.0
  0
VERTEX
  5
21DF
  8
0
 10
81.2924851034549363
 20
140.1799116678969028
 30
0.0
  0
VERTEX
  5
21E0
  8
0
 10
81.3052065628481841
 20
140.1848464881825009
 30
0.0
  0
VERTEX
  5
21E1
  8
0
 10
81.3184933797362248
 20
140.1890441562312901
 30
0.0
  0
VERTEX
  5
21E2
  8
0
 10
81.3323124819685859
 20
140.1925185823010054
 30
0.0
  0
VERTEX
  5
21E3
  8
0
 10
81.3466307973947664
 20
140.1952836766494102
 30
0.0
  0
VERTEX
  5
21E4
  8
0
 10
81.3614152538643367
 20
140.197353349534211
 30
0.0
  0
VERTEX
  5
21E5
  8
0
 10
81.3766351808685044
 20
140.198750642633911
 30
0.0
  0
VERTEX
  5
21E6
  8
0
 10
81.3922730378937445
 20
140.1995109088180982
 30
0.0
  0
VERTEX
  5
21E7
  8
0
 10
81.408314750065955
 20
140.1996473694640031
 30
0.0
  0
VERTEX
  5
21E8
  8
0
 10
81.4247461728243422
 20
140.1991722134152951
 30
0.0
  0
VERTEX
  5
21E9
  8
0
 10
81.441553161608141
 20
140.1980976295157006
 30
0.0
  0
VERTEX
  5
21EA
  8
0
 10
81.4587215718565432
 20
140.1964358066086902
 30
0.0
  0
VERTEX
  5
21EB
  8
0
 10
81.4762372590087978
 20
140.1941989335381038
 30
0.0
  0
VERTEX
  5
21EC
  8
0
 10
81.4940860785040684
 20
140.1913991991472983
 30
0.0
  0
VERTEX
  5
21ED
  8
0
 10
81.5122538857816039
 20
140.18804879228
 30
0.0
  0
VERTEX
  5
21EE
  8
0
 10
81.5307265362805822
 20
140.1841599017799069
 30
0.0
  0
VERTEX
  5
21EF
  8
0
 10
81.5494898854402379
 20
140.1797447164906032
 30
0.0
  0
VERTEX
  5
21F0
  8
0
 10
81.5685297886997489
 20
140.1748154252557015
 30
0.0
  0
VERTEX
  5
21F1
  8
0
 10
81.5878321014983783
 20
140.169384216918786
 30
0.0
  0
VERTEX
  5
21F2
  8
0
 10
81.6073826792753039
 20
140.1634632803236116
 30
0.0
  0
VERTEX
  5
21F3
  8
0
 10
81.6271673774697462
 20
140.1570648043135918
 30
0.0
  0
VERTEX
  5
21F4
  8
0
 10
81.6471720515208972
 20
140.1502009777323963
 30
0.0
  0
VERTEX
  5
21F5
  8
0
 10
81.6673825568680058
 20
140.1428839894238934
 30
0.0
  0
VERTEX
  5
21F6
  8
0
 10
81.6877847489502358
 20
140.1351260282314115
 30
0.0
  0
VERTEX
  5
21F7
  8
0
 10
81.7083644832068501
 20
140.1269392829987055
 30
0.0
  0
VERTEX
  5
21F8
  8
0
 10
81.7291076150770266
 20
140.118335942569388
 30
0.0
  0
VERTEX
  5
21F9
  8
0
 10
81.7499999999999716
 20
140.1093281957871
 30
0.0
  0
SEQEND
  5
21FA
  8
0
  0
POLYLINE
  5
1D39
  8
0
 66
     1
 10
0.0
 20
0.0
 30
0.0
  0
VERTEX
  5
21FB
  8
0
 10
81.7499999999999716
 20
141.5657421976439991
 30
0.0
  0
VERTEX
  5
21FC
  8
0
 10
81.7292168786892574
 20
141.5888077323212997
 30
0.0
  0
VERTEX
  5
21FD
  8
0
 10
81.708640366989215
 20
141.6120719379972002
 30
0.0
  0
VERTEX
  5
21FE
  8
0
 10
81.6882745682349594
 20
141.6355385231628077
 30
0.0
  0
VERTEX
  5
21FF
  8
0
 10
81.6681235857616059
 20
141.6592111963092009
 30
0.0
  0
VERTEX
  5
2200
  8
0
 10
81.6481915229043267
 20
141.6830936659272879
 30
0.0
  0
VERTEX
  5
2201
  8
0
 10
81.6284824829981375
 20
141.7071896405080906
 30
0.0
  0
VERTEX
  5
2202
  8
0
 10
81.6090005693782814
 20
141.7315028285428866
 30
0.0
  0
VERTEX
  5
2203
  8
0
 10
81.5897498853798169
 20
141.7560369385224988
 30
0.0
  0
VERTEX
  5
2204
  8
0
 10
81.5707345343379018
 20
141.7807956789380057
 30
0.0
  0
VERTEX
  5
2205
  8
0
 10
81.5519586195876371
 20
141.8057827582804862
 30
0.0
  0
VERTEX
  5
2206
  8
0
 10
81.5334203065602026
 20
141.8310111823371926
 30
0.0
  0
VERTEX
  5
2207
  8
0
 10
81.5151085196227143
 20
141.8565151293929887
 30
0.0
  0
VERTEX
  5
2208
  8
0
 10
81.4970410844153434
 20
141.882291696297699
 30
0.0
  0
VERTEX
  5
2209
  8
0
 10
81.479238344862523
 20
141.908334393866312
 30
0.0
  0
VERTEX
  5
220A
  8
0
 10
81.4617206448886009
 20
141.9346367329141003
 30
0.0
  0
VERTEX
  5
220B
  8
0
 10
81.44450832841801
 20
141.9611922242561093
 30
0.0
  0
VERTEX
  5
220C
  8
0
 10
81.4276217393751551
 20
141.9879943787074126
 30
0.0
  0
VERTEX
  5
220D
  8
0
 10
81.4110812216844124
 20
142.0150367070831123
 30
0.0
  0
VERTEX
  5
220E
  8
0
 10
81.3949071192702149
 20
142.0423127201983107
 30
0.0
  0
VERTEX
  5
220F
  8
0
 10
81.3791197760569389
 20
142.069815928868195
 30
0.0
  0
VERTEX
  5
2210
  8
0
 10
81.3637409821980953
 20
142.0975374266990059
 30
0.0
  0
VERTEX
  5
2211
  8
0
 10
81.3488241765316786
 20
142.1254149381942113
 30
0.0
  0
VERTEX
  5
2212
  8
0
 10
81.3344071660450538
 20
142.1534111444316864
 30
0.0
  0
VERTEX
  5
2213
  8
0
 10
81.3205152016984982
 20
142.1815095425897937
 30
0.0
  0
VERTEX
  5
2214
  8
0
 10
81.307173534452204
 20
142.209693629847294
 30
0.0
  0
VERTEX
  5
2215
  8
0
 10
81.2944074152664058
 20
142.2379469033824932
 30
0.0
  0
VERTEX
  5
2216
  8
0
 10
81.2822420951013953
 20
142.2662528603740952
 30
0.0
  0
VERTEX
  5
2217
  8
0
 10
81.2707028249174073
 20
142.2945949980006048
 30
0.0
  0
VERTEX
  5
2218
  8
0
 10
81.2598148556746338
 20
142.3229568134406975
 30
0.0
  0
VERTEX
  5
2219
  8
0
 10
81.2496034383333665
 20
142.3513218038727928
 30
0.0
  0
VERTEX
  5
221A
  8
0
 10
81.2400938238538401
 20
142.3796734664753956
 30
0.0
  0
VERTEX
  5
221B
  8
0
 10
81.2313306125891472
 20
142.4079375295459045
 30
0.0
  0
VERTEX
  5
221C
  8
0
 10
81.2233640760757538
 20
142.4360031171856917
 30
0.0
  0
VERTEX
  5
221D
  8
0
 10
81.2162100204666331
 20
142.4638484376864938
 30
0.0
  0
VERTEX
  5
221E
  8
0
 10
81.2098838313382458
 20
142.4914528675660961
 30
0.0
  0
VERTEX
  5
221F
  8
0
 10
81.2044008942670246
 20
142.5187957833421137
 30
0.0
  0
VERTEX
  5
2220
  8
0
 10
81.1997765948293591
 20
142.5458565615323039
 30
0.0
  0
VERTEX
  5
2221
  8
0
 10
81.1960263186016391
 20
142.57261457865431
 30
0.0
  0
VERTEX
  5
2222
  8
0
 10
81.1931654511603256
 20
142.5990492112256902
 30
0.0
  0
VERTEX
  5
2223
  8
0
 10
81.1912093780817656
 20
142.6251398357644007
 30
0.0
  0
VERTEX
  5
2224
  8
0
 10
81.1901734849424344
 20
142.6508658287878859
 30
0.0
  0
VERTEX
  5
2225
  8
0
 10
81.1900745255045138
 20
142.6761813598305082
 30
0.0
  0
VERTEX
  5
2226
  8
0
 10
81.1909238527984485
 20
142.7009165406931004
 30
0.0
  0
VERTEX
  5
2227
  8
0
 10
81.1927069363430292
 20
142.7250305937126029
 30
0.0
  0
VERTEX
  5
2228
  8
0
 10
81.1954065172867274
 20
142.7485081678962899
 30
0.0
  0
VERTEX
  5
2229
  8
0
 10
81.1990053367780433
 20
142.7713339122518903
 30
0.0
  0
VERTEX
  5
222A
  8
0
 10
81.2034861359654769
 20
142.7934924757865929
 30
0.0
  0
VERTEX
  5
222B
  8
0
 10
81.2088316559974857
 20
142.8149685075078992
 30
0.0
  0
VERTEX
  5
222C
  8
0
 10
81.2150246380225838
 20
142.835746656423197
 30
0.0
  0
VERTEX
  5
222D
  8
0
 10
81.2220478231892571
 20
142.8558115715399879
 30
0.0
  0
VERTEX
  5
222E
  8
0
 10
81.2298839526459631
 20
142.8751479018656028
 30
0.0
  0
VERTEX
  5
222F
  8
0
 10
81.2385156635062344
 20
142.8937402282699907
 30
0.0
  0
VERTEX
  5
2230
  8
0
 10
81.2479142464872552
 20
142.9115717681858939
 30
0.0
  0
VERTEX
  5
2231
  8
0
 10
81.2580435492172342
 20
142.9286398918349903
 30
0.0
  0
VERTEX
  5
2232
  8
0
 10
81.2688704991446969
 20
142.9449476572459048
 30
0.0
  0
VERTEX
  5
2233
  8
0
 10
81.2803620237181548
 20
142.9604981224474898
 30
0.0
  0
VERTEX
  5
2234
  8
0
 10
81.2924850503861762
 20
142.9752943454685123
 30
0.0
  0
VERTEX
  5
2235
  8
0
 10
81.3052065065972442
 20
142.9893393843375122
 30
0.0
  0
VERTEX
  5
2236
  8
0
 10
81.3184933197999129
 20
143.0026362970833986
 30
0.0
  0
VERTEX
  5
2237
  8
0
 10
81.3323124174427221
 20
143.0151881417347113
 30
0.0
  0
VERTEX
  5
2238
  8
0
 10
81.3466307269741549
 20
143.0269979763203025
 30
0.0
  0
VERTEX
  5
2239
  8
0
 10
81.3614151758427653
 20
143.0380688588689111
 30
0.0
  0
VERTEX
  5
223A
  8
0
 10
81.3766350939790755
 20
143.0484185447043899
 30
0.0
  0
VERTEX
  5
223B
  8
0
 10
81.3922729427709442
 20
143.0580897810745
 30
0.0
  0
VERTEX
  5
223C
  8
0
 10
81.4083146475184378
 20
143.0670945536789986
 30
0.0
  0
VERTEX
  5
223D
  8
0
 10
81.4247460637466673
 20
143.0754432919700889
 30
0.0
  0
VERTEX
  5
223E
  8
0
 10
81.4415530469807436
 20
143.0831464254004004
 30
0.0
  0
VERTEX
  5
223F
  8
0
 10
81.458721452745749
 20
143.0902143834223068
 30
0.0
  0
VERTEX
  5
2240
  8
0
 10
81.4762371365667946
 20
143.0966575954880966
 30
0.0
  0
VERTEX
  5
2241
  8
0
 10
81.4940859539689768
 20
143.1024864910503993
 30
0.0
  0
VERTEX
  5
2242
  8
0
 10
81.5122537604773783
 20
143.1077114995613897
 30
0.0
  0
VERTEX
  5
2243
  8
0
 10
81.530726411617124
 20
143.112343050473811
 30
0.0
  0
VERTEX
  5
2244
  8
0
 10
81.5494897629133106
 20
143.1163915732398095
 30
0.0
  0
VERTEX
  5
2245
  8
0
 10
81.5685296698909639
 20
143.1198674973119864
 30
0.0
  0
VERTEX
  5
2246
  8
0
 10
81.587831988075294
 20
143.122781252142687
 30
0.0
  0
VERTEX
  5
2247
  8
0
 10
81.6073825729913267
 20
143.1251432671843133
 30
0.0
  0
VERTEX
  5
2248
  8
0
 10
81.627167280164187
 20
143.1269639718894098
 30
0.0
  0
VERTEX
  5
2249
  8
0
 10
81.6471719651189574
 20
143.1282537957102932
 30
0.0
  0
VERTEX
  5
224A
  8
0
 10
81.6673824833807487
 20
143.1290231680993941
 30
0.0
  0
VERTEX
  5
224B
  8
0
 10
81.6877846904746434
 20
143.1292825185091999
 30
0.0
  0
VERTEX
  5
224C
  8
0
 10
81.708364441925724
 20
143.1290422763921129
 30
0.0
  0
VERTEX
  5
224D
  8
0
 10
81.729107593259144
 20
143.1283128712005066
 30
0.0
  0
VERTEX
  5
224E
  8
0
 10
81.7499999999999716
 20
143.127104732386897
 30
0.0
  0
SEQEND
  5
224F
  8
0
  0
POLYLINE
  5
1D3A
  8
0
 66
     1
 10
0.0
 20
0.0
 30
0.0
  0
VERTEX
  5
2250
  8
0
 10
81.7499999999999716
 20
145.0183091282900989
 30
0.0
  0
VERTEX
  5
2251
  8
0
 10
81.7292169663050458
 20
145.0378259086195101
 30
0.0
  0
VERTEX
  5
2252
  8
0
 10
81.7086405289806237
 20
145.0576749647977977
 30
0.0
  0
VERTEX
  5
2253
  8
0
 10
81.688274791561895
 20
145.0778619199089974
 30
0.0
  0
VERTEX
  5
2254
  8
0
 10
81.6681238575839643
 20
145.0983923970372871
 30
0.0
  0
VERTEX
  5
2255
  8
0
 10
81.6481918305820358
 20
145.1192720192665888
 30
0.0
  0
VERTEX
  5
2256
  8
0
 10
81.628482814091285
 20
145.1405064096809951
 30
0.0
  0
VERTEX
  5
2257
  8
0
 10
81.6090009116468167
 20
145.1621011913645134
 30
0.0
  0
VERTEX
  5
2258
  8
0
 10
81.5897502267838775
 20
145.1840619874012077
 30
0.0
  0
VERTEX
  5
2259
  8
0
 10
81.5707348630375861
 20
145.2063944208751991
 30
0.0
  0
VERTEX
  5
225A
  8
0
 10
81.5519589239430758
 20
145.2291041148704096
 30
0.0
  0
VERTEX
  5
225B
  8
0
 10
81.5334205704449744
 20
145.2522056061908131
 30
0.0
  0
VERTEX
  5
225C
  8
0
 10
81.5151087135681962
 20
145.2757353271312866
 30
0.0
  0
VERTEX
  5
225D
  8
0
 10
81.4970411865179472
 20
145.2996961044441093
 30
0.0
  0
VERTEX
  5
225E
  8
0
 10
81.4792383426880349
 20
145.3240874118152988
 30
0.0
  0
VERTEX
  5
225F
  8
0
 10
81.4617205354723239
 20
145.3489087229312986
 30
0.0
  0
VERTEX
  5
2260
  8
0
 10
81.4445081182645936
 20
145.3741595114786094
 30
0.0
  0
VERTEX
  5
2261
  8
0
 10
81.4276214444587367
 20
145.3998392511433053
 30
0.0
  0
VERTEX
  5
2262
  8
0
 10
81.4110808674485469
 20
145.425947415611887
 30
0.0
  0
VERTEX
  5
2263
  8
0
 10
81.3949067406278886
 20
145.4524834785707128
 30
0.0
  0
VERTEX
  5
2264
  8
0
 10
81.3791194173905978
 20
145.4794469137059991
 30
0.0
  0
VERTEX
  5
2265
  8
0
 10
81.3637406941791141
 20
145.506834845397492
 30
0.0
  0
VERTEX
  5
2266
  8
0
 10
81.3488239488655154
 20
145.5345923439074056
 30
0.0
  0
VERTEX
  5
2267
  8
0
 10
81.3344069676621189
 20
145.5626882781618008
 30
0.0
  0
VERTEX
  5
2268
  8
0
 10
81.3205150092104248
 20
145.5911116821222038
 30
0.0
  0
VERTEX
  5
2269
  8
0
 10
81.3071733321520043
 20
145.6198515897503114
 30
0.0
  0
VERTEX
  5
226A
  8
0
 10
81.2944071951283718
 20
145.6488970350073942
 30
0.0
  0
VERTEX
  5
226B
  8
0
 10
81.2822418567811269
 20
145.6782370518552909
 30
0.0
  0
VERTEX
  5
226C
  8
0
 10
81.2707025757518267
 20
145.7078606742553859
 30
0.0
  0
VERTEX
  5
226D
  8
0
 10
81.2598146106819144
 20
145.7377569361692053
 30
0.0
  0
VERTEX
  5
226E
  8
0
 10
81.2496032202130749
 20
145.7679148715583892
 30
0.0
  0
VERTEX
  5
226F
  8
0
 10
81.2400936629867658
 20
145.7983235143846059
 30
0.0
  0
VERTEX
  5
2270
  8
0
 10
81.2313305221063757
 20
145.8289098420385983
 30
0.0
  0
VERTEX
  5
2271
  8
0
 10
81.2233640346862131
 20
145.859559187575087
 30
0.0
  0
VERTEX
  5
2272
  8
0
 10
81.2162100099373561
 20
145.8902509487045904
 30
0.0
  0
VERTEX
  5
2273
  8
0
 10
81.2098838369922191
 20
145.9209657677454004
 30
0.0
  0
VERTEX
  5
2274
  8
0
 10
81.2044009049832454
 20
145.9516842870154107
 30
0.0
  0
VERTEX
  5
2275
  8
0
 10
81.1997766030429489
 20
145.9823871488329132
 30
0.0
  0
VERTEX
  5
2276
  8
0
 10
81.19602632030373
 20
146.013054995515688
 30
0.0
  0
VERTEX
  5
2277
  8
0
 10
81.1931654458980461
 20
146.0436684693821121
 30
0.0
  0
VERTEX
  5
2278
  8
0
 10
81.1912093689583401
 20
146.0742082127501078
 30
0.0
  0
VERTEX
  5
2279
  8
0
 10
81.1901734786170834
 20
146.10465486793791
 30
0.0
  0
VERTEX
  5
227A
  8
0
 10
81.1900745306997464
 20
146.134959412933398
 30
0.0
  0
VERTEX
  5
227B
  8
0
 10
81.1909238712634362
 20
146.1649225751926906
 30
0.0
  0
VERTEX
  5
227C
  8
0
 10
81.1927069678707767
 20
146.1944904033383921
 30
0.0
  0
VERTEX
  5
227D
  8
0
 10
81.1954065610320868
 20
146.2236383960029968
 30
0.0
  0
VERTEX
  5
227E
  8
0
 10
81.1990053912577139
 20
146.2523420518191131
 30
0.0
  0
VERTEX
  5
227F
  8
0
 10
81.2034861990579486
 20
146.2805768694190931
 30
0.0
  0
VERTEX
  5
2280
  8
0
 10
81.2088317249431384
 20
146.308318347435403
 30
0.0
  0
VERTEX
  5
2281
  8
0
 10
81.2150247094236306
 20
146.335541984500594
 30
0.0
  0
VERTEX
  5
2282
  8
0
 10
81.2220478930097158
 20
146.3622232792471891
 30
0.0
  0
VERTEX
  5
2283
  8
0
 10
81.2298840162117557
 20
146.3883377303075974
 30
0.0
  0
VERTEX
  5
2284
  8
0
 10
81.238515715612877
 20
146.4138607208818996
 30
0.0
  0
VERTEX
  5
2285
  8
0
 10
81.2479142894810451
 20
146.4387621994764004
 30
0.0
  0
VERTEX
  5
2286
  8
0
 10
81.2580435891881336
 20
146.4630262919577035
 30
0.0
  0
VERTEX
  5
2287
  8
0
 10
81.2688705405136602
 20
146.486644869598706
 30
0.0
  0
VERTEX
  5
2288
  8
0
 10
81.2803620692373272
 20
146.5096098036725039
 30
0.0
  0
VERTEX
  5
2289
  8
0
 10
81.2924851011386806
 20
146.5319129654519941
 30
0.0
  0
VERTEX
  5
228A
  8
0
 10
81.3052065619973803
 20
146.5535462262103863
 30
0.0
  0
VERTEX
  5
228B
  8
0
 10
81.318493377593029
 20
146.5745014572204923
 30
0.0
  0
VERTEX
  5
228C
  8
0
 10
81.3323124737052581
 20
146.5947705297554933
 30
0.0
  0
VERTEX
  5
228D
  8
0
 10
81.3466307761136704
 20
146.614345315088201
 30
0.0
  0
VERTEX
  5
228E
  8
0
 10
81.3614152105978832
 20
146.6332176844919104
 30
0.0
  0
VERTEX
  5
228F
  8
0
 10
81.3766351094513141
 20
146.6513981852133952
 30
0.0
  0
VERTEX
  5
2290
  8
0
 10
81.3922729428936691
 20
146.6689323382800865
 30
0.0
  0
VERTEX
  5
2291
  8
0
 10
81.4083146362550139
 20
146.685829595184714
 30
0.0
  0
VERTEX
  5
2292
  8
0
 10
81.4247460446556204
 20
146.7020974955229917
 30
0.0
  0
VERTEX
  5
2293
  8
0
 10
81.4415530232157039
 20
146.7177435788912021
 30
0.0
  0
VERTEX
  5
2294
  8
0
 10
81.4587214270555648
 20
146.7327753848852012
 30
0.0
  0
VERTEX
  5
2295
  8
0
 10
81.4762371112954469
 20
146.7472004531011862
 30
0.0
  0
VERTEX
  5
2296
  8
0
 10
81.4940859310555936
 20
146.7610263231350132
 30
0.0
  0
VERTEX
  5
2297
  8
0
 10
81.5122537414562771
 20
146.7742605345827087
 30
0.0
  0
VERTEX
  5
2298
  8
0
 10
81.5307263976177694
 20
146.7869106270402995
 30
0.0
  0
VERTEX
  5
2299
  8
0
 10
81.5494897546602999
 20
146.7989841401038973
 30
0.0
  0
VERTEX
  5
229A
  8
0
 10
81.5685296677041265
 20
146.8104886133693867
 30
0.0
  0
VERTEX
  5
229B
  8
0
 10
81.5878319918695354
 20
146.821431586432908
 30
0.0
  0
VERTEX
  5
229C
  8
0
 10
81.607382582276756
 20
146.8318205988904026
 30
0.0
  0
VERTEX
  5
229D
  8
0
 10
81.6271672940460462
 20
146.8416631903380107
 30
0.0
  0
VERTEX
  5
229E
  8
0
 10
81.6471719822976922
 20
146.8509669003715885
 30
0.0
  0
VERTEX
  5
229F
  8
0
 10
81.6673825021519235
 20
146.859739268587191
 30
0.0
  0
VERTEX
  5
22A0
  8
0
 10
81.6877847087290263
 20
146.8679878345809016
 30
0.0
  0
VERTEX
  5
22A1
  8
0
 10
81.7083644571492442
 20
146.8757201379486901
 30
0.0
  0
VERTEX
  5
22A2
  8
0
 10
81.7291076025327783
 20
146.8829437182866116
 30
0.0
  0
VERTEX
  5
22A3
  8
0
 10
81.7499999999999716
 20
146.8896661151906073
 30
0.0
  0
SEQEND
  5
22A4
  8
0
  0
POLYLINE
  5
1D3B
  8
0
 66
     1
 10
0.0
 20
0.0
 30
0.0
  0
VERTEX
  5
22A5
  8
0
 10
81.7499999999999716
 20
149.0107195637841926
 30
0.0
  0
VERTEX
  5
22A6
  8
0
 10
81.7292169478564574
 20
149.0245727546551109
 30
0.0
  0
VERTEX
  5
22A7
  8
0
 10
81.708640494354654
 20
149.0388558072376952
 30
0.0
  0
VERTEX
  5
22A8
  8
0
 10
81.6882747429994254
 20
149.0535756491366897
 30
0.0
  0
VERTEX
  5
22A9
  8
0
 10
81.6681237972955358
 20
149.0687392079572078
 30
0.0
  0
VERTEX
  5
22AA
  8
0
 10
81.648191760747892
 20
149.0843534113041073
 30
0.0
  0
VERTEX
  5
22AB
  8
0
 10
81.6284827368612866
 20
149.1004251867823882
 30
0.0
  0
VERTEX
  5
22AC
  8
0
 10
81.6090008291405695
 20
149.1169614619971071
 30
0.0
  0
VERTEX
  5
22AD
  8
0
 10
81.5897501410905477
 20
149.1339691645530081
 30
0.0
  0
VERTEX
  5
22AE
  8
0
 10
81.5707347762160566
 20
149.1514552220552048
 30
0.0
  0
VERTEX
  5
22AF
  8
0
 10
81.5519588380219318
 20
149.169426562108498
 30
0.0
  0
VERTEX
  5
22B0
  8
0
 10
81.5334204881849161
 20
149.1878976662383991
 30
0.0
  0
VERTEX
  5
22B1
  8
0
 10
81.5151086399049518
 20
149.2069032417078915
 30
0.0
  0
VERTEX
  5
22B2
  8
0
 10
81.497041125162653
 20
149.2264515529541882
 30
0.0
  0
VERTEX
  5
22B3
  8
0
 10
81.4792382958176091
 20
149.2465481118211983
 30
0.0
  0
VERTEX
  5
22B4
  8
0
 10
81.4617205037294241
 20
149.2671984301528028
 30
0.0
  0
VERTEX
  5
22B5
  8
0
 10
81.4445081007576164
 20
149.2884080197929109
 30
0.0
  0
VERTEX
  5
22B6
  8
0
 10
81.427621438761733
 20
149.3101823925852898
 30
0.0
  0
VERTEX
  5
22B7
  8
0
 10
81.4110808696014345
 20
149.3325270603739909
 30
0.0
  0
VERTEX
  5
22B8
  8
0
 10
81.394906745136268
 20
149.3554475350028099
 30
0.0
  0
VERTEX
  5
22B9
  8
0
 10
81.3791194172257661
 20
149.3789493283157128
 30
0.0
  0
VERTEX
  5
22BA
  8
0
 10
81.3637406812975144
 20
149.4030359185343002
 30
0.0
  0
VERTEX
  5
22BB
  8
0
 10
81.3488239251944236
 20
149.4276655436642045
 30
0.0
  0
VERTEX
  5
22BC
  8
0
 10
81.3344069385472039
 20
149.4528165941117948
 30
0.0
  0
VERTEX
  5
22BD
  8
0
 10
81.3205149787706887
 20
149.4784848505902914
 30
0.0
  0
VERTEX
  5
22BE
  8
0
 10
81.3071733032797965
 20
149.5046660938128866
 30
0.0
  0
VERTEX
  5
22BF
  8
0
 10
81.2944071694893893
 20
149.5313561044928861
 30
0.0
  0
VERTEX
  5
22C0
  8
0
 10
81.2822418348143287
 20
149.5585506633433965
 30
0.0
  0
VERTEX
  5
22C1
  8
0
 10
81.2707025566694483
 20
149.5862455510774964
 30
0.0
  0
VERTEX
  5
22C2
  8
0
 10
81.2598145924696666
 20
149.6144365484084915
 30
0.0
  0
VERTEX
  5
22C3
  8
0
 10
81.2496031996298456
 20
149.6431194360496022
 30
0.0
  0
VERTEX
  5
22C4
  8
0
 10
81.2400936355648469
 20
149.6722899947139922
 30
0.0
  0
VERTEX
  5
22C5
  8
0
 10
81.2313304861767875
 20
149.7018842931973097
 30
0.0
  0
VERTEX
  5
22C6
  8
0
 10
81.2233639941429715
 20
149.7317961741590864
 30
0.0
  0
VERTEX
  5
22C7
  8
0
 10
81.2162099681796548
 20
149.7620084774682994
 30
0.0
  0
VERTEX
  5
22C8
  8
0
 10
81.2098837968439966
 20
149.7925052309981027
 30
0.0
  0
VERTEX
  5
22C9
  8
0
 10
81.2044008686932841
 20
149.8232704626215082
 30
0.0
  0
VERTEX
  5
22CA
  8
0
 10
81.1997765722846907
 20
149.854288200211812
 30
0.0
  0
VERTEX
  5
22CB
  8
0
 10
81.1960262961754609
 20
149.8855424716421112
 30
0.0
  0
VERTEX
  5
22CC
  8
0
 10
81.1931654289227822
 20
149.9170173047853893
 30
0.0
  0
VERTEX
  5
22CD
  8
0
 10
81.191209359083885
 20
149.9486967275149993
 30
0.0
  0
VERTEX
  5
22CE
  8
0
 10
81.190173475216028
 20
149.9805647677038962
 30
0.0
  0
VERTEX
  5
22CF
  8
0
 10
81.1900745327999545
 20
150.012574524238488
 30
0.0
  0
VERTEX
  5
22D0
  8
0
 10
81.1909238789403247
 20
150.0445188206780927
 30
0.0
  0
VERTEX
  5
22D1
  8
0
 10
81.1927069814657756
 20
150.0763363671283912
 30
0.0
  0
VERTEX
  5
22D2
  8
0
 10
81.1954065809486565
 20
150.107996177082498
 30
0.0
  0
VERTEX
  5
22D3
  8
0
 10
81.1990054179613594
 20
150.1394672640336978
 30
0.0
  0
VERTEX
  5
22D4
  8
0
 10
81.2034862330762337
 20
150.1707186414753039
 30
0.0
  0
VERTEX
  5
22D5
  8
0
 10
81.208831766865643
 20
150.2017193229006011
 30
0.0
  0
VERTEX
  5
22D6
  8
0
 10
81.2150247599019224
 20
150.232438321802789
 30
0.0
  0
VERTEX
  5
22D7
  8
0
 10
81.2220479527574639
 20
150.2628446516752092
 30
0.0
  0
VERTEX
  5
22D8
  8
0
 10
81.229884086004617
 20
150.2929073260108908
 30
0.0
  0
VERTEX
  5
22D9
  8
0
 10
81.2385157962718978
 20
150.3225952076278134
 30
0.0
  0
VERTEX
  5
22DA
  8
0
 10
81.24791438063653
 20
150.3518682056107991
 30
0.0
  0
VERTEX
  5
22DB
  8
0
 10
81.2580436898782636
 20
150.3806989031457988
 30
0.0
  0
VERTEX
  5
22DC
  8
0
 10
81.2688706500186555
 20
150.409068868573911
 30
0.0
  0
VERTEX
  5
22DD
  8
0
 10
81.2803621870793762
 20
150.436959670236007
 30
0.0
  0
VERTEX
  5
22DE
  8
0
 10
81.2924852270820395
 20
150.4643528764732139
 30
0.0
  0
VERTEX
  5
22DF
  8
0
 10
81.3052066960482307
 20
150.4912300556266018
 30
0.0
  0
VERTEX
  5
22E0
  8
0
 10
81.3184935199995493
 20
150.5175727760372126
 30
0.0
  0
VERTEX
  5
22E1
  8
0
 10
81.3323126249575949
 20
150.5433626060460028
 30
0.0
  0
VERTEX
  5
22E2
  8
0
 10
81.3466309369440239
 20
150.5685811139939858
 30
0.0
  0
VERTEX
  5
22E3
  8
0
 10
81.3614153819803647
 20
150.5932098682224023
 30
0.0
  0
VERTEX
  5
22E4
  8
0
 10
81.3766352922798717
 20
150.6172510631037085
 30
0.0
  0
VERTEX
  5
22E5
  8
0
 10
81.3922731372319532
 20
150.640748050349714
 30
0.0
  0
VERTEX
  5
22E6
  8
0
 10
81.4083148418213796
 20
150.6637067226810132
 30
0.0
  0
VERTEX
  5
22E7
  8
0
 10
81.4247462608529986
 20
150.686130912958987
 30
0.0
  0
VERTEX
  5
22E8
  8
0
 10
81.4415532491317435
 20
150.7080244540451019
 30
0.0
  0
VERTEX
  5
22E9
  8
0
 10
81.4587216614625049
 20
150.7293911788007108
 30
0.0
  0
VERTEX
  5
22EA
  8
0
 10
81.4762373526501875
 20
150.7502349200871947
 30
0.0
  0
VERTEX
  5
22EB
  8
0
 10
81.4940861774997245
 20
150.7705595107657928
 30
0.0
  0
VERTEX
  5
22EC
  8
0
 10
81.5122539908159922
 20
150.7903687836981987
 30
0.0
  0
VERTEX
  5
22ED
  8
0
 10
81.530726647403867
 20
150.8096665717455949
 30
0.0
  0
VERTEX
  5
22EE
  8
0
 10
81.5494900020682536
 20
150.8284567077693907
 30
0.0
  0
VERTEX
  5
22EF
  8
0
 10
81.5685299096141136
 20
150.8467430246309959
 30
0.0
  0
VERTEX
  5
22F0
  8
0
 10
81.587832224846295
 20
150.8645293551917916
 30
0.0
  0
VERTEX
  5
22F1
  8
0
 10
81.607382802569731
 20
150.8818195323131874
 30
0.0
  0
VERTEX
  5
22F2
  8
0
 10
81.6271674975892836
 20
150.8986173888565929
 30
0.0
  0
VERTEX
  5
22F3
  8
0
 10
81.647172164709886
 20
150.9149267576833893
 30
0.0
  0
VERTEX
  5
22F4
  8
0
 10
81.6673826587364147
 20
150.9307514716549008
 30
0.0
  0
VERTEX
  5
22F5
  8
0
 10
81.6877848344737743
 20
150.9460953636325939
 30
0.0
  0
VERTEX
  5
22F6
  8
0
 10
81.708364546726898
 20
150.960962266477793
 30
0.0
  0
VERTEX
  5
22F7
  8
0
 10
81.7291076503006764
 20
150.9753560130519077
 30
0.0
  0
VERTEX
  5
22F8
  8
0
 10
81.7499999999999716
 20
150.9892804362162906
 30
0.0
  0
SEQEND
  5
22F9
  8
0
  0
POLYLINE
  5
1D3C
  8
0
 66
     1
 10
0.0
 20
0.0
 30
0.0
  0
VERTEX
  5
22FA
  8
0
 10
81.7500000000002558
 20
153.1103338848097906
 30
0.0
  0
VERTEX
  5
22FB
  8
0
 10
81.7292168682116369
 20
153.1170222872869999
 30
0.0
  0
VERTEX
  5
22FC
  8
0
 10
81.7086403469157005
 20
153.1241915565902048
 30
0.0
  0
VERTEX
  5
22FD
  8
0
 10
81.688274539439675
 20
153.1318491734116094
 30
0.0
  0
VERTEX
  5
22FE
  8
0
 10
81.66812354911076
 20
153.1400026184429066
 30
0.0
  0
VERTEX
  5
22FF
  8
0
 10
81.648191479256127
 20
153.1486593723759881
 30
0.0
  0
VERTEX
  5
2300
  8
0
 10
81.6284824332030183
 20
153.1578269159028025
 30
0.0
  0
VERTEX
  5
2301
  8
0
 10
81.6090005142786197
 20
153.167512729715213
 30
0.0
  0
VERTEX
  5
2302
  8
0
 10
81.5897498258100882
 20
153.1777242945051114
 30
0.0
  0
VERTEX
  5
2303
  8
0
 10
81.5707344711246662
 20
153.1884690909643894
 30
0.0
  0
VERTEX
  5
2304
  8
0
 10
81.5519585535495537
 20
153.1997545997849102
 30
0.0
  0
VERTEX
  5
2305
  8
0
 10
81.5334202387645348
 20
153.2115936731374859
 30
0.0
  0
VERTEX
  5
2306
  8
0
 10
81.515108451872976
 20
153.2240155193061923
 30
0.0
  0
VERTEX
  5
2307
  8
0
 10
81.4970410181100533
 20
153.2370329495313115
 30
0.0
  0
VERTEX
  5
2308
  8
0
 10
81.4792382808909537
 20
153.2506569228440014
 30
0.0
  0
VERTEX
  5
2309
  8
0
 10
81.4617205836310347
 20
153.2648983982759034
 30
0.0
  0
VERTEX
  5
230A
  8
0
 10
81.4445082697454836
 20
153.2797683348580904
 30
0.0
  0
VERTEX
  5
230B
  8
0
 10
81.4276216826495585
 20
153.2952776916222035
 30
0.0
  0
VERTEX
  5
230C
  8
0
 10
81.4110811657585458
 20
153.3114374275992873
 30
0.0
  0
VERTEX
  5
230D
  8
0
 10
81.3949070624877322
 20
153.3282585018210966
 30
0.0
  0
VERTEX
  5
230E
  8
0
 10
81.379119716252319
 20
153.3457518733185907
 30
0.0
  0
VERTEX
  5
230F
  8
0
 10
81.3637409168730557
 20
153.3639270009462052
 30
0.0
  0
VERTEX
  5
2310
  8
0
 10
81.3488241065913655
 20
153.382759765833498
 30
0.0
  0
VERTEX
  5
2311
  8
0
 10
81.3344070935823424
 20
153.4022404078895931
 30
0.0
  0
VERTEX
  5
2312
  8
0
 10
81.3205151284176395
 20
153.4223719219774864
 30
0.0
  0
VERTEX
  5
2313
  8
0
 10
81.3071734616689383
 20
153.4431573029607137
 30
0.0
  0
VERTEX
  5
2314
  8
0
 10
81.2944073439078636
 20
153.4645995457024981
 30
0.0
  0
VERTEX
  5
2315
  8
0
 10
81.2822420257060543
 20
153.4867016450662049
 30
0.0
  0
VERTEX
  5
2316
  8
0
 10
81.2707027576352345
 20
153.5094665959150007
 30
0.0
  0
VERTEX
  5
2317
  8
0
 10
81.2598147902669581
 20
153.5328973931123073
 30
0.0
  0
VERTEX
  5
2318
  8
0
 10
81.2496033741729207
 20
153.5569970315212913
 30
0.0
  0
VERTEX
  5
2319
  8
0
 10
81.2400937599248039
 20
153.5817685060054032
 30
0.0
  0
VERTEX
  5
231A
  8
0
 10
81.2313305488079607
 20
153.6071638656144103
 30
0.0
  0
VERTEX
  5
231B
  8
0
 10
81.223364014189201
 20
153.6330969001616893
 30
0.0
  0
VERTEX
  5
231C
  8
0
 10
81.2162099620582438
 20
153.6595557638086973
 30
0.0
  0
VERTEX
  5
231D
  8
0
 10
81.2098837778017639
 20
153.6865296143932937
 30
0.0
  0
VERTEX
  5
231E
  8
0
 10
81.2044008468063225
 20
153.7140076097533949
 30
0.0
  0
VERTEX
  5
231F
  8
0
 10
81.1997765544585661
 20
153.7419789077268888
 30
0.0
  0
VERTEX
  5
2320
  8
0
 10
81.1960262861450985
 20
153.7704326661516916
 30
0.0
  0
VERTEX
  5
2321
  8
0
 10
81.1931654272525662
 20
153.7993580428654923
 30
0.0
  0
VERTEX
  5
2322
  8
0
 10
81.1912093631675162
 20
153.8287441957064914
 30
0.0
  0
VERTEX
  5
2323
  8
0
 10
81.1901734792766661
 20
153.8585802825122926
 30
0.0
  0
VERTEX
  5
2324
  8
0
 10
81.1900745292172985
 20
153.8888266041620909
 30
0.0
  0
VERTEX
  5
2325
  8
0
 10
81.1909238662826453
 20
153.9192904528449901
 30
0.0
  0
VERTEX
  5
2326
  8
0
 10
81.1927069600275644
 20
153.9499098350401027
 30
0.0
  0
VERTEX
  5
2327
  8
0
 10
81.1954065515786851
 20
153.9806506448634025
 30
0.0
  0
VERTEX
  5
2328
  8
0
 10
81.199005382062694
 20
154.0114787764310051
 30
0.0
  0
VERTEX
  5
2329
  8
0
 10
81.2034861926062348
 20
154.0423601238591118
 30
0.0
  0
VERTEX
  5
232A
  8
0
 10
81.2088317243359654
 20
154.0732605812636109
 30
0.0
  0
VERTEX
  5
232B
  8
0
 10
81.2150247183785439
 20
154.1041460427607888
 30
0.0
  0
VERTEX
  5
232C
  8
0
 10
81.2220479158606139
 20
154.1349824024665907
 30
0.0
  0
VERTEX
  5
232D
  8
0
 10
81.2298840579088193
 20
154.1657355544973029
 30
0.0
  0
VERTEX
  5
232E
  8
0
 10
81.2385157816102748
 20
154.1963712229629095
 30
0.0
  0
VERTEX
  5
232F
  8
0
 10
81.2479143773203987
 20
154.2268435965586093
 30
0.0
  0
VERTEX
  5
2330
  8
0
 10
81.2580436924858702
 20
154.2571166704236134
 30
0.0
  0
VERTEX
  5
2331
  8
0
 10
81.2688706546064452
 20
154.2871637106811136
 30
0.0
  0
VERTEX
  5
2332
  8
0
 10
81.2803621911818368
 20
154.3169579834543867
 30
0.0
  0
VERTEX
  5
2333
  8
0
 10
81.2924852297116729
 20
154.3464727548667952
 30
0.0
  0
VERTEX
  5
2334
  8
0
 10
81.3052066976957093
 20
154.3756812910415874
 30
0.0
  0
VERTEX
  5
2335
  8
0
 10
81.3184935226336449
 20
154.4045568581020973
 30
0.0
  0
VERTEX
  5
2336
  8
0
 10
81.3323126320251646
 20
154.4330727221714881
 30
0.0
  0
VERTEX
  5
2337
  8
0
 10
81.3466309533699814
 20
154.4612021493732072
 30
0.0
  0
VERTEX
  5
2338
  8
0
 10
81.3614154141677375
 20
154.4889184058303897
 30
0.0
  0
VERTEX
  5
2339
  8
0
 10
81.3766353446327031
 20
154.5162150923094089
 30
0.0
  0
VERTEX
  5
233A
  8
0
 10
81.3922732064935417
 20
154.5431286798406916
 30
0.0
  0
VERTEX
  5
233B
  8
0
 10
81.4083149245866196
 20
154.5696608635485916
 30
0.0
  0
VERTEX
  5
233C
  8
0
 10
81.4247463539417424
 20
154.595811354621901
 30
0.0
  0
VERTEX
  5
233D
  8
0
 10
81.4415533495887871
 20
154.6215798642492132
 30
0.0
  0
VERTEX
  5
233E
  8
0
 10
81.458721766557602
 20
154.6469661036196044
 30
0.0
  0
VERTEX
  5
233F
  8
0
 10
81.4762374598780355
 20
154.671969783921611
 30
0.0
  0
VERTEX
  5
2340
  8
0
 10
81.4940862845799643
 20
154.6965906163441957
 30
0.0
  0
VERTEX
  5
2341
  8
0
 10
81.5122540956931942
 20
154.7208283120760939
 30
0.0
  0
VERTEX
  5
2342
  8
0
 10
81.5307267482475879
 20
154.7446825823062113
 30
0.0
  0
VERTEX
  5
2343
  8
0
 10
81.5494900972729795
 20
154.7681531382231128
 30
0.0
  0
VERTEX
  5
2344
  8
0
 10
81.5685299977992742
 20
154.7912396910157895
 30
0.0
  0
VERTEX
  5
2345
  8
0
 10
81.5878323048562777
 20
154.8139419518730904
 30
0.0
  0
VERTEX
  5
2346
  8
0
 10
81.6073828734738527
 20
154.8362596319836939
 30
0.0
  0
VERTEX
  5
2347
  8
0
 10
81.6271675586818333
 20
154.8581924425363923
 30
0.0
  0
VERTEX
  5
2348
  8
0
 10
81.6471722155100537
 20
154.8797400947200913
 30
0.0
  0
VERTEX
  5
2349
  8
0
 10
81.6673826989884333
 20
154.9009022997234979
 30
0.0
  0
VERTEX
  5
234A
  8
0
 10
81.6877848641467494
 20
154.9216787687354042
 30
0.0
  0
VERTEX
  5
234B
  8
0
 10
81.7083645660148932
 20
154.9420692129446877
 30
0.0
  0
VERTEX
  5
234C
  8
0
 10
81.7291076596227128
 20
154.9620733435401121
 30
0.0
  0
VERTEX
  5
234D
  8
0
 10
81.7500000000000142
 20
154.9816908717104127
 30
0.0
  0
SEQEND
  5
234E
  8
0
  0
POLYLINE
  5
1D3D
  8
0
 66
     1
 10
0.0
 20
0.0
 30
0.0
  0
VERTEX
  5
234F
  8
0
 10
81.750000000000199
 20
156.8728952676136998
 30
0.0
  0
VERTEX
  5
2350
  8
0
 10
81.729216856218784
 20
156.871694034633407
 30
0.0
  0
VERTEX
  5
2351
  8
0
 10
81.7086403252827438
 20
156.8709725685708918
 30
0.0
  0
VERTEX
  5
2352
  8
0
 10
81.6882745104795731
 20
156.8707380932100932
 30
0.0
  0
VERTEX
  5
2353
  8
0
 10
81.6681235150967666
 20
156.8709978323350924
 30
0.0
  0
VERTEX
  5
2354
  8
0
 10
81.6481914424218189
 20
156.8717590097299137
 30
0.0
  0
VERTEX
  5
2355
  8
0
 10
81.6284823957421537
 20
156.8730288491784961
 30
0.0
  0
VERTEX
  5
2356
  8
0
 10
81.6090004783453651
 20
156.8748145744648923
 30
0.0
  0
VERTEX
  5
2357
  8
0
 10
81.5897497935188483
 20
156.8771234093734108
 30
0.0
  0
VERTEX
  5
2358
  8
0
 10
81.5707344445501263
 20
156.8799625776877065
 30
0.0
  0
VERTEX
  5
2359
  8
0
 10
81.5519585347266656
 20
156.8833393031920878
 30
0.0
  0
VERTEX
  5
235A
  8
0
 10
81.5334202305649285
 20
156.8872634230930032
 30
0.0
  0
VERTEX
  5
235B
  8
0
 10
81.5151084596588191
 20
156.8917555013321987
 30
0.0
  0
VERTEX
  5
235C
  8
0
 10
81.4970410458225558
 20
156.8968314991736008
 30
0.0
  0
VERTEX
  5
235D
  8
0
 10
81.4792383306941588
 20
156.9025066241684954
 30
0.0
  0
VERTEX
  5
235E
  8
0
 10
81.4617206559117761
 20
156.9087960838685092
 30
0.0
  0
VERTEX
  5
235F
  8
0
 10
81.444508363113485
 20
156.915715085824786
 30
0.0
  0
VERTEX
  5
2360
  8
0
 10
81.427621793937405
 20
156.9232788375888958
 30
0.0
  0
VERTEX
  5
2361
  8
0
 10
81.4110812900215706
 20
156.9315025467120108
 30
0.0
  0
VERTEX
  5
2362
  8
0
 10
81.3949071930040873
 20
156.940401420745701
 30
0.0
  0
VERTEX
  5
2363
  8
0
 10
81.3791198445231032
 20
156.9499906672411953
 30
0.0
  0
VERTEX
  5
2364
  8
0
 10
81.3637410332148079
 20
156.9602846938306016
 30
0.0
  0
VERTEX
  5
2365
  8
0
 10
81.3488242126646668
 20
156.9712797198874057
 30
0.0
  0
VERTEX
  5
2366
  8
0
 10
81.3344071948918383
 20
156.9829789166556111
 30
0.0
  0
VERTEX
  5
2367
  8
0
 10
81.3205152290078388
 20
156.9953921542706894
 30
0.0
  0
VERTEX
  5
2368
  8
0
 10
81.3071735641240423
 20
157.0085293028683111
 30
0.0
  0
VERTEX
  5
2369
  8
0
 10
81.2944074493519366
 20
157.022400232583891
 30
0.0
  0
VERTEX
  5
236A
  8
0
 10
81.282242133802896
 20
157.0370148135530997
 30
0.0
  0
VERTEX
  5
236B
  8
0
 10
81.2707028665883797
 20
157.0523829159114086
 30
0.0
  0
VERTEX
  5
236C
  8
0
 10
81.2598148968198473
 20
157.0685144097944033
 30
0.0
  0
VERTEX
  5
236D
  8
0
 10
81.2496034736087154
 20
157.085419165337612
 30
0.0
  0
VERTEX
  5
236E
  8
0
 10
81.2400938460664008
 20
157.1031070526765916
 30
0.0
  0
VERTEX
  5
236F
  8
0
 10
81.231330618711354
 20
157.1215513469282996
 30
0.0
  0
VERTEX
  5
2370
  8
0
 10
81.2233640713850349
 20
157.1406952137060955
 30
0.0
  0
VERTEX
  5
2371
  8
0
 10
81.2162100095025892
 20
157.1605333904416
 30
0.0
  0
VERTEX
  5
2372
  8
0
 10
81.2098838177823836
 20
157.1810613238426129
 30
0.0
  0
VERTEX
  5
2373
  8
0
 10
81.2044008809426856
 20
157.2022744606167919
 30
0.0
  0
VERTEX
  5
2374
  8
0
 10
81.1997765837018903
 20
157.2241682474721927
 30
0.0
  0
VERTEX
  5
2375
  8
0
 10
81.1960263107782794
 20
157.2467381311163024
 30
0.0
  0
VERTEX
  5
2376
  8
0
 10
81.1931654468901627
 20
157.2699795582570061
 30
0.0
  0
VERTEX
  5
2377
  8
0
 10
81.1912093767559213
 20
157.2938879756021038
 30
0.0
  0
VERTEX
  5
2378
  8
0
 10
81.1901734850938226
 20
157.3184588298593951
 30
0.0
  0
VERTEX
  5
2379
  8
0
 10
81.1900745251648459
 20
157.3436639264980101
 30
0.0
  0
VERTEX
  5
237A
  8
0
 10
81.1909238516570468
 20
157.3693459957399057
 30
0.0
  0
VERTEX
  5
237B
  8
0
 10
81.1927069345455692
 20
157.3954490665784931
 30
0.0
  0
VERTEX
  5
237C
  8
0
 10
81.1954065151201405
 20
157.4219396015730013
 30
0.0
  0
VERTEX
  5
237D
  8
0
 10
81.199005334670403
 20
157.4487840632826021
 30
0.0
  0
VERTEX
  5
237E
  8
0
 10
81.2034861344860275
 20
157.4759489142664108
 30
0.0
  0
VERTEX
  5
237F
  8
0
 10
81.2088316558567556
 20
157.5034006170835141
 30
0.0
  0
VERTEX
  5
2380
  8
0
 10
81.215024640072258
 20
157.5311056342929987
 30
0.0
  0
VERTEX
  5
2381
  8
0
 10
81.2220478284222054
 20
157.5590304284542071
 30
0.0
  0
VERTEX
  5
2382
  8
0
 10
81.2298839621962827
 20
157.5871414621261124
 30
0.0
  0
VERTEX
  5
2383
  8
0
 10
81.2385156786234859
 20
157.615405027345588
 30
0.0
  0
VERTEX
  5
2384
  8
0
 10
81.2479142666080918
 20
157.6437745803033863
 30
0.0
  0
VERTEX
  5
2385
  8
0
 10
81.2580435728790462
 20
157.6722094454241017
 30
0.0
  0
VERTEX
  5
2386
  8
0
 10
81.2688705252789987
 20
157.7006774808002092
 30
0.0
  0
VERTEX
  5
2387
  8
0
 10
81.2803620516505845
 20
157.7291465445246956
 30
0.0
  0
VERTEX
  5
2388
  8
0
 10
81.2924850798364531
 20
157.7575844946900929
 30
0.0
  0
VERTEX
  5
2389
  8
0
 10
81.3052065376792541
 20
157.7859591893891889
 30
0.0
  0
VERTEX
  5
238A
  8
0
 10
81.3184933530215801
 20
157.8142384867146006
 30
0.0
  0
VERTEX
  5
238B
  8
0
 10
81.3323124537060949
 20
157.8423902447592013
 30
0.0
  0
VERTEX
  5
238C
  8
0
 10
81.3466307675754479
 20
157.8703823216156934
 30
0.0
  0
VERTEX
  5
238D
  8
0
 10
81.3614152224722744
 20
157.8981825753766088
 30
0.0
  0
VERTEX
  5
238E
  8
0
 10
81.3766351478506067
 20
157.9257767086961906
 30
0.0
  0
VERTEX
  5
238F
  8
0
 10
81.3922730031528232
 20
157.9531903702763032
 30
0.0
  0
VERTEX
  5
2390
  8
0
 10
81.4083147135659431
 20
157.9804208744934044
 30
0.0
  0
VERTEX
  5
2391
  8
0
 10
81.4247461345943577
 20
158.0074638421907878
 30
0.0
  0
VERTEX
  5
2392
  8
0
 10
81.4415531217424871
 20
158.0343148942112066
 30
0.0
  0
VERTEX
  5
2393
  8
0
 10
81.4587215305147367
 20
158.0609696513978122
 30
0.0
  0
VERTEX
  5
2394
  8
0
 10
81.4762372164155551
 20
158.0874237345935001
 30
0.0
  0
VERTEX
  5
2395
  8
0
 10
81.4940860349493335
 20
158.1136727646411941
 30
0.0
  0
VERTEX
  5
2396
  8
0
 10
81.512253841620506
 20
158.1397123623839889
 30
0.0
  0
VERTEX
  5
2397
  8
0
 10
81.5307264919335353
 20
158.1655381486648082
 30
0.0
  0
VERTEX
  5
2398
  8
0
 10
81.5494898413927558
 20
158.1911457443266897
 30
0.0
  0
VERTEX
  5
2399
  8
0
 10
81.5685297455026443
 20
158.2165307702125006
 30
0.0
  0
VERTEX
  5
239A
  8
0
 10
81.5878320597675781
 20
158.2416888471653067
 30
0.0
  0
VERTEX
  5
239B
  8
0
 10
81.6073826396920197
 20
158.2666155960280037
 30
0.0
  0
VERTEX
  5
239C
  8
0
 10
81.6271673407803746
 20
158.2913066376437996
 30
0.0
  0
VERTEX
  5
239D
  8
0
 10
81.6471720185370344
 20
158.3157575928553911
 30
0.0
  0
VERTEX
  5
239E
  8
0
 10
81.6673825284664758
 20
158.3399640825059009
 30
0.0
  0
VERTEX
  5
239F
  8
0
 10
81.6877847260730476
 20
158.36392172743831
 30
0.0
  0
VERTEX
  5
23A0
  8
0
 10
81.7083644668612408
 20
158.3876261484955137
 30
0.0
  0
VERTEX
  5
23A1
  8
0
 10
81.7291076063354041
 20
158.4110729665206065
 30
0.0
  0
VERTEX
  5
23A2
  8
0
 10
81.7500000000000142
 20
158.4342578023565125
 30
0.0
  0
SEQEND
  5
23A3
  8
0
  0
POLYLINE
  5
1D3E
  8
0
 66
     1
 10
0.0
 20
0.0
 30
0.0
  0
VERTEX
  5
23A4
  8
0
 10
81.7499999999998579
 20
159.8906718042134116
 30
0.0
  0
VERTEX
  5
23A5
  8
0
 10
81.7292168931918752
 20
159.8817111195589007
 30
0.0
  0
VERTEX
  5
23A6
  8
0
 10
81.7086403938243393
 20
159.8731771084073046
 30
0.0
  0
VERTEX
  5
23A7
  8
0
 10
81.6882746052649793
 20
159.8650759552930083
 30
0.0
  0
VERTEX
  5
23A8
  8
0
 10
81.6681236308815812
 20
159.8574138447503117
 30
0.0
  0
VERTEX
  5
23A9
  8
0
 10
81.6481915740418458
 20
159.8501969613134008
 30
0.0
  0
VERTEX
  5
23AA
  8
0
 10
81.628482538113559
 20
159.8434314895168882
 30
0.0
  0
VERTEX
  5
23AB
  8
0
 10
81.6090006264644643
 20
159.837123613894903
 30
0.0
  0
VERTEX
  5
23AC
  8
0
 10
81.5897499424623049
 20
159.8312795189818019
 30
0.0
  0
VERTEX
  5
23AD
  8
0
 10
81.5707345894748386
 20
159.8259053893119983
 30
0.0
  0
VERTEX
  5
23AE
  8
0
 10
81.5519586708698228
 20
159.8210074094197068
 30
0.0
  0
VERTEX
  5
23AF
  8
0
 10
81.5334203513442333
 20
159.8165913374731133
 30
0.0
  0
VERTEX
  5
23B0
  8
0
 10
81.5151085530818591
 20
159.8126668696214949
 30
0.0
  0
VERTEX
  5
23B1
  8
0
 10
81.4970411029601252
 20
159.809251386208814
 30
0.0
  0
VERTEX
  5
23B2
  8
0
 10
81.4792383464521492
 20
159.8063626934543038
 30
0.0
  0
VERTEX
  5
23B3
  8
0
 10
81.4617206290312197
 20
159.8040185975771124
 30
0.0
  0
VERTEX
  5
23B4
  8
0
 10
81.4445082961705111
 20
159.8022369047963878
 30
0.0
  0
VERTEX
  5
23B5
  8
0
 10
81.4276216933432124
 20
159.8010354213313065
 30
0.0
  0
VERTEX
  5
23B6
  8
0
 10
81.4110811660225409
 20
159.8004319534009028
 30
0.0
  0
VERTEX
  5
23B7
  8
0
 10
81.3949070596817137
 20
159.8004443072242964
 30
0.0
  0
VERTEX
  5
23B8
  8
0
 10
81.3791197197939056
 20
159.8010902890208911
 30
0.0
  0
VERTEX
  5
23B9
  8
0
 10
81.3637409375410812
 20
159.8023876929482867
 30
0.0
  0
VERTEX
  5
23BA
  8
0
 10
81.3488241417865083
 20
159.8043535039253129
 30
0.0
  0
VERTEX
  5
23BB
  8
0
 10
81.3344071361175622
 20
159.8070034849075114
 30
0.0
  0
VERTEX
  5
23BC
  8
0
 10
81.3205151727500066
 20
159.8103533072597884
 30
0.0
  0
VERTEX
  5
23BD
  8
0
 10
81.3071735038996053
 20
159.8144186423471069
 30
0.0
  0
VERTEX
  5
23BE
  8
0
 10
81.294407381782122
 20
159.819215161534288
 30
0.0
  0
VERTEX
  5
23BF
  8
0
 10
81.2822420586133205
 20
159.8247585361864083
 30
0.0
  0
VERTEX
  5
23C0
  8
0
 10
81.2707027866089362
 20
159.8310644376680045
 30
0.0
  0
VERTEX
  5
23C1
  8
0
 10
81.259814817984747
 20
159.8381485373442956
 30
0.0
  0
VERTEX
  5
23C2
  8
0
 10
81.2496034049564742
 20
159.8460265065799888
 30
0.0
  0
VERTEX
  5
23C3
  8
0
 10
81.240093799739924
 20
159.8547140167399903
 30
0.0
  0
VERTEX
  5
23C4
  8
0
 10
81.2313305998670216
 20
159.8642084845147906
 30
0.0
  0
VERTEX
  5
23C5
  8
0
 10
81.2233640712452569
 20
159.8744886421775959
 30
0.0
  0
VERTEX
  5
23C6
  8
0
 10
81.2162100205277966
 20
159.8855563739647039
 30
0.0
  0
VERTEX
  5
23C7
  8
0
 10
81.2098838338725102
 20
159.8974139016318929
 30
0.0
  0
VERTEX
  5
23C8
  8
0
 10
81.2044008974373241
 20
159.9100634469349984
 30
0.0
  0
VERTEX
  5
23C9
  8
0
 10
81.1997765973801506
 20
159.9235072316297988
 30
0.0
  0
VERTEX
  5
23CA
  8
0
 10
81.1960263198588876
 20
159.9377474774719872
 30
0.0
  0
VERTEX
  5
23CB
  8
0
 10
81.19316545103149
 20
159.9527864062173137
 30
0.0
  0
VERTEX
  5
23CC
  8
0
 10
81.1912093770558272
 20
159.9686262396215
 30
0.0
  0
VERTEX
  5
23CD
  8
0
 10
81.1901734840897831
 20
159.9852691994404097
 30
0.0
  0
VERTEX
  5
23CE
  8
0
 10
81.1900745262334453
 20
160.0027016522141139
 30
0.0
  0
VERTEX
  5
23CF
  8
0
 10
81.190923855380305
 20
160.0208188529639983
 30
0.0
  0
VERTEX
  5
23D0
  8
0
 10
81.1927069407313127
 20
160.0395769221034072
 30
0.0
  0
VERTEX
  5
23D1
  8
0
 10
81.1954065233322666
 20
160.0589465202122881
 30
0.0
  0
VERTEX
  5
23D2
  8
0
 10
81.1990053442289934
 20
160.0788983078707872
 30
0.0
  0
VERTEX
  5
23D3
  8
0
 10
81.2034861444673055
 20
160.0994029456587953
 30
0.0
  0
VERTEX
  5
23D4
  8
0
 10
81.2088316650930437
 20
160.1204310941562881
 30
0.0
  0
VERTEX
  5
23D5
  8
0
 10
81.2150246471520347
 20
160.1419534139434973
 30
0.0
  0
VERTEX
  5
23D6
  8
0
 10
81.2220478316900483
 20
160.1639405656001998
 30
0.0
  0
VERTEX
  5
23D7
  8
0
 10
81.2298839597529252
 20
160.1863632097065135
 30
0.0
  0
VERTEX
  5
23D8
  8
0
 10
81.2385156683690752
 20
160.2091918545445992
 30
0.0
  0
VERTEX
  5
23D9
  8
0
 10
81.2479142494893836
 20
160.2323842837903101
 30
0.0
  0
VERTEX
  5
23DA
  8
0
 10
81.258043551353623
 20
160.2558995692509995
 30
0.0
  0
VERTEX
  5
23DB
  8
0
 10
81.2688705011386503
 20
160.2797036417973118
 30
0.0
  0
VERTEX
  5
23DC
  8
0
 10
81.2803620260210664
 20
160.3037624322998056
 30
0.0
  0
VERTEX
  5
23DD
  8
0
 10
81.2924850531776571
 20
160.3280418716292957
 30
0.0
  0
VERTEX
  5
23DE
  8
0
 10
81.3052065097851937
 20
160.3525078906561987
 30
0.0
  0
VERTEX
  5
23DF
  8
0
 10
81.3184933230203342
 20
160.3771264202513009
 30
0.0
  0
VERTEX
  5
23E0
  8
0
 10
81.3323124200598784
 20
160.4018633912851897
 30
0.0
  0
VERTEX
  5
23E1
  8
0
 10
81.3466307280804983
 20
160.4266847346283953
 30
0.0
  0
VERTEX
  5
23E2
  8
0
 10
81.3614151742589655
 20
160.4515563811517893
 30
0.0
  0
VERTEX
  5
23E3
  8
0
 10
81.376635088899846
 20
160.4764576869717132
 30
0.0
  0
VERTEX
  5
23E4
  8
0
 10
81.3922729348108192
 20
160.5014007086751064
 30
0.0
  0
VERTEX
  5
23E5
  8
0
 10
81.4083146373108661
 20
160.526378670920792
 30
0.0
  0
VERTEX
  5
23E6
  8
0
 10
81.4247460518745356
 20
160.5513835782747094
 30
0.0
  0
VERTEX
  5
23E7
  8
0
 10
81.4415530339763336
 20
160.5764074353025137
 30
0.0
  0
VERTEX
  5
23E8
  8
0
 10
81.4587214390907945
 20
160.6014422465702012
 30
0.0
  0
VERTEX
  5
23E9
  8
0
 10
81.4762371226924245
 20
160.6264800166435123
 30
0.0
  0
VERTEX
  5
23EA
  8
0
 10
81.4940859402557578
 20
160.6515127500883011
 30
0.0
  0
VERTEX
  5
23EB
  8
0
 10
81.5122537472553006
 20
160.6765324514703934
 30
0.0
  0
VERTEX
  5
23EC
  8
0
 10
81.5307263991655589
 20
160.7015311253555012
 30
0.0
  0
VERTEX
  5
23ED
  8
0
 10
81.5494897514610955
 20
160.7265007763095923
 30
0.0
  0
VERTEX
  5
23EE
  8
0
 10
81.5685296596163738
 20
160.7514334088984924
 30
0.0
  0
VERTEX
  5
23EF
  8
0
 10
81.5878319791059852
 20
160.7763210276879136
 30
0.0
  0
VERTEX
  5
23F0
  8
0
 10
81.6073825654044356
 20
160.8011556372437951
 30
0.0
  0
VERTEX
  5
23F1
  8
0
 10
81.6271672739861742
 20
160.825929242131906
 30
0.0
  0
VERTEX
  5
23F2
  8
0
 10
81.6471719603258066
 20
160.8506338469179866
 30
0.0
  0
VERTEX
  5
23F3
  8
0
 10
81.6673824798978245
 20
160.8752614561680048
 30
0.0
  0
VERTEX
  5
23F4
  8
0
 10
81.6877846881767198
 20
160.8998040744477009
 30
0.0
  0
VERTEX
  5
23F5
  8
0
 10
81.7083644406370411
 20
160.9242537063229861
 30
0.0
  0
VERTEX
  5
23F6
  8
0
 10
81.7291075927532944
 20
160.948602356359487
 30
0.0
  0
VERTEX
  5
23F7
  8
0
 10
81.7500000000000142
 20
160.9728420291233135
 30
0.0
  0
SEQEND
  5
23F8
  8
0
  0
POLYLINE
  5
1D3F
  8
0
 66
     1
 10
0.0
 20
0.0
 30
0.0
  0
VERTEX
  5
23F9
  8
0
 10
81.7499999999998153
 20
87.546327269829348
 30
0.0
  0
VERTEX
  5
23FA
  8
0
 10
81.7292168934771439
 20
87.5680923655053647
 30
0.0
  0
VERTEX
  5
23FB
  8
0
 10
81.7086403931050143
 20
87.5897025126429867
 30
0.0
  0
VERTEX
  5
23FC
  8
0
 10
81.6882746022802166
 20
87.6111560285671658
 30
0.0
  0
VERTEX
  5
23FD
  8
0
 10
81.6681236243995983
 20
87.6324512306029249
 30
0.0
  0
VERTEX
  5
23FE
  8
0
 10
81.6481915628600348
 20
87.6535864360752441
 30
0.0
  0
VERTEX
  5
23FF
  8
0
 10
81.6284825210583165
 20
87.6745599623091181
 30
0.0
  0
VERTEX
  5
2400
  8
0
 10
81.6090006023913332
 20
87.6953701266295269
 30
0.0
  0
VERTEX
  5
2401
  8
0
 10
81.5897499102559181
 20
87.7160152463614651
 30
0.0
  0
VERTEX
  5
2402
  8
0
 10
81.5707345480489181
 20
87.7364936388299128
 30
0.0
  0
VERTEX
  5
2403
  8
0
 10
81.5519586191671806
 20
87.7568036213598646
 30
0.0
  0
VERTEX
  5
2404
  8
0
 10
81.5334202877808139
 20
87.7769501211625709
 30
0.0
  0
VERTEX
  5
2405
  8
0
 10
81.5151084745012042
 20
87.7969497812745345
 30
0.0
  0
VERTEX
  5
2406
  8
0
 10
81.4970410071189093
 20
87.8167888145690938
 30
0.0
  0
VERTEX
  5
2407
  8
0
 10
81.4792382322465585
 20
87.8364507067443441
 30
0.0
  0
VERTEX
  5
2408
  8
0
 10
81.4617204964966248
 20
87.8559189434983097
 30
0.0
  0
VERTEX
  5
2409
  8
0
 10
81.4445081464817946
 20
87.8751770105290291
 30
0.0
  0
VERTEX
  5
240A
  8
0
 10
81.4276215288145409
 20
87.8942083935346119
 30
0.0
  0
VERTEX
  5
240B
  8
0
 10
81.411080990107493
 20
87.912996578213054
 30
0.0
  0
VERTEX
  5
240C
  8
0
 10
81.3949068769732094
 20
87.9315250502624366
 30
0.0
  0
VERTEX
  5
240D
  8
0
 10
81.3791195360242341
 20
87.9497772953807981
 30
0.0
  0
VERTEX
  5
240E
  8
0
 10
81.3637407592088948
 20
87.9677351658243509
 30
0.0
  0
VERTEX
  5
240F
  8
0
 10
81.3488239682784808
 20
87.9853448171214865
 30
0.0
  0
VERTEX
  5
2410
  8
0
 10
81.3344069644467851
 20
88.0025701813116967
 30
0.0
  0
VERTEX
  5
2411
  8
0
 10
81.3205150008971032
 20
88.0193893894095822
 30
0.0
  0
VERTEX
  5
2412
  8
0
 10
81.3071733308126738
 20
88.0357805724297435
 30
0.0
  0
VERTEX
  5
2413
  8
0
 10
81.2944072073767359
 20
88.0517218613867954
 30
0.0
  0
VERTEX
  5
2414
  8
0
 10
81.2822418837725849
 20
88.067191387295324
 30
0.0
  0
VERTEX
  5
2415
  8
0
 10
81.2707026131834596
 20
88.0821672811699727
 30
0.0
  0
VERTEX
  5
2416
  8
0
 10
81.2598146487926272
 20
88.0966276740253278
 30
0.0
  0
VERTEX
  5
2417
  8
0
 10
81.2496032437833833
 20
88.1105506968759897
 30
0.0
  0
VERTEX
  5
2418
  8
0
 10
81.240093651338924
 20
88.1239144807365733
 30
0.0
  0
VERTEX
  5
2419
  8
0
 10
81.2313304669246747
 20
88.1366703158710578
 30
0.0
  0
VERTEX
  5
241A
  8
0
 10
81.2233639522709439
 20
88.1487573222615453
 30
0.0
  0
VERTEX
  5
241B
  8
0
 10
81.216209914400622
 20
88.1601594070103545
 30
0.0
  0
VERTEX
  5
241C
  8
0
 10
81.2098837399018549
 20
88.1708610415017233
 30
0.0
  0
VERTEX
  5
241D
  8
0
 10
81.2044008153628738
 20
88.1808466971198044
 30
0.0
  0
VERTEX
  5
241E
  8
0
 10
81.199776527371796
 20
88.1901008452487787
 30
0.0
  0
VERTEX
  5
241F
  8
0
 10
81.1960262625167957
 20
88.198607957272813
 30
0.0
  0
VERTEX
  5
2420
  8
0
 10
81.1931654073860756
 20
88.2063525045761168
 30
0.0
  0
VERTEX
  5
2421
  8
0
 10
81.1912093485677957
 20
88.2133189585428283
 30
0.0
  0
VERTEX
  5
2422
  8
0
 10
81.1901734726500877
 20
88.219491790557143
 30
0.0
  0
VERTEX
  5
2423
  8
0
 10
81.1900745339564338
 20
88.2248491192219007
 30
0.0
  0
VERTEX
  5
2424
  8
0
 10
81.1909238833420943
 20
88.2293466870437726
 30
0.0
  0
VERTEX
  5
2425
  8
0
 10
81.1927069896498494
 20
88.232986603697185
 30
0.0
  0
VERTEX
  5
2426
  8
0
 10
81.1954065937489133
 20
88.2357783747279569
 30
0.0
  0
VERTEX
  5
2427
  8
0
 10
81.1990054365085143
 20
88.2377315056819072
 30
0.0
  0
VERTEX
  5
2428
  8
0
 10
81.2034862587978523
 20
88.2388555021049115
 30
0.0
  0
VERTEX
  5
2429
  8
0
 10
81.2088318014861557
 20
88.2391598695427462
 30
0.0
  0
VERTEX
  5
242A
  8
0
 10
81.2150248054426527
 20
88.2386541135412727
 30
0.0
  0
VERTEX
  5
242B
  8
0
 10
81.2220480115365433
 20
88.2373477396463102
 30
0.0
  0
VERTEX
  5
242C
  8
0
 10
81.2298841606370843
 20
88.2352502534036773
 30
0.0
  0
VERTEX
  5
242D
  8
0
 10
81.2385158896112074
 20
88.2323712175951442
 30
0.0
  0
VERTEX
  5
242E
  8
0
 10
81.2479144913967275
 20
88.228727919387083
 30
0.0
  0
VERTEX
  5
242F
  8
0
 10
81.2580438147191728
 20
88.2243463882457064
 30
0.0
  0
VERTEX
  5
2430
  8
0
 10
81.2688707864859055
 20
88.2192518557893237
 30
0.0
  0
VERTEX
  5
2431
  8
0
 10
81.2803623336043159
 20
88.2134695536361448
 30
0.0
  0
VERTEX
  5
2432
  8
0
 10
81.292485382981738
 20
88.2070247134045644
 30
0.0
  0
VERTEX
  5
2433
  8
0
 10
81.3052068615255479
 20
88.1999425667127639
 30
0.0
  0
VERTEX
  5
2434
  8
0
 10
81.3184936961431788
 20
88.1922483451790953
 30
0.0
  0
VERTEX
  5
2435
  8
0
 10
81.332312813741936
 20
88.1839672804217969
 30
0.0
  0
VERTEX
  5
2436
  8
0
 10
81.3466311412291958
 20
88.1751246040591354
 30
0.0
  0
VERTEX
  5
2437
  8
0
 10
81.361415605512363
 20
88.1657455477094345
 30
0.0
  0
VERTEX
  5
2438
  8
0
 10
81.3766355379105164
 20
88.1558562068233442
 30
0.0
  0
VERTEX
  5
2439
  8
0
 10
81.3922734037438858
 20
88.1454774376350656
 30
0.0
  0
VERTEX
  5
243A
  8
0
 10
81.408315127513518
 20
88.1346219909570152
 30
0.0
  0
VERTEX
  5
243B
  8
0
 10
81.4247465637260177
 20
88.1233023892330039
 30
0.0
  0
VERTEX
  5
243C
  8
0
 10
81.4415535668879755
 20
88.1115311549069276
 30
0.0
  0
VERTEX
  5
243D
  8
0
 10
81.4587219915059961
 20
88.0993208104225829
 30
0.0
  0
VERTEX
  5
243E
  8
0
 10
81.4762376920866842
 20
88.0866838782237949
 30
0.0
  0
VERTEX
  5
243F
  8
0
 10
81.4940865231367013
 20
88.0736328807544169
 30
0.0
  0
VERTEX
  5
2440
  8
0
 10
81.5122543391625669
 20
88.0601803404582739
 30
0.0
  0
VERTEX
  5
2441
  8
0
 10
81.5307269946710136
 20
88.0463387797791768
 30
0.0
  0
VERTEX
  5
2442
  8
0
 10
81.549490344168575
 20
88.0321207211610073
 30
0.0
  0
VERTEX
  5
2443
  8
0
 10
81.568530242161799
 20
88.0175386870475904
 30
0.0
  0
VERTEX
  5
2444
  8
0
 10
81.5878325431574467
 20
88.002605199882737
 30
0.0
  0
VERTEX
  5
2445
  8
0
 10
81.6073831016619948
 20
87.9873327821102862
 30
0.0
  0
VERTEX
  5
2446
  8
0
 10
81.6271677721821618
 20
87.9717339561740772
 30
0.0
  0
VERTEX
  5
2447
  8
0
 10
81.6471724092244528
 20
87.955821244517935
 30
0.0
  0
VERTEX
  5
2448
  8
0
 10
81.6673828672955437
 20
87.9396071695856989
 30
0.0
  0
VERTEX
  5
2449
  8
0
 10
81.687785000902025
 20
87.9231042538212364
 30
0.0
  0
VERTEX
  5
244A
  8
0
 10
81.7083646645505439
 20
87.9063250196683157
 30
0.0
  0
VERTEX
  5
244B
  8
0
 10
81.7291077127476626
 20
87.8892819895708328
 30
0.0
  0
VERTEX
  5
244C
  8
0
 10
81.75
 20
87.8719876859725986
 30
0.0
  0
SEQEND
  5
244D
  8
0
  0
POLYLINE
  5
1D40
  8
0
 66
     1
 10
0.0
 20
0.0
 30
0.0
  0
VERTEX
  5
244E
  8
0
 10
81.7500000000001421
 20
88.5702155326419955
 30
0.0
  0
VERTEX
  5
244F
  8
0
 10
81.7292168563215142
 20
88.5941824183563682
 30
0.0
  0
VERTEX
  5
2450
  8
0
 10
81.7086403252632465
 20
88.6181526451082249
 30
0.0
  0
VERTEX
  5
2451
  8
0
 10
81.6882745101178358
 20
88.64212699278022
 30
0.0
  0
VERTEX
  5
2452
  8
0
 10
81.668123514177779
 20
88.6661062412550933
 30
0.0
  0
VERTEX
  5
2453
  8
0
 10
81.6481914407355589
 20
88.6900911704154851
 30
0.0
  0
VERTEX
  5
2454
  8
0
 10
81.6284823930837149
 20
88.7140825601441065
 30
0.0
  0
VERTEX
  5
2455
  8
0
 10
81.6090004745146871
 20
88.7380811903236264
 30
0.0
  0
VERTEX
  5
2456
  8
0
 10
81.5897497883210434
 20
88.762087840836756
 30
0.0
  0
VERTEX
  5
2457
  8
0
 10
81.5707344377952666
 20
88.7861032915661781
 30
0.0
  0
VERTEX
  5
2458
  8
0
 10
81.5519585262298108
 20
88.8101283223945615
 30
0.0
  0
VERTEX
  5
2459
  8
0
 10
81.5334202200497771
 20
88.8341720881810346
 30
0.0
  0
VERTEX
  5
245A
  8
0
 10
81.5151084465763631
 20
88.8582608378388414
 30
0.0
  0
VERTEX
  5
245B
  8
0
 10
81.4970410297819541
 20
88.882385006299657
 30
0.0
  0
VERTEX
  5
245C
  8
0
 10
81.4792383115021153
 20
88.9065316928649736
 30
0.0
  0
VERTEX
  5
245D
  8
0
 10
81.4617206335722983
 20
88.9306879968363688
 30
0.0
  0
VERTEX
  5
245E
  8
0
 10
81.4445083378280259
 20
88.9548410175153634
 30
0.0
  0
VERTEX
  5
245F
  8
0
 10
81.4276217661048349
 20
88.9789778542034639
 30
0.0
  0
VERTEX
  5
2460
  8
0
 10
81.4110812602382623
 20
89.0030856062022337
 30
0.0
  0
VERTEX
  5
2461
  8
0
 10
81.3949071620637881
 20
89.0271513728131652
 30
0.0
  0
VERTEX
  5
2462
  8
0
 10
81.3791198134169349
 20
89.0511622533378358
 30
0.0
  0
VERTEX
  5
2463
  8
0
 10
81.363741003066707
 20
89.0751032176842727
 30
0.0
  0
VERTEX
  5
2464
  8
0
 10
81.3488241833650676
 20
89.0989124412757576
 30
0.0
  0
VERTEX
  5
2465
  8
0
 10
81.334407165919373
 20
89.12255063013626
 30
0.0
  0
VERTEX
  5
2466
  8
0
 10
81.3205152000084155
 20
89.1459969070301952
 30
0.0
  0
VERTEX
  5
2467
  8
0
 10
81.307173534911044
 20
89.1692303947218647
 30
0.0
  0
VERTEX
  5
2468
  8
0
 10
81.2944074199061077
 20
89.192230215975755
 30
0.0
  0
VERTEX
  5
2469
  8
0
 10
81.2822421042724557
 20
89.21497549355621
 30
0.0
  0
VERTEX
  5
246A
  8
0
 10
81.2707028372889226
 20
89.2374453502276168
 30
0.0
  0
VERTEX
  5
246B
  8
0
 10
81.2598148682343151
 20
89.2596189087543337
 30
0.0
  0
VERTEX
  5
246C
  8
0
 10
81.2496034463875105
 20
89.2814752919007901
 30
0.0
  0
VERTEX
  5
246D
  8
0
 10
81.240093821027358
 20
89.3029936224313587
 30
0.0
  0
VERTEX
  5
246E
  8
0
 10
81.2313305963141659
 20
89.3241093893931151
 30
0.0
  0
VERTEX
  5
246F
  8
0
 10
81.223364051365877
 20
89.344733303090095
 30
0.0
  0
VERTEX
  5
2470
  8
0
 10
81.2162099916616853
 20
89.3648453751247729
 30
0.0
  0
VERTEX
  5
2471
  8
0
 10
81.2098838019944651
 20
89.3844265122295667
 30
0.0
  0
VERTEX
  5
2472
  8
0
 10
81.2044008671570765
 20
89.4034576211367664
 30
0.0
  0
VERTEX
  5
2473
  8
0
 10
81.1997765719423512
 20
89.4219196085787331
 30
0.0
  0
VERTEX
  5
2474
  8
0
 10
81.1960263011431778
 20
89.4397933812877852
 30
0.0
  0
VERTEX
  5
2475
  8
0
 10
81.1931654395523879
 20
89.4570598459962554
 30
0.0
  0
VERTEX
  5
2476
  8
0
 10
81.1912093719628274
 20
89.4736999094364762
 30
0.0
  0
VERTEX
  5
2477
  8
0
 10
81.1901734831673565
 20
89.4896944783407946
 30
0.0
  0
VERTEX
  5
2478
  8
0
 10
81.1900745264657928
 20
89.5050086035453489
 30
0.0
  0
VERTEX
  5
2479
  8
0
 10
81.1909238563673341
 20
89.5195345711768766
 30
0.0
  0
VERTEX
  5
247A
  8
0
 10
81.1927069427857191
 20
89.5332540809315702
 30
0.0
  0
VERTEX
  5
247B
  8
0
 10
81.1954065269805341
 20
89.5461654122653528
 30
0.0
  0
VERTEX
  5
247C
  8
0
 10
81.1990053502114506
 20
89.5582668446340762
 30
0.0
  0
VERTEX
  5
247D
  8
0
 10
81.2034861537380266
 20
89.5695566574936919
 30
0.0
  0
VERTEX
  5
247E
  8
0
 10
81.2088316788198767
 20
89.5800331303000519
 30
0.0
  0
VERTEX
  5
247F
  8
0
 10
81.2150246667166584
 20
89.5896945425090649
 30
0.0
  0
VERTEX
  5
2480
  8
0
 10
81.2220478586879153
 20
89.5985391735765972
 30
0.0
  0
VERTEX
  5
2481
  8
0
 10
81.2298839959932764
 20
89.606565302958586
 30
0.0
  0
VERTEX
  5
2482
  8
0
 10
81.2385157158342679
 20
89.6137712113550435
 30
0.0
  0
VERTEX
  5
2483
  8
0
 10
81.2479143072857823
 20
89.6201591040871079
 30
0.0
  0
VERTEX
  5
2484
  8
0
 10
81.2580436171607658
 20
89.6257431568203771
 30
0.0
  0
VERTEX
  5
2485
  8
0
 10
81.2688705732554979
 20
89.6305398004567166
 30
0.0
  0
VERTEX
  5
2486
  8
0
 10
81.2803621033663433
 20
89.6345654658980067
 30
0.0
  0
VERTEX
  5
2487
  8
0
 10
81.2924851352895814
 20
89.6378365840461271
 30
0.0
  0
VERTEX
  5
2488
  8
0
 10
81.3052065968215629
 20
89.6403695858029721
 30
0.0
  0
VERTEX
  5
2489
  8
0
 10
81.3184934157586099
 20
89.6421809020703648
 30
0.0
  0
VERTEX
  5
248A
  8
0
 10
81.332312519897016
 20
89.6432869637501852
 30
0.0
  0
VERTEX
  5
248B
  8
0
 10
81.3466308370331461
 20
89.6437042017443559
 30
0.0
  0
VERTEX
  5
248C
  8
0
 10
81.3614152949632654
 20
89.6434490469546716
 30
0.0
  0
VERTEX
  5
248D
  8
0
 10
81.3766352233135422
 20
89.6425454893360154
 30
0.0
  0
VERTEX
  5
248E
  8
0
 10
81.3922730819541016
 20
89.6410263936852942
 30
0.0
  0
VERTEX
  5
248F
  8
0
 10
81.4083147959344871
 20
89.6389050683491604
 30
0.0
  0
VERTEX
  5
2490
  8
0
 10
81.4247462205962336
 20
89.6361939400695036
 30
0.0
  0
VERTEX
  5
2491
  8
0
 10
81.4415532112808478
 20
89.6329054355881851
 30
0.0
  0
VERTEX
  5
2492
  8
0
 10
81.4587216233297653
 20
89.6290519816471374
 30
0.0
  0
VERTEX
  5
2493
  8
0
 10
81.4762373120845353
 20
89.6246460049881932
 30
0.0
  0
VERTEX
  5
2494
  8
0
 10
81.4940861328866077
 20
89.6196999323532566
 30
0.0
  0
VERTEX
  5
2495
  8
0
 10
81.5122539410775175
 20
89.6142261904842314
 30
0.0
  0
VERTEX
  5
2496
  8
0
 10
81.5307265919987572
 20
89.608237206122979
 30
0.0
  0
VERTEX
  5
2497
  8
0
 10
81.5494899409917764
 20
89.6017454060113749
 30
0.0
  0
VERTEX
  5
2498
  8
0
 10
81.5685298433980961
 20
89.5947632168913373
 30
0.0
  0
VERTEX
  5
2499
  8
0
 10
81.5878321545592087
 20
89.5873030655047131
 30
0.0
  0
VERTEX
  5
249A
  8
0
 10
81.607382729816635
 20
89.5793773785934206
 30
0.0
  0
VERTEX
  5
249B
  8
0
 10
81.6271674245118106
 20
89.5709985828993069
 30
0.0
  0
VERTEX
  5
249C
  8
0
 10
81.6471720939862848
 20
89.5621791051642901
 30
0.0
  0
VERTEX
  5
249D
  8
0
 10
81.6673825935815358
 20
89.5529313721302458
 30
0.0
  0
VERTEX
  5
249E
  8
0
 10
81.6877847786389992
 20
89.5432678105390636
 30
0.0
  0
VERTEX
  5
249F
  8
0
 10
81.7083645045002527
 20
89.5332008471326048
 30
0.0
  0
VERTEX
  5
24A0
  8
0
 10
81.7291076265067602
 20
89.5227429086527451
 30
0.0
  0
VERTEX
  5
24A1
  8
0
 10
81.75
 20
89.5119064218414167
 30
0.0
  0
SEQEND
  5
24A2
  8
0
  0
POLYLINE
  5
1D41
  8
0
 66
     1
 10
0.0
 20
0.0
 30
0.0
  0
VERTEX
  5
24A3
  8
0
 10
81.7499999999999716
 20
90.8326982938725962
 30
0.0
  0
VERTEX
  5
24A4
  8
0
 10
81.7292168679389306
 20
90.8562697333862275
 30
0.0
  0
VERTEX
  5
24A5
  8
0
 10
81.7086403470765248
 20
90.8800024491924461
 30
0.0
  0
VERTEX
  5
24A6
  8
0
 10
81.6882745407241941
 20
90.9038995992232941
 30
0.0
  0
VERTEX
  5
24A7
  8
0
 10
81.668123552193336
 20
90.9279643414108278
 30
0.0
  0
VERTEX
  5
24A8
  8
0
 10
81.6481914847953476
 20
90.9521998336871178
 30
0.0
  0
VERTEX
  5
24A9
  8
0
 10
81.6284824418416548
 20
90.9766092339842203
 30
0.0
  0
VERTEX
  5
24AA
  8
0
 10
81.6090005266437259
 20
91.0011957002341632
 30
0.0
  0
VERTEX
  5
24AB
  8
0
 10
81.5897498425128447
 20
91.0259623903690169
 30
0.0
  0
VERTEX
  5
24AC
  8
0
 10
81.5707344927605362
 20
91.0509124623208237
 30
0.0
  0
VERTEX
  5
24AD
  8
0
 10
81.5519585806981553
 20
91.076049074021654
 30
0.0
  0
VERTEX
  5
24AE
  8
0
 10
81.5334202722926875
 20
91.1013846196132562
 30
0.0
  0
VERTEX
  5
24AF
  8
0
 10
81.5151084935045276
 20
91.1269521202113566
 30
0.0
  0
VERTEX
  5
24B0
  8
0
 10
81.4970410690714147
 20
91.1527472637430662
 30
0.0
  0
VERTEX
  5
24B1
  8
0
 10
81.4792383417881041
 20
91.1787621540190543
 30
0.0
  0
VERTEX
  5
24B2
  8
0
 10
81.4617206544491808
 20
91.2049888948499472
 30
0.0
  0
VERTEX
  5
24B3
  8
0
 10
81.4445083498493148
 20
91.2314195900464142
 30
0.0
  0
VERTEX
  5
24B4
  8
0
 10
81.4276217707831904
 20
91.2580463434191245
 30
0.0
  0
VERTEX
  5
24B5
  8
0
 10
81.4110812600454352
 20
91.2848612587787045
 30
0.0
  0
VERTEX
  5
24B6
  8
0
 10
81.3949071604307903
 20
91.311856439935795
 30
0.0
  0
VERTEX
  5
24B7
  8
0
 10
81.3791198147338548
 20
91.3390239907011221
 30
0.0
  0
VERTEX
  5
24B8
  8
0
 10
81.3637410123580764
 20
91.3663536227793287
 30
0.0
  0
VERTEX
  5
24B9
  8
0
 10
81.3488241994210171
 20
91.3937822788070235
 30
0.0
  0
VERTEX
  5
24BA
  8
0
 10
81.3344071853920951
 20
91.4212717123869965
 30
0.0
  0
VERTEX
  5
24BB
  8
0
 10
81.3205152203164943
 20
91.4488042935319356
 30
0.0
  0
VERTEX
  5
24BC
  8
0
 10
81.3071735542394265
 20
91.4763623922546145
 30
0.0
  0
VERTEX
  5
24BD
  8
0
 10
81.294407437206047
 20
91.5039283785677355
 30
0.0
  0
VERTEX
  5
24BE
  8
0
 10
81.2822421192615536
 20
91.5314846224840153
 30
0.0
  0
VERTEX
  5
24BF
  8
0
 10
81.2707028504511158
 20
91.5590134940162415
 30
0.0
  0
VERTEX
  5
24C0
  8
0
 10
81.2598148808199454
 20
91.586497363177088
 30
0.0
  0
VERTEX
  5
24C1
  8
0
 10
81.2496034604131836
 20
91.6139185999793
 30
0.0
  0
VERTEX
  5
24C2
  8
0
 10
81.240093839276085
 20
91.6412595744356224
 30
0.0
  0
VERTEX
  5
24C3
  8
0
 10
81.2313306198196443
 20
91.6684469841787148
 30
0.0
  0
VERTEX
  5
24C4
  8
0
 10
81.2233640776854031
 20
91.6953728411407241
 30
0.0
  0
VERTEX
  5
24C5
  8
0
 10
81.2162100186617266
 20
91.7220154228443789
 30
0.0
  0
VERTEX
  5
24C6
  8
0
 10
81.2098838279008532
 20
91.7483541352646057
 30
0.0
  0
VERTEX
  5
24C7
  8
0
 10
81.2044008905551777
 20
91.7743683843763165
 30
0.0
  0
VERTEX
  5
24C8
  8
0
 10
81.1997765917769527
 20
91.8000375761544234
 30
0.0
  0
VERTEX
  5
24C9
  8
0
 10
81.1960263167185587
 20
91.8253411165738527
 30
0.0
  0
VERTEX
  5
24CA
  8
0
 10
81.1931654505322342
 20
91.8502584116095164
 30
0.0
  0
VERTEX
  5
24CB
  8
0
 10
81.1912093783703313
 20
91.8747688672363267
 30
0.0
  0
VERTEX
  5
24CC
  8
0
 10
81.1901734853851735
 20
91.8988518894291957
 30
0.0
  0
VERTEX
  5
24CD
  8
0
 10
81.1900745250920863
 20
91.9224632476516774
 30
0.0
  0
VERTEX
  5
24CE
  8
0
 10
81.1909238513475202
 20
91.945443465989328
 30
0.0
  0
VERTEX
  5
24CF
  8
0
 10
81.1927069338999843
 20
91.9677558200293959
 30
0.0
  0
VERTEX
  5
24D0
  8
0
 10
81.1954065139711929
 20
91.9893875482237036
 30
0.0
  0
VERTEX
  5
24D1
  8
0
 10
81.1990053327828321
 20
92.0103258890241023
 30
0.0
  0
VERTEX
  5
24D2
  8
0
 10
81.2034861315566161
 20
92.0305580808824004
 30
0.0
  0
VERTEX
  5
24D3
  8
0
 10
81.2088316515142026
 20
92.0500713622504065
 30
0.0
  0
VERTEX
  5
24D4
  8
0
 10
81.2150246338773343
 20
92.0688529715799433
 30
0.0
  0
VERTEX
  5
24D5
  8
0
 10
81.2220478198676972
 20
92.086890147322876
 30
0.0
  0
VERTEX
  5
24D6
  8
0
 10
81.229883950706963
 20
92.1041701279310132
 30
0.0
  0
VERTEX
  5
24D7
  8
0
 10
81.238515663569089
 20
92.1206800970024915
 30
0.0
  0
VERTEX
  5
24D8
  8
0
 10
81.2479142482727639
 20
92.1364069402554833
 30
0.0
  0
VERTEX
  5
24D9
  8
0
 10
81.2580435520006006
 20
92.151351444859543
 30
0.0
  0
VERTEX
  5
24DA
  8
0
 10
81.2688705023982152
 20
92.1655194607113231
 30
0.0
  0
VERTEX
  5
24DB
  8
0
 10
81.2803620271112663
 20
92.1789168377074759
 30
0.0
  0
VERTEX
  5
24DC
  8
0
 10
81.2924850537853843
 20
92.1915494257446682
 30
0.0
  0
VERTEX
  5
24DD
  8
0
 10
81.3052065100661849
 20
92.2034230747196091
 30
0.0
  0
VERTEX
  5
24DE
  8
0
 10
81.3184933235993412
 20
92.2145436345288942
 30
0.0
  0
VERTEX
  5
24DF
  8
0
 10
81.3323124220304265
 20
92.2249169550692613
 30
0.0
  0
VERTEX
  5
24E0
  8
0
 10
81.3466307330051563
 20
92.2345488862373344
 30
0.0
  0
VERTEX
  5
24E1
  8
0
 10
81.3614151841690898
 20
92.2434452779298084
 30
0.0
  0
VERTEX
  5
24E2
  8
0
 10
81.3766351051921646
 20
92.2516254138503484
 30
0.0
  0
VERTEX
  5
24E3
  8
0
 10
81.3922729564509382
 20
92.259130603136029
 30
0.0
  0
VERTEX
  5
24E4
  8
0
 10
81.4083146632178938
 20
92.2659732699474944
 30
0.0
  0
VERTEX
  5
24E5
  8
0
 10
81.4247460810396433
 20
92.272164399290844
 30
0.0
  0
VERTEX
  5
24E6
  8
0
 10
81.4415530654626991
 20
92.2777149761722058
 30
0.0
  0
VERTEX
  5
24E7
  8
0
 10
81.4587214720336306
 20
92.2826359855977216
 30
0.0
  0
VERTEX
  5
24E8
  8
0
 10
81.4762371562989927
 20
92.2869384125734911
 30
0.0
  0
VERTEX
  5
24E9
  8
0
 10
81.4940859738053263
 20
92.2906332421056703
 30
0.0
  0
VERTEX
  5
24EA
  8
0
 10
81.5122537800992006
 20
92.293731459200373
 30
0.0
  0
VERTEX
  5
24EB
  8
0
 10
81.5307264307271851
 20
92.296244048863727
 30
0.0
  0
VERTEX
  5
24EC
  8
0
 10
81.5494897812358346
 20
92.2981819961018459
 30
0.0
  0
VERTEX
  5
24ED
  8
0
 10
81.5685296871716474
 20
92.2995562859208434
 30
0.0
  0
VERTEX
  5
24EE
  8
0
 10
81.5878320040812355
 20
92.3003779033269041
 30
0.0
  0
VERTEX
  5
24EF
  8
0
 10
81.6073825875111538
 20
92.300657833326099
 30
0.0
  0
VERTEX
  5
24F0
  8
0
 10
81.6271672930079433
 20
92.3004070609245844
 30
0.0
  0
VERTEX
  5
24F1
  8
0
 10
81.6471719761181163
 20
92.2996365711284454
 30
0.0
  0
VERTEX
  5
24F2
  8
0
 10
81.6673824923883132
 20
92.2983573489438385
 30
0.0
  0
VERTEX
  5
24F3
  8
0
 10
81.6877846973650747
 20
92.2965803793768913
 30
0.0
  0
VERTEX
  5
24F4
  8
0
 10
81.7083644465948566
 20
92.2943166474337318
 30
0.0
  0
VERTEX
  5
24F5
  8
0
 10
81.7291075956243134
 20
92.2915771381204593
 30
0.0
  0
VERTEX
  5
24F6
  8
0
 10
81.75
 20
92.2883728364432159
 30
0.0
  0
SEQEND
  5
24F7
  8
0
  0
POLYLINE
  5
1D42
  8
0
 66
     1
 10
0.0
 20
0.0
 30
0.0
  0
VERTEX
  5
24F8
  8
0
 10
81.7499999999998579
 20
94.0886004403040772
 30
0.0
  0
VERTEX
  5
24F9
  8
0
 10
81.7292169360140832
 20
94.1092220473592818
 30
0.0
  0
VERTEX
  5
24FA
  8
0
 10
81.7086404729974873
 20
94.1301453947472311
 30
0.0
  0
VERTEX
  5
24FB
  8
0
 10
81.6882747144155843
 20
94.1513756767903232
 30
0.0
  0
VERTEX
  5
24FC
  8
0
 10
81.6681237637338455
 20
94.1729180878109844
 30
0.0
  0
VERTEX
  5
24FD
  8
0
 10
81.6481917244178135
 20
94.1947778221316412
 30
0.0
  0
VERTEX
  5
24FE
  8
0
 10
81.6284826999330448
 20
94.2169600740747057
 30
0.0
  0
VERTEX
  5
24FF
  8
0
 10
81.6090007937450537
 20
94.2394700379625903
 30
0.0
  0
VERTEX
  5
2500
  8
0
 10
81.5897501093193682
 20
94.2623129081177211
 30
0.0
  0
VERTEX
  5
2501
  8
0
 10
81.5707347501215168
 20
94.2854938788625248
 30
0.0
  0
VERTEX
  5
2502
  8
0
 10
81.5519588196169991
 20
94.3090181445193991
 30
0.0
  0
VERTEX
  5
2503
  8
0
 10
81.5334204803097293
 20
94.3329000021984285
 30
0.0
  0
VERTEX
  5
2504
  8
0
 10
81.5151086478615952
 20
94.3571756858407866
 30
0.0
  0
VERTEX
  5
2505
  8
0
 10
81.4970411528477143
 20
94.3818465953311261
 30
0.0
  0
VERTEX
  5
2506
  8
0
 10
81.4792383453697937
 20
94.4069106838357754
 30
0.0
  0
VERTEX
  5
2507
  8
0
 10
81.461720575529597
 20
94.4323659045212054
 30
0.0
  0
VERTEX
  5
2508
  8
0
 10
81.4445081934289306
 20
94.4582102105538723
 30
0.0
  0
VERTEX
  5
2509
  8
0
 10
81.4276215491695439
 20
94.4844415551001902
 30
0.0
  0
VERTEX
  5
250A
  8
0
 10
81.4110809928531864
 20
94.5110578913266153
 30
0.0
  0
VERTEX
  5
250B
  8
0
 10
81.3949068745816646
 20
94.5380571723995473
 30
0.0
  0
VERTEX
  5
250C
  8
0
 10
81.3791195444566853
 20
94.5654373514854427
 30
0.0
  0
VERTEX
  5
250D
  8
0
 10
81.3637407967343051
 20
94.5931939902563812
 30
0.0
  0
VERTEX
  5
250E
  8
0
 10
81.3488240304785251
 20
94.6212697105186464
 30
0.0
  0
VERTEX
  5
250F
  8
0
 10
81.3344070391221834
 20
94.649631481663306
 30
0.0
  0
VERTEX
  5
2510
  8
0
 10
81.320515078635637
 20
94.6782668178762066
 30
0.0
  0
VERTEX
  5
2511
  8
0
 10
81.3071734049890438
 20
94.7071632333431523
 30
0.0
  0
VERTEX
  5
2512
  8
0
 10
81.2944072741527037
 20
94.736308242249919
 30
0.0
  0
VERTEX
  5
2513
  8
0
 10
81.2822419420968458
 20
94.7656893587823248
 30
0.0
  0
VERTEX
  5
2514
  8
0
 10
81.2707026647917843
 20
94.7952940971261455
 30
0.0
  0
VERTEX
  5
2515
  8
0
 10
81.2598146982077054
 20
94.8251099714672137
 30
0.0
  0
VERTEX
  5
2516
  8
0
 10
81.249603298314895
 20
94.8551244959913191
 30
0.0
  0
VERTEX
  5
2517
  8
0
 10
81.2400937210836389
 20
94.885325184884266
 30
0.0
  0
VERTEX
  5
2518
  8
0
 10
81.2313305556145338
 20
94.9156379336947964
 30
0.0
  0
VERTEX
  5
2519
  8
0
 10
81.2233640509902557
 20
94.9459478385595759
 30
0.0
  0
VERTEX
  5
251A
  8
0
 10
81.2162100153585556
 20
94.9762337834096826
 30
0.0
  0
VERTEX
  5
251B
  8
0
 10
81.2098838366155462
 20
95.0064758904494369
 30
0.0
  0
VERTEX
  5
251C
  8
0
 10
81.2044009026571985
 20
95.0366542818831164
 30
0.0
  0
VERTEX
  5
251D
  8
0
 10
81.1997766013794831
 20
95.0667490799151125
 30
0.0
  0
VERTEX
  5
251E
  8
0
 10
81.1960263206784703
 20
95.0967404067497313
 30
0.0
  0
VERTEX
  5
251F
  8
0
 10
81.1931654484501735
 20
95.1266083845912789
 30
0.0
  0
VERTEX
  5
2520
  8
0
 10
81.1912093725905777
 20
95.1563331356440898
 30
0.0
  0
VERTEX
  5
2521
  8
0
 10
81.1901734809957247
 20
95.1858947821124701
 30
0.0
  0
VERTEX
  5
2522
  8
0
 10
81.1900745287741046
 20
95.215244605430243
 30
0.0
  0
VERTEX
  5
2523
  8
0
 10
81.1909238644108058
 20
95.2441887272942154
 30
0.0
  0
VERTEX
  5
2524
  8
0
 10
81.1927069561506158
 20
95.2726759863225539
 30
0.0
  0
VERTEX
  5
2525
  8
0
 10
81.1954065447274331
 20
95.3006839556946517
 30
0.0
  0
VERTEX
  5
2526
  8
0
 10
81.1990053708751134
 20
95.3281902085898452
 30
0.0
  0
VERTEX
  5
2527
  8
0
 10
81.2034861753275266
 20
95.3551723181875559
 30
0.0
  0
VERTEX
  5
2528
  8
0
 10
81.2088316988185852
 20
95.381607857667106
 30
0.0
  0
VERTEX
  5
2529
  8
0
 10
81.2150246820821167
 20
95.4074744002078461
 30
0.0
  0
VERTEX
  5
252A
  8
0
 10
81.2220478658520335
 20
95.4327495189891977
 30
0.0
  0
VERTEX
  5
252B
  8
0
 10
81.2298839908622341
 20
95.4574107871904829
 30
0.0
  0
VERTEX
  5
252C
  8
0
 10
81.2385156938818227
 20
95.4814356733241141
 30
0.0
  0
VERTEX
  5
252D
  8
0
 10
81.247914270552414
 20
95.5047971850200952
 30
0.0
  0
VERTEX
  5
252E
  8
0
 10
81.2580435709436983
 20
95.5274826493515548
 30
0.0
  0
VERTEX
  5
252F
  8
0
 10
81.2688705214166305
 20
95.5494866989268417
 30
0.0
  0
VERTEX
  5
2530
  8
0
 10
81.2803620483321652
 20
95.5708039663542053
 30
0.0
  0
VERTEX
  5
2531
  8
0
 10
81.2924850780512855
 20
95.5914290842419661
 30
0.0
  0
VERTEX
  5
2532
  8
0
 10
81.305206536934989
 20
95.611356685198416
 30
0.0
  0
VERTEX
  5
2533
  8
0
 10
81.3184933513442161
 20
95.630581401831833
 30
0.0
  0
VERTEX
  5
2534
  8
0
 10
81.3323124476399641
 20
95.6490978667504947
 30
0.0
  0
VERTEX
  5
2535
  8
0
 10
81.3466307521831737
 20
95.6669007125627502
 30
0.0
  0
VERTEX
  5
2536
  8
0
 10
81.3614151913348564
 20
95.6839845718768345
 30
0.0
  0
VERTEX
  5
2537
  8
0
 10
81.376635096554665
 20
95.700361934028237
 30
0.0
  0
VERTEX
  5
2538
  8
0
 10
81.3922729349675365
 20
95.7160780844033354
 30
0.0
  0
VERTEX
  5
2539
  8
0
 10
81.4083146319069613
 20
95.7311432169371272
 30
0.0
  0
VERTEX
  5
253A
  8
0
 10
81.4247460426493745
 20
95.7455656844022513
 30
0.0
  0
VERTEX
  5
253B
  8
0
 10
81.441553022471183
 20
95.7593538395712471
 30
0.0
  0
VERTEX
  5
253C
  8
0
 10
81.458721426648907
 20
95.7725160352167251
 30
0.0
  0
VERTEX
  5
253D
  8
0
 10
81.4762371104589249
 20
95.7850606241112672
 30
0.0
  0
VERTEX
  5
253E
  8
0
 10
81.494085929177686
 20
95.7969959590274982
 30
0.0
  0
VERTEX
  5
253F
  8
0
 10
81.5122537380816539
 20
95.8083303927380143
 30
0.0
  0
VERTEX
  5
2540
  8
0
 10
81.5307263924472352
 20
95.819072278015355
 30
0.0
  0
VERTEX
  5
2541
  8
0
 10
81.5494897475509077
 20
95.8292299676321733
 30
0.0
  0
VERTEX
  5
2542
  8
0
 10
81.5685296586691493
 20
95.838811814361037
 30
0.0
  0
VERTEX
  5
2543
  8
0
 10
81.5878319810783239
 20
95.8478261709745141
 30
0.0
  0
VERTEX
  5
2544
  8
0
 10
81.6073825700549378
 20
95.8562813902452433
 30
0.0
  0
VERTEX
  5
2545
  8
0
 10
81.6271672808753976
 20
95.8641858249458068
 30
0.0
  0
VERTEX
  5
2546
  8
0
 10
81.6471719688161386
 20
95.8715478278487581
 30
0.0
  0
VERTEX
  5
2547
  8
0
 10
81.6673824891536526
 20
95.8783757517267645
 30
0.0
  0
VERTEX
  5
2548
  8
0
 10
81.6877846971643464
 20
95.8846779493523513
 30
0.0
  0
VERTEX
  5
2549
  8
0
 10
81.7083644481246552
 20
95.890462773498129
 30
0.0
  0
VERTEX
  5
254A
  8
0
 10
81.729107597311085
 20
95.8957385769367363
 30
0.0
  0
VERTEX
  5
254B
  8
0
 10
81.7499999999999716
 20
95.9005137124406986
 30
0.0
  0
SEQEND
  5
254C
  8
0
  0
POLYLINE
  5
1D43
  8
0
 66
     1
 10
0.0
 20
0.0
 30
0.0
  0
VERTEX
  5
254D
  8
0
 10
81.7499999999999716
 20
102.0999347477896038
 30
0.0
  0
VERTEX
  5
254E
  8
0
 10
81.7292168790006599
 20
102.108514669917696
 30
0.0
  0
VERTEX
  5
254F
  8
0
 10
81.7086403666325083
 20
102.1175674702110996
 30
0.0
  0
VERTEX
  5
2550
  8
0
 10
81.6882745662526872
 20
102.1271005661617011
 30
0.0
  0
VERTEX
  5
2551
  8
0
 10
81.6681235812182251
 20
102.1371213752614011
 30
0.0
  0
VERTEX
  5
2552
  8
0
 10
81.6481915148862925
 20
102.1476373150020009
 30
0.0
  0
VERTEX
  5
2553
  8
0
 10
81.6284824706139318
 20
102.1586558028756002
 30
0.0
  0
VERTEX
  5
2554
  8
0
 10
81.6090005517582853
 20
102.1701842563738012
 30
0.0
  0
VERTEX
  5
2555
  8
0
 10
81.5897498616764949
 20
102.1822300929887035
 30
0.0
  0
VERTEX
  5
2556
  8
0
 10
81.5707345037255891
 20
102.1948007302119947
 30
0.0
  0
VERTEX
  5
2557
  8
0
 10
81.5519585812627383
 20
102.2079035855357034
 30
0.0
  0
VERTEX
  5
2558
  8
0
 10
81.5334202593199535
 20
102.221552057804999
 30
0.0
  0
VERTEX
  5
2559
  8
0
 10
81.5151084610733108
 20
102.2357770539895938
 30
0.0
  0
VERTEX
  5
255A
  8
0
 10
81.4970410128544245
 20
102.2505903628919981
 30
0.0
  0
VERTEX
  5
255B
  8
0
 10
81.4792382594503977
 20
102.2660016732604049
 30
0.0
  0
VERTEX
  5
255C
  8
0
 10
81.4617205456484328
 20
102.2820206738428936
 30
0.0
  0
VERTEX
  5
255D
  8
0
 10
81.4445082162356186
 20
102.2986570533874016
 30
0.0
  0
VERTEX
  5
255E
  8
0
 10
81.4276216159991577
 20
102.315920500642207
 30
0.0
  0
VERTEX
  5
255F
  8
0
 10
81.411081089726153
 20
102.3338207043552046
 30
0.0
  0
VERTEX
  5
2560
  8
0
 10
81.3949069822038354
 20
102.3523673532746017
 30
0.0
  0
VERTEX
  5
2561
  8
0
 10
81.3791196382191941
 20
102.371570136148307
 30
0.0
  0
VERTEX
  5
2562
  8
0
 10
81.3637408485060547
 20
102.3914370897702071
 30
0.0
  0
VERTEX
  5
2563
  8
0
 10
81.3488240465151762
 20
102.4119393474521047
 30
0.0
  0
VERTEX
  5
2564
  8
0
 10
81.3344070374353549
 20
102.4330640310592031
 30
0.0
  0
VERTEX
  5
2565
  8
0
 10
81.3205150729591253
 20
102.4548123335670056
 30
0.0
  0
VERTEX
  5
2566
  8
0
 10
81.3071734047788368
 20
102.4771854479510012
 30
0.0
  0
VERTEX
  5
2567
  8
0
 10
81.2944072845869243
 20
102.5001845671866931
 30
0.0
  0
VERTEX
  5
2568
  8
0
 10
81.2822419640758369
 20
102.5238108842496985
 30
0.0
  0
VERTEX
  5
2569
  8
0
 10
81.2707026949379951
 20
102.5480655921154067
 30
0.0
  0
VERTEX
  5
256A
  8
0
 10
81.2598147288658339
 20
102.5729498837594065
 30
0.0
  0
VERTEX
  5
256B
  8
0
 10
81.249603317551788
 20
102.598464952157201
 30
0.0
  0
VERTEX
  5
256C
  8
0
 10
81.2400937126882638
 20
102.6246119902842935
 30
0.0
  0
VERTEX
  5
256D
  8
0
 10
81.2313305130635683
 20
102.6513384799407049
 30
0.0
  0
VERTEX
  5
256E
  8
0
 10
81.2233639870514708
 20
102.678552233642904
 30
0.0
  0
VERTEX
  5
256F
  8
0
 10
81.2162099410849976
 20
102.7062399329446976
 30
0.0
  0
VERTEX
  5
2570
  8
0
 10
81.2098837610663224
 20
102.7343893205198953
 30
0.0
  0
VERTEX
  5
2571
  8
0
 10
81.2044008328976332
 20
102.762988139041596
 30
0.0
  0
VERTEX
  5
2572
  8
0
 10
81.1997765424810751
 20
102.7920241311834957
 30
0.0
  0
VERTEX
  5
2573
  8
0
 10
81.1960262757188787
 20
102.8214850396190059
 30
0.0
  0
VERTEX
  5
2574
  8
0
 10
81.1931654185131748
 20
102.851358607021595
 30
0.0
  0
VERTEX
  5
2575
  8
0
 10
81.1912093567660946
 20
102.8816325760647032
 30
0.0
  0
VERTEX
  5
2576
  8
0
 10
81.1901734763799254
 20
102.9122946894217989
 30
0.0
  0
VERTEX
  5
2577
  8
0
 10
81.1900745312861147
 20
102.9433030048283939
 30
0.0
  0
VERTEX
  5
2578
  8
0
 10
81.1909238737309522
 20
102.9744591273986032
 30
0.0
  0
VERTEX
  5
2579
  8
0
 10
81.1927069729631512
 20
103.0057005990436068
 30
0.0
  0
VERTEX
  5
257A
  8
0
 10
81.1954065699983545
 20
103.0369937546203971
 30
0.0
  0
VERTEX
  5
257B
  8
0
 10
81.1990054058523469
 20
103.0683049289855973
 30
0.0
  0
VERTEX
  5
257C
  8
0
 10
81.2034862215407287
 20
103.0996004569961997
 30
0.0
  0
VERTEX
  5
257D
  8
0
 10
81.2088317580792705
 20
103.1308466735091969
 30
0.0
  0
VERTEX
  5
257E
  8
0
 10
81.2150247564836434
 20
103.1620099133811976
 30
0.0
  0
VERTEX
  5
257F
  8
0
 10
81.2220479577695471
 20
103.193056511469095
 30
0.0
  0
VERTEX
  5
2580
  8
0
 10
81.229884102952667
 20
103.2239528026298956
 30
0.0
  0
VERTEX
  5
2581
  8
0
 10
81.2385158290251752
 20
103.2546649548273052
 30
0.0
  0
VERTEX
  5
2582
  8
0
 10
81.247914427450894
 20
103.2851481343216022
 30
0.0
  0
VERTEX
  5
2583
  8
0
 10
81.2580437462254537
 20
103.3153681455746948
 30
0.0
  0
VERTEX
  5
2584
  8
0
 10
81.2688707125940084
 20
103.3453000893799043
 30
0.0
  0
VERTEX
  5
2585
  8
0
 10
81.280362253801826
 20
103.3749190665304951
 30
0.0
  0
VERTEX
  5
2586
  8
0
 10
81.2924852970940464
 20
103.4042001778200017
 30
0.0
  0
VERTEX
  5
2587
  8
0
 10
81.3052067697159373
 20
103.4331185240416033
 30
0.0
  0
VERTEX
  5
2588
  8
0
 10
81.3184935989126245
 20
103.4616492059887065
 30
0.0
  0
VERTEX
  5
2589
  8
0
 10
81.3323127119293758
 20
103.4897673244546041
 30
0.0
  0
VERTEX
  5
258A
  8
0
 10
81.346631036011388
 20
103.5174479802327028
 30
0.0
  0
VERTEX
  5
258B
  8
0
 10
81.3614154984038294
 20
103.5446662741163948
 30
0.0
  0
VERTEX
  5
258C
  8
0
 10
81.3766354297986823
 20
103.5714179259461929
 30
0.0
  0
VERTEX
  5
258D
  8
0
 10
81.3922732934729538
 20
103.5977415336641059
 30
0.0
  0
VERTEX
  5
258E
  8
0
 10
81.4083150141149758
 20
103.6236398773984035
 30
0.0
  0
VERTEX
  5
258F
  8
0
 10
81.4247464465255462
 20
103.649113713517707
 30
0.0
  0
VERTEX
  5
2590
  8
0
 10
81.4415534455053063
 20
103.674163798390893
 30
0.0
  0
VERTEX
  5
2591
  8
0
 10
81.4587218658550967
 20
103.6987908883864975
 30
0.0
  0
VERTEX
  5
2592
  8
0
 10
81.4762375623755872
 20
103.7229957398730988
 30
0.0
  0
VERTEX
  5
2593
  8
0
 10
81.4940863898675332
 20
103.7467791092195029
 30
0.0
  0
VERTEX
  5
2594
  8
0
 10
81.5122542031316755
 20
103.7701417527943022
 30
0.0
  0
VERTEX
  5
2595
  8
0
 10
81.5307268569687551
 20
103.7930844269663027
 30
0.0
  0
VERTEX
  5
2596
  8
0
 10
81.5494902061794562
 20
103.8156078881038979
 30
0.0
  0
VERTEX
  5
2597
  8
0
 10
81.568530105564605
 20
103.8377128925758939
 30
0.0
  0
VERTEX
  5
2598
  8
0
 10
81.5878324099248573
 20
103.8594001967510962
 30
0.0
  0
VERTEX
  5
2599
  8
0
 10
81.6073829740609824
 20
103.8806705569978988
 30
0.0
  0
VERTEX
  5
259A
  8
0
 10
81.6271676527736929
 20
103.9015247296852067
 30
0.0
  0
VERTEX
  5
259B
  8
0
 10
81.6471723008637582
 20
103.921963471181499
 30
0.0
  0
VERTEX
  5
259C
  8
0
 10
81.6673827731319051
 20
103.9419875378555957
 30
0.0
  0
VERTEX
  5
259D
  8
0
 10
81.6877849243788887
 20
103.9615976860760043
 30
0.0
  0
VERTEX
  5
259E
  8
0
 10
81.708364609405379
 20
103.9807946722116014
 30
0.0
  0
VERTEX
  5
259F
  8
0
 10
81.7291076830121881
 20
103.9995792526307952
 30
0.0
  0
VERTEX
  5
25A0
  8
0
 10
81.75
 20
104.017952183702505
 30
0.0
  0
SEQEND
  5
25A1
  8
0
  0
POLYLINE
  5
1D44
  8
0
 66
     1
 10
0.0
 20
0.0
 30
0.0
  0
VERTEX
  5
25A2
  8
0
 10
81.7499999999999716
 20
105.9872145279680069
 30
0.0
  0
VERTEX
  5
25A3
  8
0
 10
81.7292168548305256
 20
105.9880073811055041
 30
0.0
  0
VERTEX
  5
25A4
  8
0
 10
81.7086403226238076
 20
105.9892852534822936
 30
0.0
  0
VERTEX
  5
25A5
  8
0
 10
81.6882745066662892
 20
105.9910555090396969
 30
0.0
  0
VERTEX
  5
25A6
  8
0
 10
81.6681235102443139
 20
105.9933255117192061
 30
0.0
  0
VERTEX
  5
25A7
  8
0
 10
81.6481914366444244
 20
105.9961026254623988
 30
0.0
  0
VERTEX
  5
25A8
  8
0
 10
81.6284823891529356
 20
105.999394214210696
 30
0.0
  0
VERTEX
  5
25A9
  8
0
 10
81.6090004710563193
 20
106.003207641905604
 30
0.0
  0
VERTEX
  5
25AA
  8
0
 10
81.5897497856410325
 20
106.0075502724886007
 30
0.0
  0
VERTEX
  5
25AB
  8
0
 10
81.5707344361934332
 20
106.0124294699010932
 30
0.0
  0
VERTEX
  5
25AC
  8
0
 10
81.5519585260000071
 20
106.0178525980846018
 30
0.0
  0
VERTEX
  5
25AD
  8
0
 10
81.5334202216102994
 20
106.0238303626080949
 30
0.0
  0
VERTEX
  5
25AE
  8
0
 10
81.5151084507164398
 20
106.0303857379993957
 30
0.0
  0
VERTEX
  5
25AF
  8
0
 10
81.4970410370785601
 20
106.0375340502109935
 30
0.0
  0
VERTEX
  5
25B0
  8
0
 10
81.4792383222668661
 20
106.0452895844262002
 30
0.0
  0
VERTEX
  5
25B1
  8
0
 10
81.4617206478515357
 20
106.0536666258281997
 30
0.0
  0
VERTEX
  5
25B2
  8
0
 10
81.4445083554027462
 20
106.0626794596002043
 30
0.0
  0
VERTEX
  5
25B3
  8
0
 10
81.4276217864906471
 20
106.0723423709255968
 30
0.0
  0
VERTEX
  5
25B4
  8
0
 10
81.4110812826854584
 20
106.0826696449875044
 30
0.0
  0
VERTEX
  5
25B5
  8
0
 10
81.3949071855573436
 20
106.0936755669690967
 30
0.0
  0
VERTEX
  5
25B6
  8
0
 10
81.3791198366764661
 20
106.1053744220537993
 30
0.0
  0
VERTEX
  5
25B7
  8
0
 10
81.3637410246346775
 20
106.1177795089101039
 30
0.0
  0
VERTEX
  5
25B8
  8
0
 10
81.3488242034711959
 20
106.1308818311444071
 30
0.0
  0
VERTEX
  5
25B9
  8
0
 10
81.3344071853635171
 20
106.1446813029732965
 30
0.0
  0
VERTEX
  5
25BA
  8
0
 10
81.3205152193711882
 20
106.1591861490716013
 30
0.0
  0
VERTEX
  5
25BB
  8
0
 10
81.3071735545538559
 20
106.1744045941139944
 30
0.0
  0
VERTEX
  5
25BC
  8
0
 10
81.2944074399709962
 20
106.190344862775305
 30
0.0
  0
VERTEX
  5
25BD
  8
0
 10
81.2822421246821989
 20
106.207015179730206
 30
0.0
  0
VERTEX
  5
25BE
  8
0
 10
81.2707028577470538
 20
106.2244237696534981
 30
0.0
  0
VERTEX
  5
25BF
  8
0
 10
81.2598148882250939
 20
106.2425788572198968
 30
0.0
  0
VERTEX
  5
25C0
  8
0
 10
81.2496034651758663
 20
106.2614886671042029
 30
0.0
  0
VERTEX
  5
25C1
  8
0
 10
81.240093837658975
 20
106.2811614239811036
 30
0.0
  0
VERTEX
  5
25C2
  8
0
 10
81.2313306103171442
 20
106.3015647246517972
 30
0.0
  0
VERTEX
  5
25C3
  8
0
 10
81.2233640632360618
 20
106.3226336695518057
 30
0.0
  0
VERTEX
  5
25C4
  8
0
 10
81.216210001809074
 20
106.3443612682288943
 30
0.0
  0
VERTEX
  5
25C5
  8
0
 10
81.2098838107292238
 20
106.3667413218099966
 30
0.0
  0
VERTEX
  5
25C6
  8
0
 10
81.2044008746894832
 20
106.3897676314220035
 30
0.0
  0
VERTEX
  5
25C7
  8
0
 10
81.1997765783828953
 20
106.4134339981916071
 30
0.0
  0
VERTEX
  5
25C8
  8
0
 10
81.1960263065023753
 20
106.4377342232457977
 30
0.0
  0
VERTEX
  5
25C9
  8
0
 10
81.1931654437410657
 20
106.4626621077112958
 30
0.0
  0
VERTEX
  5
25CA
  8
0
 10
81.1912093747918959
 20
106.488211452715106
 30
0.0
  0
VERTEX
  5
25CB
  8
0
 10
81.1901734843478664
 20
106.5143760593838067
 30
0.0
  0
VERTEX
  5
25CC
  8
0
 10
81.1900745256533156
 20
106.5411245149636983
 30
0.0
  0
VERTEX
  5
25CD
  8
0
 10
81.1909238534315563
 20
106.5682889009893017
 30
0.0
  0
VERTEX
  5
25CE
  8
0
 10
81.1927069376626633
 20
106.5958111341451939
 30
0.0
  0
VERTEX
  5
25CF
  8
0
 10
81.1954065196334653
 20
106.6236571854066995
 30
0.0
  0
VERTEX
  5
25D0
  8
0
 10
81.1990053406309045
 20
106.6517930257494982
 30
0.0
  0
VERTEX
  5
25D1
  8
0
 10
81.2034861419417666
 20
106.6801846261489999
 30
0.0
  0
VERTEX
  5
25D2
  8
0
 10
81.2088316648529656
 20
106.7087979575808987
 30
0.0
  0
VERTEX
  5
25D3
  8
0
 10
81.215024650651344
 20
106.7375989910207039
 30
0.0
  0
VERTEX
  5
25D4
  8
0
 10
81.2220478406237874
 20
106.7665536974438965
 30
0.0
  0
VERTEX
  5
25D5
  8
0
 10
81.2298839760571383
 20
106.7956280478260993
 30
0.0
  0
VERTEX
  5
25D6
  8
0
 10
81.2385156941769537
 20
106.8247878409540021
 30
0.0
  0
VERTEX
  5
25D7
  8
0
 10
81.2479142838391937
 20
106.8539862350452978
 30
0.0
  0
VERTEX
  5
25D8
  8
0
 10
81.2580435917485886
 20
106.8831833196152985
 30
0.0
  0
VERTEX
  5
25D9
  8
0
 10
81.2688705457546519
 20
106.9123479952613991
 30
0.0
  0
VERTEX
  5
25DA
  8
0
 10
81.2803620737069252
 20
106.9414491625809944
 30
0.0
  0
VERTEX
  5
25DB
  8
0
 10
81.2924851034549363
 20
106.9704557221718062
 30
0.0
  0
VERTEX
  5
25DC
  8
0
 10
81.3052065628481841
 20
106.9993365746310019
 30
0.0
  0
VERTEX
  5
25DD
  8
0
 10
81.3184933797362248
 20
107.0280606205562037
 30
0.0
  0
VERTEX
  5
25DE
  8
0
 10
81.3323124819685859
 20
107.056596760544906
 30
0.0
  0
VERTEX
  5
25DF
  8
0
 10
81.3466307973947664
 20
107.0849138951944042
 30
0.0
  0
VERTEX
  5
25E0
  8
0
 10
81.3614152538643367
 20
107.1129809251023062
 30
0.0
  0
VERTEX
  5
25E1
  8
0
 10
81.3766351808685044
 20
107.1407854132165056
 30
0.0
  0
VERTEX
  5
25E2
  8
0
 10
81.3922730378937445
 20
107.1683560255028027
 30
0.0
  0
VERTEX
  5
25E3
  8
0
 10
81.408314750065955
 20
107.1956911626333948
 30
0.0
  0
VERTEX
  5
25E4
  8
0
 10
81.4247461728243422
 20
107.2227874403857015
 30
0.0
  0
VERTEX
  5
25E5
  8
0
 10
81.441553161608141
 20
107.2496414745370004
 30
0.0
  0
VERTEX
  5
25E6
  8
0
 10
81.4587215718565432
 20
107.2762498808647962
 30
0.0
  0
VERTEX
  5
25E7
  8
0
 10
81.4762372590087978
 20
107.3026092751462954
 30
0.0
  0
VERTEX
  5
25E8
  8
0
 10
81.4940860785040684
 20
107.328716273159003
 30
0.0
  0
VERTEX
  5
25E9
  8
0
 10
81.5122538857816039
 20
107.3545674906802958
 30
0.0
  0
VERTEX
  5
25EA
  8
0
 10
81.5307265362805822
 20
107.380159543487494
 30
0.0
  0
VERTEX
  5
25EB
  8
0
 10
81.5494898854402379
 20
107.4054890473580031
 30
0.0
  0
VERTEX
  5
25EC
  8
0
 10
81.5685297886997489
 20
107.4305526180692993
 30
0.0
  0
VERTEX
  5
25ED
  8
0
 10
81.5878321014983783
 20
107.4553468713986035
 30
0.0
  0
VERTEX
  5
25EE
  8
0
 10
81.6073826792753039
 20
107.4798684231234063
 30
0.0
  0
VERTEX
  5
25EF
  8
0
 10
81.6271673774697462
 20
107.5041138890210988
 30
0.0
  0
VERTEX
  5
25F0
  8
0
 10
81.6471720515208972
 20
107.5280798848689017
 30
0.0
  0
VERTEX
  5
25F1
  8
0
 10
81.6673825568680058
 20
107.5517630264444051
 30
0.0
  0
VERTEX
  5
25F2
  8
0
 10
81.6877847489502358
 20
107.5751599295249008
 30
0.0
  0
VERTEX
  5
25F3
  8
0
 10
81.7083644832068501
 20
107.5982672098877941
 30
0.0
  0
VERTEX
  5
25F4
  8
0
 10
81.7291076150770266
 20
107.6210814833104052
 30
0.0
  0
VERTEX
  5
25F5
  8
0
 10
81.7499999999999716
 20
107.6435993655700969
 30
0.0
  0
SEQEND
  5
25F6
  8
0
  0
POLYLINE
  5
1D45
  8
0
 66
     1
 10
0.0
 20
0.0
 30
0.0
  0
VERTEX
  5
25F7
  8
0
 10
81.7499999999999716
 20
109.2256867128357953
 30
0.0
  0
VERTEX
  5
25F8
  8
0
 10
81.7292168786892574
 20
109.2186065765636016
 30
0.0
  0
VERTEX
  5
25F9
  8
0
 10
81.708640366989215
 20
109.2119710398328039
 30
0.0
  0
VERTEX
  5
25FA
  8
0
 10
81.6882745682349594
 20
109.2057866155515029
 30
0.0
  0
VERTEX
  5
25FB
  8
0
 10
81.6681235857616059
 20
109.2000598166275012
 30
0.0
  0
VERTEX
  5
25FC
  8
0
 10
81.6481915229043267
 20
109.1947971559688995
 30
0.0
  0
VERTEX
  5
25FD
  8
0
 10
81.6284824829981375
 20
109.1900051464835002
 30
0.0
  0
VERTEX
  5
25FE
  8
0
 10
81.6090005693782814
 20
109.1856903010793047
 30
0.0
  0
VERTEX
  5
25FF
  8
0
 10
81.5897498853798169
 20
109.1818591326643002
 30
0.0
  0
VERTEX
  5
2600
  8
0
 10
81.5707345343379018
 20
109.1785181541463032
 30
0.0
  0
VERTEX
  5
2601
  8
0
 10
81.5519586195876371
 20
109.1756738784334004
 30
0.0
  0
VERTEX
  5
2602
  8
0
 10
81.5334203065602026
 20
109.1733331608737956
 30
0.0
  0
VERTEX
  5
2603
  8
0
 10
81.5151085196227143
 20
109.1715085623993957
 30
0.0
  0
VERTEX
  5
2604
  8
0
 10
81.4970410844153434
 20
109.1702172823217012
 30
0.0
  0
VERTEX
  5
2605
  8
0
 10
81.479238344862523
 20
109.1694766501884999
 30
0.0
  0
VERTEX
  5
2606
  8
0
 10
81.4617206448886009
 20
109.1693039955478071
 30
0.0
  0
VERTEX
  5
2607
  8
0
 10
81.44450832841801
 20
109.1697166479472969
 30
0.0
  0
VERTEX
  5
2608
  8
0
 10
81.4276217393751551
 20
109.1707319369349989
 30
0.0
  0
VERTEX
  5
2609
  8
0
 10
81.4110812216844124
 20
109.1723671920587009
 30
0.0
  0
VERTEX
  5
260A
  8
0
 10
81.3949071192702149
 20
109.1746397428664039
 30
0.0
  0
VERTEX
  5
260B
  8
0
 10
81.3791197760569389
 20
109.1775669189059954
 30
0.0
  0
VERTEX
  5
260C
  8
0
 10
81.3637409821980953
 20
109.1811658372593001
 30
0.0
  0
VERTEX
  5
260D
  8
0
 10
81.3488241765316786
 20
109.1854483794539021
 30
0.0
  0
VERTEX
  5
260E
  8
0
 10
81.3344071660450538
 20
109.1904272701294047
 30
0.0
  0
VERTEX
  5
260F
  8
0
 10
81.3205152016984982
 20
109.1961168675629068
 30
0.0
  0
VERTEX
  5
2610
  8
0
 10
81.307173534452204
 20
109.202531530031294
 30
0.0
  0
VERTEX
  5
2611
  8
0
 10
81.2944074152664058
 20
109.2096856158115941
 30
0.0
  0
VERTEX
  5
2612
  8
0
 10
81.2822420951013953
 20
109.2175934831808064
 30
0.0
  0
VERTEX
  5
2613
  8
0
 10
81.2707028249174073
 20
109.2262694904160014
 30
0.0
  0
VERTEX
  5
2614
  8
0
 10
81.2598148556746338
 20
109.2357279957938943
 30
0.0
  0
VERTEX
  5
2615
  8
0
 10
81.2496034383333665
 20
109.2459833575917969
 30
0.0
  0
VERTEX
  5
2616
  8
0
 10
81.2400938238538401
 20
109.257049934086595
 30
0.0
  0
VERTEX
  5
2617
  8
0
 10
81.2313306125891472
 20
109.2689189751747989
 30
0.0
  0
VERTEX
  5
2618
  8
0
 10
81.2233640760757538
 20
109.2815599471207975
 30
0.0
  0
VERTEX
  5
2619
  8
0
 10
81.2162100204666331
 20
109.2949729362705966
 30
0.0
  0
VERTEX
  5
261A
  8
0
 10
81.2098838313382458
 20
109.3091584645379015
 30
0.0
  0
VERTEX
  5
261B
  8
0
 10
81.2044008942670246
 20
109.3241170538362041
 30
0.0
  0
VERTEX
  5
261C
  8
0
 10
81.1997765948293591
 20
109.3398492260789965
 30
0.0
  0
VERTEX
  5
261D
  8
0
 10
81.1960263186016391
 20
109.3563555031800973
 30
0.0
  0
VERTEX
  5
261E
  8
0
 10
81.1931654511603256
 20
109.3736364070527998
 30
0.0
  0
VERTEX
  5
261F
  8
0
 10
81.1912093780817656
 20
109.3916924596108942
 30
0.0
  0
VERTEX
  5
2620
  8
0
 10
81.1901734849424344
 20
109.4105241827679009
 30
0.0
  0
VERTEX
  5
2621
  8
0
 10
81.1900745255045138
 20
109.430114098364399
 30
0.0
  0
VERTEX
  5
2622
  8
0
 10
81.1909238527984485
 20
109.4503430155646981
 30
0.0
  0
VERTEX
  5
2623
  8
0
 10
81.1927069363430292
 20
109.4711635247459043
 30
0.0
  0
VERTEX
  5
2624
  8
0
 10
81.1954065172867274
 20
109.4925449149901056
 30
0.0
  0
VERTEX
  5
2625
  8
0
 10
81.1990053367780433
 20
109.5144564753792054
 30
0.0
  0
VERTEX
  5
2626
  8
0
 10
81.2034861359654769
 20
109.5368674949953061
 30
0.0
  0
VERTEX
  5
2627
  8
0
 10
81.2088316559974857
 20
109.5597472629203963
 30
0.0
  0
VERTEX
  5
2628
  8
0
 10
81.2150246380225838
 20
109.583065068236607
 30
0.0
  0
VERTEX
  5
2629
  8
0
 10
81.2220478231892571
 20
109.6067902000257988
 30
0.0
  0
VERTEX
  5
262A
  8
0
 10
81.2298839526459631
 20
109.6308919473701025
 30
0.0
  0
VERTEX
  5
262B
  8
0
 10
81.2385156635062344
 20
109.6553394408229991
 30
0.0
  0
VERTEX
  5
262C
  8
0
 10
81.2479142464872552
 20
109.6800889248122957
 30
0.0
  0
VERTEX
  5
262D
  8
0
 10
81.2580435492172342
 20
109.7050991105356985
 30
0.0
  0
VERTEX
  5
262E
  8
0
 10
81.2688704991446969
 20
109.7303360660753953
 30
0.0
  0
VERTEX
  5
262F
  8
0
 10
81.2803620237181548
 20
109.755765859513204
 30
0.0
  0
VERTEX
  5
2630
  8
0
 10
81.2924850503861762
 20
109.781354558931497
 30
0.0
  0
VERTEX
  5
2631
  8
0
 10
81.3052065065972442
 20
109.807068232412206
 30
0.0
  0
VERTEX
  5
2632
  8
0
 10
81.3184933197999129
 20
109.8328729480375046
 30
0.0
  0
VERTEX
  5
2633
  8
0
 10
81.3323124174427221
 20
109.8587347738893953
 30
0.0
  0
VERTEX
  5
2634
  8
0
 10
81.3466307269741549
 20
109.8846197780500944
 30
0.0
  0
VERTEX
  5
2635
  8
0
 10
81.3614151758427653
 20
109.9104940286016046
 30
0.0
  0
VERTEX
  5
2636
  8
0
 10
81.3766350939790755
 20
109.9363382815666057
 30
0.0
  0
VERTEX
  5
2637
  8
0
 10
81.3922729427709442
 20
109.962168174458796
 30
0.0
  0
VERTEX
  5
2638
  8
0
 10
81.4083146475184378
 20
109.9879779018394004
 30
0.0
  0
VERTEX
  5
2639
  8
0
 10
81.4247460637466673
 20
110.0137603051658033
 30
0.0
  0
VERTEX
  5
263A
  8
0
 10
81.4415530469807436
 20
110.0395082258952044
 30
0.0
  0
VERTEX
  5
263B
  8
0
 10
81.458721452745749
 20
110.0652145054849029
 30
0.0
  0
VERTEX
  5
263C
  8
0
 10
81.4762371365667946
 20
110.090871985392198
 30
0.0
  0
VERTEX
  5
263D
  8
0
 10
81.4940859539689768
 20
110.1164735070743035
 30
0.0
  0
VERTEX
  5
263E
  8
0
 10
81.5122537604773783
 20
110.1420119119886039
 30
0.0
  0
VERTEX
  5
263F
  8
0
 10
81.530726411617124
 20
110.1674800415922988
 30
0.0
  0
VERTEX
  5
2640
  8
0
 10
81.5494897629133106
 20
110.1928707373426022
 30
0.0
  0
VERTEX
  5
2641
  8
0
 10
81.5685296698909639
 20
110.2181768406968985
 30
0.0
  0
VERTEX
  5
2642
  8
0
 10
81.587831988075294
 20
110.243391193112501
 30
0.0
  0
VERTEX
  5
2643
  8
0
 10
81.6073825729913267
 20
110.2685066360464958
 30
0.0
  0
VERTEX
  5
2644
  8
0
 10
81.627167280164187
 20
110.2935160109563952
 30
0.0
  0
VERTEX
  5
2645
  8
0
 10
81.6471719651189574
 20
110.3184121592992
 30
0.0
  0
VERTEX
  5
2646
  8
0
 10
81.6673824833807487
 20
110.3431879225323939
 30
0.0
  0
VERTEX
  5
2647
  8
0
 10
81.6877846904746434
 20
110.3678361421132053
 30
0.0
  0
VERTEX
  5
2648
  8
0
 10
81.708364441925724
 20
110.3923496594989047
 30
0.0
  0
VERTEX
  5
2649
  8
0
 10
81.729107593259144
 20
110.416721316146706
 30
0.0
  0
VERTEX
  5
264A
  8
0
 10
81.7499999999999716
 20
110.4409439535139938
 30
0.0
  0
SEQEND
  5
264B
  8
0
  0
POLYLINE
  5
1D46
  8
0
 66
     1
 10
0.0
 20
0.0
 30
0.0
  0
VERTEX
  5
264C
  8
0
 10
81.7499999999999716
 20
111.4644125910891006
 30
0.0
  0
VERTEX
  5
264D
  8
0
 10
81.7292169663050458
 20
111.4502267685596024
 30
0.0
  0
VERTEX
  5
264E
  8
0
 10
81.7086405289806237
 20
111.4363969368233001
 30
0.0
  0
VERTEX
  5
264F
  8
0
 10
81.688274791561895
 20
111.4229280522877019
 30
0.0
  0
VERTEX
  5
2650
  8
0
 10
81.6681238575839643
 20
111.4098250713604017
 30
0.0
  0
VERTEX
  5
2651
  8
0
 10
81.6481918305820358
 20
111.3970929504488936
 30
0.0
  0
VERTEX
  5
2652
  8
0
 10
81.628482814091285
 20
111.3847366459607002
 30
0.0
  0
VERTEX
  5
2653
  8
0
 10
81.6090009116468167
 20
111.3727611143035006
 30
0.0
  0
VERTEX
  5
2654
  8
0
 10
81.5897502267838775
 20
111.3611713118849025
 30
0.0
  0
VERTEX
  5
2655
  8
0
 10
81.5707348630375861
 20
111.3499721951122012
 30
0.0
  0
VERTEX
  5
2656
  8
0
 10
81.5519589239430758
 20
111.3391687203933031
 30
0.0
  0
VERTEX
  5
2657
  8
0
 10
81.5334205704449744
 20
111.3287631477239046
 30
0.0
  0
VERTEX
  5
2658
  8
0
 10
81.5151087135681962
 20
111.3187562562573021
 30
0.0
  0
VERTEX
  5
2659
  8
0
 10
81.4970411865179472
 20
111.3091652593248
 30
0.0
  0
VERTEX
  5
265A
  8
0
 10
81.4792383426880349
 20
111.3000086584295047
 30
0.0
  0
VERTEX
  5
265B
  8
0
 10
81.4617205354723239
 20
111.2913049550742954
 30
0.0
  0
VERTEX
  5
265C
  8
0
 10
81.4445081182645936
 20
111.2830726507621932
 30
0.0
  0
VERTEX
  5
265D
  8
0
 10
81.4276214444587367
 20
111.2753302469959067
 30
0.0
  0
VERTEX
  5
265E
  8
0
 10
81.4110808674485469
 20
111.2680962452784996
 30
0.0
  0
VERTEX
  5
265F
  8
0
 10
81.3949067406278886
 20
111.2613891471128937
 30
0.0
  0
VERTEX
  5
2660
  8
0
 10
81.3791194173905978
 20
111.2552274540019965
 30
0.0
  0
VERTEX
  5
2661
  8
0
 10
81.3637406941791141
 20
111.2496302502881065
 30
0.0
  0
VERTEX
  5
2662
  8
0
 10
81.3488239488655154
 20
111.2446289740079948
 30
0.0
  0
VERTEX
  5
2663
  8
0
 10
81.3344069676621189
 20
111.2402477691715035
 30
0.0
  0
VERTEX
  5
2664
  8
0
 10
81.3205150092104248
 20
111.236505575297997
 30
0.0
  0
VERTEX
  5
2665
  8
0
 10
81.3071733321520043
 20
111.2334213319065981
 30
0.0
  0
VERTEX
  5
2666
  8
0
 10
81.2944071951283718
 20
111.2310139785166001
 30
0.0
  0
VERTEX
  5
2667
  8
0
 10
81.2822418567811269
 20
111.2293024546473958
 30
0.0
  0
VERTEX
  5
2668
  8
0
 10
81.2707025757518267
 20
111.2283056998181934
 30
0.0
  0
VERTEX
  5
2669
  8
0
 10
81.2598146106819144
 20
111.2280426535481013
 30
0.0
  0
VERTEX
  5
266A
  8
0
 10
81.2496032202130749
 20
111.2285322553565976
 30
0.0
  0
VERTEX
  5
266B
  8
0
 10
81.2400936629867658
 20
111.2297934447629046
 30
0.0
  0
VERTEX
  5
266C
  8
0
 10
81.2313305221063757
 20
111.231842067752396
 30
0.0
  0
VERTEX
  5
266D
  8
0
 10
81.2233640346862131
 20
111.2346852527670933
 30
0.0
  0
VERTEX
  5
266E
  8
0
 10
81.2162100099373561
 20
111.2383301535391951
 30
0.0
  0
VERTEX
  5
266F
  8
0
 10
81.2098838369922191
 20
111.2427839563267042
 30
0.0
  0
VERTEX
  5
2670
  8
0
 10
81.2044009049832454
 20
111.2480538473875953
 30
0.0
  0
VERTEX
  5
2671
  8
0
 10
81.1997766030429489
 20
111.254147012979999
 30
0.0
  0
VERTEX
  5
2672
  8
0
 10
81.19602632030373
 20
111.261070639361904
 30
0.0
  0
VERTEX
  5
2673
  8
0
 10
81.1931654458980461
 20
111.2688319127911996
 30
0.0
  0
VERTEX
  5
2674
  8
0
 10
81.1912093689583401
 20
111.2774380195260022
 30
0.0
  0
VERTEX
  5
2675
  8
0
 10
81.1901734786170834
 20
111.2868961458244002
 30
0.0
  0
VERTEX
  5
2676
  8
0
 10
81.1900745306997464
 20
111.2972046437956948
 30
0.0
  0
VERTEX
  5
2677
  8
0
 10
81.1909238712634362
 20
111.3083059749784951
 30
0.0
  0
VERTEX
  5
2678
  8
0
 10
81.1927069678707767
 20
111.3201685408131993
 30
0.0
  0
VERTEX
  5
2679
  8
0
 10
81.1954065610320868
 20
111.332768274685904
 30
0.0
  0
VERTEX
  5
267A
  8
0
 10
81.1990053912577139
 20
111.3460811099827055
 30
0.0
  0
VERTEX
  5
267B
  8
0
 10
81.2034861990579486
 20
111.3600829800897998
 30
0.0
  0
VERTEX
  5
267C
  8
0
 10
81.2088317249431384
 20
111.3747498183932976
 30
0.0
  0
VERTEX
  5
267D
  8
0
 10
81.2150247094236306
 20
111.3900575582791959
 30
0.0
  0
VERTEX
  5
267E
  8
0
 10
81.2220478930097158
 20
111.4059821331337048
 30
0.0
  0
VERTEX
  5
267F
  8
0
 10
81.2298840162117557
 20
111.4224994763427929
 30
0.0
  0
VERTEX
  5
2680
  8
0
 10
81.238515715612877
 20
111.4395853937494962
 30
0.0
  0
VERTEX
  5
2681
  8
0
 10
81.2479142894810451
 20
111.4572039671788986
 30
0.0
  0
VERTEX
  5
2682
  8
0
 10
81.2580435891881336
 20
111.4753170092019019
 30
0.0
  0
VERTEX
  5
2683
  8
0
 10
81.2688705405136602
 20
111.4938914307012965
 30
0.0
  0
VERTEX
  5
2684
  8
0
 10
81.2803620692373272
 20
111.5128941425601994
 30
0.0
  0
VERTEX
  5
2685
  8
0
 10
81.2924851011386806
 20
111.5322920556613013
 30
0.0
  0
VERTEX
  5
2686
  8
0
 10
81.3052065619973803
 20
111.5520520808878047
 30
0.0
  0
VERTEX
  5
2687
  8
0
 10
81.318493377593029
 20
111.5721411291225991
 30
0.0
  0
VERTEX
  5
2688
  8
0
 10
81.3323124737052581
 20
111.5925261112485032
 30
0.0
  0
VERTEX
  5
2689
  8
0
 10
81.3466307761136704
 20
111.6131739381485062
 30
0.0
  0
VERTEX
  5
268A
  8
0
 10
81.3614152105978832
 20
111.6340515207054978
 30
0.0
  0
VERTEX
  5
268B
  8
0
 10
81.3766351094513141
 20
111.6551348956469951
 30
0.0
  0
VERTEX
  5
268C
  8
0
 10
81.3922729428936691
 20
111.6764249860830063
 30
0.0
  0
VERTEX
  5
268D
  8
0
 10
81.4083146362550139
 20
111.6979124094847009
 30
0.0
  0
VERTEX
  5
268E
  8
0
 10
81.4247460446556204
 20
111.719587008210496
 30
0.0
  0
VERTEX
  5
268F
  8
0
 10
81.4415530232157039
 20
111.7414386246182971
 30
0.0
  0
VERTEX
  5
2690
  8
0
 10
81.4587214270555648
 20
111.7634571010663933
 30
0.0
  0
VERTEX
  5
2691
  8
0
 10
81.4762371112954469
 20
111.7856322799129032
 30
0.0
  0
VERTEX
  5
2692
  8
0
 10
81.4940859310555936
 20
111.8079540035159027
 30
0.0
  0
VERTEX
  5
2693
  8
0
 10
81.5122537414562771
 20
111.8304121142335958
 30
0.0
  0
VERTEX
  5
2694
  8
0
 10
81.5307263976177694
 20
111.8529964544242006
 30
0.0
  0
VERTEX
  5
2695
  8
0
 10
81.5494897546602999
 20
111.8756968664456934
 30
0.0
  0
VERTEX
  5
2696
  8
0
 10
81.5685296677041265
 20
111.8985031926563067
 30
0.0
  0
VERTEX
  5
2697
  8
0
 10
81.5878319918695354
 20
111.9214052754142017
 30
0.0
  0
VERTEX
  5
2698
  8
0
 10
81.607382582276756
 20
111.9443929570775964
 30
0.0
  0
VERTEX
  5
2699
  8
0
 10
81.6271672940460462
 20
111.9674560800044958
 30
0.0
  0
VERTEX
  5
269A
  8
0
 10
81.6471719822976922
 20
111.9905844865531037
 30
0.0
  0
VERTEX
  5
269B
  8
0
 10
81.6673825021519235
 20
112.0137680190815956
 30
0.0
  0
VERTEX
  5
269C
  8
0
 10
81.6877847087290263
 20
112.0369965199480049
 30
0.0
  0
VERTEX
  5
269D
  8
0
 10
81.7083644571492442
 20
112.0602598315107059
 30
0.0
  0
VERTEX
  5
269E
  8
0
 10
81.7291076025327783
 20
112.0835477961276041
 30
0.0
  0
VERTEX
  5
269F
  8
0
 10
81.7499999999999716
 20
112.1068502561570028
 30
0.0
  0
SEQEND
  5
26A0
  8
0
  0
POLYLINE
  5
1D47
  8
0
 66
     1
 10
0.0
 20
0.0
 30
0.0
  0
VERTEX
  5
26A1
  8
0
 10
81.7499999999999716
 20
112.460791476408005
 30
0.0
  0
VERTEX
  5
26A2
  8
0
 10
81.7258729136105444
 20
112.4379472021392985
 30
0.0
  0
VERTEX
  5
26A3
  8
0
 10
81.7017904441240432
 20
112.4151513476274999
 30
0.0
  0
VERTEX
  5
26A4
  8
0
 10
81.6777972084433657
 20
112.392452332629702
 30
0.0
  0
VERTEX
  5
26A5
  8
0
 10
81.6539378234714661
 20
112.3698985769029974
 30
0.0
  0
VERTEX
  5
26A6
  8
0
 10
81.6302569061112422
 20
112.3475385002040952
 30
0.0
  0
VERTEX
  5
26A7
  8
0
 10
81.6067990732656199
 20
112.3254205222903011
 30
0.0
  0
VERTEX
  5
26A8
  8
0
 10
81.5836089418375252
 20
112.3035930629183952
 30
0.0
  0
VERTEX
  5
26A9
  8
0
 10
81.5607311287298842
 20
112.2821045418454986
 30
0.0
  0
VERTEX
  5
26AA
  8
0
 10
81.5382093001461641
 20
112.2610006396117939
 30
0.0
  0
VERTEX
  5
26AB
  8
0
 10
81.5160832222693443
 20
112.2403157997664067
 30
0.0
  0
VERTEX
  5
26AC
  8
0
 10
81.4943916613533759
 20
112.2200815847985069
 30
0.0
  0
VERTEX
  5
26AD
  8
0
 10
81.4731733836516838
 20
112.2003295571954027
 30
0.0
  0
VERTEX
  5
26AE
  8
0
 10
81.4524671554175654
 20
112.1810912794445017
 30
0.0
  0
VERTEX
  5
26AF
  8
0
 10
81.4323117429044743
 20
112.1623983140329983
 30
0.0
  0
VERTEX
  5
26B0
  8
0
 10
81.4127459123657786
 20
112.1442822234483998
 30
0.0
  0
VERTEX
  5
26B1
  8
0
 10
81.393808430054861
 20
112.1267745701780996
 30
0.0
  0
VERTEX
  5
26B2
  8
0
 10
81.3755351848339075
 20
112.1099044000979035
 30
0.0
  0
VERTEX
  5
26B3
  8
0
 10
81.3579327583331349
 20
112.0936751265184057
 30
0.0
  0
VERTEX
  5
26B4
  8
0
 10
81.3409906218421952
 20
112.078075197777693
 30
0.0
  0
VERTEX
  5
26B5
  8
0
 10
81.3246980323544051
 20
112.0630928747871025
 30
0.0
  0
VERTEX
  5
26B6
  8
0
 10
81.309044246863067
 20
112.0487164184575022
 30
0.0
  0
VERTEX
  5
26B7
  8
0
 10
81.2940185223614691
 20
112.0349340897003003
 30
0.0
  0
VERTEX
  5
26B8
  8
0
 10
81.2796101158429565
 20
112.0217341494265071
 30
0.0
  0
VERTEX
  5
26B9
  8
0
 10
81.2658082843008458
 20
112.0091048585474027
 30
0.0
  0
VERTEX
  5
26BA
  8
0
 10
81.2526022847283969
 20
111.9970344779740969
 30
0.0
  0
VERTEX
  5
26BB
  8
0
 10
81.2400037862591233
 20
111.9855316502267044
 30
0.0
  0
VERTEX
  5
26BC
  8
0
 10
81.2281965131755896
 20
111.9747614848434978
 30
0.0
  0
VERTEX
  5
26BD
  8
0
 10
81.2174438893110278
 20
111.964961570165201
 30
0.0
  0
VERTEX
  5
26BE
  8
0
 10
81.2080097732560944
 20
111.9563698899007989
 30
0.0
  0
VERTEX
  5
26BF
  8
0
 10
81.2001580236013467
 20
111.949224427759205
 30
0.0
  0
VERTEX
  5
26C0
  8
0
 10
81.1941524989374841
 20
111.9437631674496032
 30
0.0
  0
VERTEX
  5
26C1
  8
0
 10
81.1902570578550637
 20
111.9402240926807934
 30
0.0
  0
VERTEX
  5
26C2
  8
0
 10
81.188735558944785
 20
111.9388451871619026
 30
0.0
  0
VERTEX
  5
26C3
  8
0
 10
81.1898518607972051
 20
111.9398644346018017
 30
0.0
  0
VERTEX
  5
26C4
  8
0
 10
81.1935303729164275
 20
111.943211617159804
 30
0.0
  0
SEQEND
  5
26C5
  8
0
  0
POLYLINE
  5
1D48
  8
0
 66
     1
 10
0.0
 20
0.0
 30
0.0
  0
VERTEX
  5
26C6
  8
0
 10
81.7499999999999716
 20
97.9850944538432884
 30
0.0
  0
VERTEX
  5
26C7
  8
0
 10
81.7292171156137641
 20
98.0005314990810206
 30
0.0
  0
VERTEX
  5
26C8
  8
0
 10
81.7086408048816963
 20
98.0163780522837129
 30
0.0
  0
VERTEX
  5
26C9
  8
0
 10
81.6882751716831876
 20
98.0326407827403159
 30
0.0
  0
VERTEX
  5
26CA
  8
0
 10
81.6681243198977143
 20
98.0493263597396947
 30
0.0
  0
VERTEX
  5
26CB
  8
0
 10
81.6481923534047667
 20
98.0664414525708139
 30
0.0
  0
VERTEX
  5
26CC
  8
0
 10
81.6284833760837785
 20
98.0839927305225387
 30
0.0
  0
VERTEX
  5
26CD
  8
0
 10
81.6090014918142401
 20
98.1019868628838196
 30
0.0
  0
VERTEX
  5
26CE
  8
0
 10
81.5897508044756137
 20
98.1204305189435644
 30
0.0
  0
VERTEX
  5
26CF
  8
0
 10
81.5707354179473469
 20
98.1393303679906523
 30
0.0
  0
VERTEX
  5
26D0
  8
0
 10
81.5519594361089162
 20
98.1586930793140482
 30
0.0
  0
VERTEX
  5
26D1
  8
0
 10
81.5334210122069578
 20
98.1785333155685436
 30
0.0
  0
VERTEX
  5
26D2
  8
0
 10
81.5151090343771045
 20
98.1988866295337601
 30
0.0
  0
VERTEX
  5
26D3
  8
0
 10
81.4970413488176177
 20
98.2197599684836717
 30
0.0
  0
VERTEX
  5
26D4
  8
0
 10
81.4792383251837151
 20
98.2411573396894653
 30
0.0
  0
VERTEX
  5
26D5
  8
0
 10
81.4617203331306428
 20
98.2630827504223276
 30
0.0
  0
VERTEX
  5
26D6
  8
0
 10
81.4445077423135757
 20
98.2855402079534457
 30
0.0
  0
VERTEX
  5
26D7
  8
0
 10
81.4276209223877458
 20
98.3085337195540063
 30
0.0
  0
VERTEX
  5
26D8
  8
0
 10
81.4110802430083709
 20
98.3320672924951964
 30
0.0
  0
VERTEX
  5
26D9
  8
0
 10
81.3949060738306542
 20
98.356144934048217
 30
0.0
  0
VERTEX
  5
26DA
  8
0
 10
81.3791187845097852
 20
98.380770651484255
 30
0.0
  0
VERTEX
  5
26DB
  8
0
 10
81.3637401822883817
 20
98.4059463271355241
 30
0.0
  0
VERTEX
  5
26DC
  8
0
 10
81.3488235403545872
 20
98.4316266100982347
 30
0.0
  0
VERTEX
  5
26DD
  8
0
 10
81.3344066092553248
 20
98.4577873020699457
 30
0.0
  0
VERTEX
  5
26DE
  8
0
 10
81.3205146608309235
 20
98.484422389772277
 30
0.0
  0
VERTEX
  5
26DF
  8
0
 10
81.3071729669217262
 20
98.5115258599267918
 30
0.0
  0
VERTEX
  5
26E0
  8
0
 10
81.2944067993681756
 20
98.5390916992550814
 30
0.0
  0
VERTEX
  5
26E1
  8
0
 10
81.2822414300106146
 20
98.5671138944787515
 30
0.0
  0
VERTEX
  5
26E2
  8
0
 10
81.270702130689358
 20
98.595586432319422
 30
0.0
  0
VERTEX
  5
26E3
  8
0
 10
81.2598141732448482
 20
98.6245032994986133
 30
0.0
  0
VERTEX
  5
26E4
  8
0
 10
81.2496028295174142
 20
98.6538584827379879
 30
0.0
  0
VERTEX
  5
26E5
  8
0
 10
81.2400933713474132
 20
98.6836459687591088
 30
0.0
  0
VERTEX
  5
26E6
  8
0
 10
81.2313303522070669
 20
98.7137989718592621
 30
0.0
  0
VERTEX
  5
26E7
  8
0
 10
81.2233639500771005
 20
98.7442082791833542
 30
0.0
  0
VERTEX
  5
26E8
  8
0
 10
81.2162099794225298
 20
98.7748556411856242
 30
0.0
  0
VERTEX
  5
26E9
  8
0
 10
81.2098838354854422
 20
98.8057240198637032
 30
0.0
  0
VERTEX
  5
26EA
  8
0
 10
81.2044009135077687
 20
98.8367963772151654
 30
0.0
  0
VERTEX
  5
26EB
  8
0
 10
81.1997766087316108
 20
98.868055675237656
 30
0.0
  0
VERTEX
  5
26EC
  8
0
 10
81.196026316398914
 20
98.8994848759287351
 30
0.0
  0
VERTEX
  5
26ED
  8
0
 10
81.1931654317517939
 20
98.9310669412860335
 30
0.0
  0
VERTEX
  5
26EE
  8
0
 10
81.1912093500321816
 20
98.9627848333071398
 30
0.0
  0
VERTEX
  5
26EF
  8
0
 10
81.1901734664821504
 20
98.9946215139896708
 30
0.0
  0
VERTEX
  5
26F0
  8
0
 10
81.1900745404687854
 20
99.026529058378955
 30
0.0
  0
VERTEX
  5
26F1
  8
0
 10
81.1909239060447732
 20
99.0583003665389441
 30
0.0
  0
VERTEX
  5
26F2
  8
0
 10
81.1927070273975175
 20
99.0898753996187054
 30
0.0
  0
VERTEX
  5
26F3
  8
0
 10
81.1954066439293172
 20
99.1212244790284558
 30
0.0
  0
VERTEX
  5
26F4
  8
0
 10
81.1990054950423996
 20
99.1523179261783838
 30
0.0
  0
VERTEX
  5
26F5
  8
0
 10
81.203486320139092
 20
99.1831260624786921
 30
0.0
  0
VERTEX
  5
26F6
  8
0
 10
81.208831858621636
 20
99.2136192093396119
 30
0.0
  0
VERTEX
  5
26F7
  8
0
 10
81.2150248498923446
 20
99.2437676881713315
 30
0.0
  0
VERTEX
  5
26F8
  8
0
 10
81.2220480333535306
 20
99.2735418203840254
 30
0.0
  0
VERTEX
  5
26F9
  8
0
 10
81.2298841484074217
 20
99.3029119273879388
 30
0.0
  0
VERTEX
  5
26FA
  8
0
 10
81.2385158307144764
 20
99.3318481883103175
 30
0.0
  0
VERTEX
  5
26FB
  8
0
 10
81.2479143915199984
 20
99.3603127097722876
 30
0.0
  0
VERTEX
  5
26FC
  8
0
 10
81.2580436886295558
 20
99.3882807659979051
 30
0.0
  0
VERTEX
  5
26FD
  8
0
 10
81.2688706449485636
 20
99.415736347282035
 30
0.0
  0
VERTEX
  5
26FE
  8
0
 10
81.2803621833826639
 20
99.4426634439195141
 30
0.0
  0
VERTEX
  5
26FF
  8
0
 10
81.2924852268372433
 20
99.4690460462051931
 30
0.0
  0
VERTEX
  5
2700
  8
0
 10
81.3052066982178587
 20
99.4948681444339087
 30
0.0
  0
VERTEX
  5
2701
  8
0
 10
81.318493520430053
 20
99.520113728900526
 30
0.0
  0
VERTEX
  5
2702
  8
0
 10
81.3323126163792551
 20
99.5447667898998958
 30
0.0
  0
VERTEX
  5
2703
  8
0
 10
81.3466309089710364
 20
99.5688113177268264
 30
0.0
  0
VERTEX
  5
2704
  8
0
 10
81.3614153211109112
 20
99.5922313026762254
 30
0.0
  0
VERTEX
  5
2705
  8
0
 10
81.3766351892363531
 20
99.6150310920461237
 30
0.0
  0
VERTEX
  5
2706
  8
0
 10
81.3922729989053551
 20
99.6372550666865209
 30
0.0
  0
VERTEX
  5
2707
  8
0
 10
81.4083146754018117
 20
99.6589100860097545
 30
0.0
  0
VERTEX
  5
2708
  8
0
 10
81.424746073041689
 20
99.6800009644572356
 30
0.0
  0
VERTEX
  5
2709
  8
0
 10
81.4415530461409105
 20
99.7005325164703748
 30
0.0
  0
VERTEX
  5
270A
  8
0
 10
81.4587214490153997
 20
99.7205095564905264
 30
0.0
  0
VERTEX
  5
270B
  8
0
 10
81.4762371359811084
 20
99.7399368989591153
 30
0.0
  0
VERTEX
  5
270C
  8
0
 10
81.4940859613539601
 20
99.7588193583174956
 30
0.0
  0
VERTEX
  5
270D
  8
0
 10
81.5122537794498641
 20
99.7771617490070639
 30
0.0
  0
VERTEX
  5
270E
  8
0
 10
81.5307264445847863
 20
99.7949688854692027
 30
0.0
  0
VERTEX
  5
270F
  8
0
 10
81.5494898110746647
 20
99.8122455821453087
 30
0.0
  0
VERTEX
  5
2710
  8
0
 10
81.5685297332353656
 20
99.8289966534767501
 30
0.0
  0
VERTEX
  5
2711
  8
0
 10
81.5878320653829121
 20
99.8452269139049235
 30
0.0
  0
VERTEX
  5
2712
  8
0
 10
81.607382661833185
 20
99.8609411778712115
 30
0.0
  0
VERTEX
  5
2713
  8
0
 10
81.627167376902122
 20
99.8761442598170248
 30
0.0
  0
VERTEX
  5
2714
  8
0
 10
81.6471720649056465
 20
99.8908409741837033
 30
0.0
  0
VERTEX
  5
2715
  8
0
 10
81.6673825801597246
 20
99.9050361354126579
 30
0.0
  0
VERTEX
  5
2716
  8
0
 10
81.6877847769802656
 20
99.918734557945271
 30
0.0
  0
VERTEX
  5
2717
  8
0
 10
81.7083645096831788
 20
99.9319410562229251
 30
0.0
  0
VERTEX
  5
2718
  8
0
 10
81.7291076325844585
 20
99.944660444687031
 30
0.0
  0
VERTEX
  5
2719
  8
0
 10
81.7499999999999716
 20
99.956897537778957
 30
0.0
  0
SEQEND
  5
271A
  8
0
  0
ENDSEC
  0
EOF
