  0
SECTION
  2
HEADER
  9
$ACADVER
  1
AC1009
  9
$INSBASE
 10
0.0
 20
0.0
 30
0.0
  9
$EXTMIN
 10
0.0
 20
-2.960436562073669
 30
0.0
  9
$EXTMAX
 10
226.23995708201389
 20
180.7357722881583
 30
0.0
  9
$LIMMIN
 10
0.0
 20
0.0
  9
$LIMMAX
 10
187.5
 20
135.0
  9
$ORTHOMODE
 70
     1
  9
$REGENMODE
 70
     1
  9
$FILLMODE
 70
     1
  9
$QTEXTMODE
 70
     0
  9
$MIRRTEXT
 70
     0
  9
$DRAGMODE
 70
     2
  9
$LTSCALE
 40
5.0
  9
$OSMODE
 70
    55
  9
$ATTMODE
 70
     1
  9
$TEXTSIZE
 40
5.0
  9
$TRACEWID
 40
0.05
  9
$TEXTSTYLE
  7
STANDARD
  9
$CLAYER
  8
0
  9
$CELTYPE
  6
BYLAYER
  9
$CECOLOR
 62
   256
  9
$DIMSCALE
 40
0.5
  9
$DIMASZ
 40
3.0
  9
$DIMEXO
 40
2.0
  9
$DIMDLI
 40
0.38
  9
$DIMRND
 40
0.0
  9
$DIMDLE
 40
0.0
  9
$DIMEXE
 40
2.0
  9
$DIMTP
 40
0.0
  9
$DIMTM
 40
0.0
  9
$DIMTXT
 40
3.2000000000000002
  9
$DIMCEN
 40
0.09
  9
$DIMTSZ
 40
0.0
  9
$DIMTOL
 70
     0
  9
$DIMLIM
 70
     0
  9
$DIMTIH
 70
     0
  9
$DIMTOH
 70
     0
  9
$DIMSE1
 70
     0
  9
$DIMSE2
 70
     0
  9
$DIMTAD
 70
     1
  9
$DIMZIN
 70
     0
  9
$DIMBLK
  1

  9
$DIMASO
 70
     1
  9
$DIMSHO
 70
     0
  9
$DIMPOST
  1

  9
$DIMAPOST
  1

  9
$DIMALT
 70
     0
  9
$DIMALTD
 70
     2
  9
$DIMALTF
 40
25.399999999999999
  9
$DIMLFAC
 40
1.0
  9
$DIMTOFL
 70
     0
  9
$DIMTVP
 40
1.6000000000000001
  9
$DIMTIX
 70
     1
  9
$DIMSOXD
 70
     0
  9
$DIMSAH
 70
     0
  9
$DIMBLK1
  1

  9
$DIMBLK2
  1

  9
$DIMSTYLE
  2
STANDARD
  9
$DIMCLRD
 70
     0
  9
$DIMCLRE
 70
     0
  9
$DIMCLRT
 70
     0
  9
$DIMTFAC
 40
1.0
  9
$DIMGAP
 40
0.09
  9
$LUNITS
 70
     2
  9
$LUPREC
 70
     4
  9
$SKETCHINC
 40
0.1
  9
$FILLETRAD
 40
0.3
  9
$AUNITS
 70
     0
  9
$AUPREC
 70
     0
  9
$MENU
  1
E:\r13\win\SUPPORT\ACAD
  9
$ELEVATION
 40
0.0
  9
$PELEVATION
 40
0.0
  9
$THICKNESS
 40
0.0
  9
$LIMCHECK
 70
     0
  9
$BLIPMODE
 70
     0
  9
$CHAMFERA
 40
0.0
  9
$CHAMFERB
 40
0.0
  9
$SKPOLY
 70
     0
  9
$TDCREATE
 40
2449839.7835069438
  9
$TDUPDATE
 40
2456598.6781360069
  9
$TDINDWG
 40
0.0080875579
  9
$TDUSRTIMER
 40
0.0080875579
  9
$USRTIMER
 70
     1
  9
$ANGBASE
 50
0.0
  9
$ANGDIR
 70
     0
  9
$PDMODE
 70
     0
  9
$PDSIZE
 40
0.0
  9
$PLINEWID
 40
0.0
  9
$COORDS
 70
     1
  9
$SPLFRAME
 70
     0
  9
$SPLINETYPE
 70
     6
  9
$SPLINESEGS
 70
     8
  9
$ATTDIA
 70
     0
  9
$ATTREQ
 70
     1
  9
$HANDLING
 70
     1
  9
$HANDSEED
  5
B14
  9
$SURFTAB1
 70
     6
  9
$SURFTAB2
 70
     6
  9
$SURFTYPE
 70
     6
  9
$SURFU
 70
     6
  9
$SURFV
 70
     6
  9
$UCSNAME
  2

  9
$UCSORG
 10
0.0
 20
0.0
 30
0.0
  9
$UCSXDIR
 10
1.0
 20
0.0
 30
0.0
  9
$UCSYDIR
 10
0.0
 20
1.0
 30
0.0
  9
$PUCSNAME
  2

  9
$PUCSORG
 10
0.0
 20
0.0
 30
0.0
  9
$PUCSXDIR
 10
1.0
 20
0.0
 30
0.0
  9
$PUCSYDIR
 10
0.0
 20
1.0
 30
0.0
  9
$USERI1
 70
     0
  9
$USERI2
 70
     1
  9
$USERI3
 70
     1
  9
$USERI4
 70
     0
  9
$USERI5
 70
     0
  9
$USERR1
 40
0.0
  9
$USERR2
 40
0.0
  9
$USERR3
 40
0.0
  9
$USERR4
 40
0.0
  9
$USERR5
 40
0.0
  9
$WORLDVIEW
 70
     1
  9
$SHADEDGE
 70
     3
  9
$SHADEDIF
 70
    70
  9
$TILEMODE
 70
     1
  9
$MAXACTVP
 70
    16
  9
$PLIMCHECK
 70
     0
  9
$PEXTMIN
 10
1.0000000000000000E+020
 20
1.0000000000000000E+020
 30
1.0000000000000000E+020
  9
$PEXTMAX
 10
-1.0000000000000000E+020
 20
-1.0000000000000000E+020
 30
-1.0000000000000000E+020
  9
$PLIMMIN
 10
0.0
 20
0.0
  9
$PLIMMAX
 10
12.0
 20
9.0
  9
$UNITMODE
 70
     0
  9
$VISRETAIN
 70
     0
  9
$PLINEGEN
 70
     0
  9
$PSLTSCALE
 70
     0
  0
ENDSEC
  0
SECTION
  2
TABLES
  0
TABLE
  2
VPORT
 70
     1
  0
VPORT
  2
*ACTIVE
 70
     0
 10
0.0
 20
0.0
 11
1.0
 21
1.0
 12
113.1199790677629
 22
116.75042337399211
 13
0.0
 23
0.0
 14
5.0
 24
5.0
 15
5.0
 25
5.0
 16
0.0
 26
0.0
 36
1.0
 17
0.0
 27
0.0
 37
0.0
 40
241.55279239570419
 41
1.7807262569832401
 42
50.0
 43
0.0
 44
0.0
 50
0.0
 51
0.0
 71
     0
 72
   500
 73
     1
 74
     0
 75
     0
 76
     0
 77
     0
 78
     2
  0
ENDTAB
  0
TABLE
  2
LTYPE
 70
     4
  0
LTYPE
  2
CONTINUOUS
 70
     0
  3
Solid Line
 72
    65
 73
     0
 40
0.0
  0
LTYPE
  2
CENTER
 70
     0
  3
____ _ ____ _ ____ _ ____ _ ____ _ ____ _ ____
 72
    65
 73
     4
 40
2.0
 49
1.25
 49
-0.25
 49
0.25
 49
-0.25
  0
LTYPE
  2
HIDDEN
 70
     0
  3
_ _ _ _ _ _ _ _ _ _ _ _ _ _ _ _ _ _ _ _ _ _ _
 72
    65
 73
     2
 40
0.375
 49
0.25
 49
-0.125
  0
LTYPE
  2
PHANTOM2
 70
     0
  3
___ _ _ ___ _ _ ___ _ _ ___ _ _
 72
    65
 73
     6
 40
1.25
 49
0.625
 49
-0.125
 49
0.125
 49
-0.125
 49
0.125
 49
-0.125
  0
ENDTAB
  0
TABLE
  2
LAYER
 70
     4
  0
LAYER
  2
0
 70
     0
 62
     7
  6
CONTINUOUS
  0
LAYER
  2
1
 70
     0
 62
     1
  6
CENTER
  0
LAYER
  2
3
 70
     0
 62
     3
  6
CONTINUOUS
  0
LAYER
  2
2
 70
     0
 62
     2
  6
HIDDEN
  0
ENDTAB
  0
TABLE
  2
STYLE
 70
     2
  0
STYLE
  2
STANDARD
 70
     0
 40
0.0
 41
1.0
 50
0.0
 71
     0
 42
5.0
  3
TXT
  4
BIGFONT
  0
STYLE
  2
STANDARD1
 70
     0
 40
0.0
 41
1.0
 50
0.0
 71
     0
 42
3.0
  3
txt
  4

  0
ENDTAB
  0
TABLE
  2
VIEW
 70
     1
  0
VIEW
  2
ALL
 70
     0
 40
135.0
 10
110.4957983193277
 20
67.5
 41
0.0
 11
0.0
 21
0.0
 31
1.0
 12
0.0
 22
0.0
 32
0.0
 42
0.0
 43
0.0
 44
0.0
 50
0.0
 71
     0
  0
ENDTAB
  0
TABLE
  2
UCS
 70
     0
  0
ENDTAB
  0
TABLE
  2
APPID
 70
     3
  0
APPID
  2
ACAD
 70
     0
  0
APPID
  2
ACAD_MLEADERVER
 70
     0
  0
APPID
  2
ACAD_NAV_VCDISPLAY
 70
     0
  0
ENDTAB
  0
TABLE
  2
DIMSTYLE
 70
     1
  0
DIMSTYLE
  2
STANDARD
 70
     0
  3

  4

  5

  6

  7

 40
1.0
 41
0.18
 42
0.0625
 43
0.38
 44
0.18
 45
0.0
 46
0.0
 47
0.0
 48
0.0
140
0.18
141
0.09
142
0.0
143
25.399999999999999
144
1.0
145
0.0
146
1.0
147
0.09
 71
     0
 72
     0
 73
     1
 74
     1
 75
     0
 76
     0
 77
     0
 78
     0
170
     0
171
     2
172
     0
173
     0
174
     0
175
     0
176
     0
177
     0
178
     0
  0
ENDTAB
  0
ENDSEC
  0
SECTION
  2
BLOCKS
  0
BLOCK
  8
0
  2
$MODEL_SPACE
 70
     0
 10
0.0
 20
0.0
 30
0.0
  3
$MODEL_SPACE
  1

  0
ENDBLK
  5
4E5
  8
0
  0
BLOCK
 67
     1
  8
0
  2
$PAPER_SPACE
 70
     0
 10
0.0
 20
0.0
 30
0.0
  3
$PAPER_SPACE
  1

  0
ENDBLK
  5
4E3
 67
     1
  8
0
  0
ENDSEC
  0
SECTION
  2
ENTITIES
  0
LINE
  5
36
  8
1
 10
154.23995708201389
 20
109.7357722881584
 30
0.0
 11
92.239957082014399
 21
109.7357722881584
 31
0.0
  0
LINE
  5
37
  8
1
 10
62.239957082014399
 20
109.7357722881584
 30
0.0
 11
20.239957082014399
 21
109.7357722881584
 31
0.0
  0
LINE
  5
38
  8
1
 10
41.239957082014357
 20
88.735772288158387
 30
0.0
 11
41.239957082014428
 21
130.73577228815839
 31
0.0
  0
CIRCLE
  5
39
  8
0
 10
41.239957082014399
 20
109.7357722881584
 30
0.0
 40
16.0
  0
CIRCLE
  5
3A
  8
0
 10
41.239957082014399
 20
109.7357722881584
 30
0.0
 40
15.0
  0
CIRCLE
  5
3B
  8
0
 10
41.239957082014399
 20
109.7357722881584
 30
0.0
 40
13.5
  0
CIRCLE
  5
3C
  8
0
 10
41.239957082014399
 20
109.7357722881584
 30
0.0
 40
10.5
  0
ARC
  5
3D
  8
0
 10
41.239957082014357
 20
92.81077228815748
 30
0.0
 40
1.3
 50
46.928274776697869
 51
133.07172522330211
  0
ARC
  5
3E
  8
0
 10
46.470069711810652
 20
93.639140749862051
 30
0.0
 40
1.3
 50
64.928274776697975
 51
151.07172522330211
  0
ARC
  5
3F
  8
0
 10
51.188222477065032
 20
96.04315965836166
 30
0.0
 40
1.3
 50
82.928274776697876
 51
169.07172522330211
  0
ARC
  5
40
  8
0
 10
54.932569711811077
 20
99.787506893107732
 30
0.0
 40
1.3
 50
100.9282747766979
 51
187.07172522330211
  0
ARC
  5
41
  8
0
 10
57.336588620310721
 20
104.50565965836211
 30
0.0
 40
1.3
 50
118.9282747766979
 51
205.071725223302
  0
ARC
  5
42
  8
0
 10
58.164957082015292
 20
109.7357722881583
 30
0.0
 40
1.3
 50
136.928274776698
 51
223.07172522330211
  0
ARC
  5
43
  8
0
 10
57.336588620310692
 20
114.9658849179546
 30
0.0
 40
1.3
 50
154.92827477669789
 51
241.07172522330211
  0
ARC
  5
44
  8
0
 10
54.932569711811112
 20
119.684037683209
 30
0.0
 40
1.3
 50
172.928274776698
 51
259.07172522330211
  0
ARC
  5
45
  8
0
 10
51.188222477065032
 20
123.4283849179551
 30
0.0
 40
1.3
 50
190.92827477669789
 51
277.07172522330211
  0
ARC
  5
46
  8
0
 10
46.47006971181068
 20
125.83240382645469
 30
0.0
 40
1.3
 50
208.928274776698
 51
295.07172522330211
  0
ARC
  5
47
  8
0
 10
41.239957082014399
 20
126.66077228815919
 30
0.0
 40
1.3
 50
226.92827477669789
 51
313.07172522330211
  0
ARC
  5
48
  8
0
 10
36.009844452218147
 20
125.83240382645469
 30
0.0
 40
1.3
 50
244.928274776698
 51
331.07172522330211
  0
ARC
  5
49
  8
0
 10
31.291691686963759
 20
123.4283849179551
 30
0.0
 40
1.3
 50
262.92827477669789
 51
349.07172522330211
  0
ARC
  5
4A
  8
0
 10
27.547344452217711
 20
119.684037683209
 30
0.0
 40
1.3
 50
280.92827477669789
 51
7.0717252233020931
  0
ARC
  5
4B
  8
0
 10
25.14332554371811
 20
114.9658849179546
 30
0.0
 40
1.3
 50
298.928274776698
 51
25.071725223302089
  0
ARC
  5
4C
  8
0
 10
24.31495708201351
 20
109.7357722881584
 30
0.0
 40
1.3
 50
316.92827477669789
 51
43.071725223302089
  0
ARC
  5
4D
  8
0
 10
25.14332554371811
 20
104.50565965836211
 30
0.0
 40
1.3
 50
334.928274776698
 51
61.071725223302089
  0
ARC
  5
4E
  8
0
 10
27.547344452217661
 20
99.787506893107775
 30
0.0
 40
1.3
 50
352.92827477669789
 51
79.071725223302096
  0
ARC
  5
4F
  8
0
 10
31.291691686963759
 20
96.04315965836166
 30
0.0
 40
1.3
 50
10.928274776697981
 51
97.071725223302096
  0
ARC
  5
50
  8
0
 10
36.009844452218147
 20
93.639140749862051
 30
0.0
 40
1.3
 50
28.928274776697879
 51
115.0717252233021
  0
LINE
  5
51
  8
0
 10
110.2399570820144
 20
101.2357722881583
 30
0.0
 11
117.9399570820144
 21
101.2357722881583
 31
0.0
  0
LINE
  5
52
  8
0
 10
109.2399570820144
 20
93.735772288158387
 30
0.0
 11
110.2399570820144
 21
94.735772288158387
 31
0.0
  0
LINE
  5
53
  8
0
 10
117.9399570820144
 20
101.2357722881583
 30
0.0
 11
118.9399570820144
 21
102.2357722881584
 31
0.0
  0
LINE
  5
54
  8
0
 10
117.9399570820144
 20
118.2357722881583
 30
0.0
 11
118.9399570820144
 21
117.2357722881583
 31
0.0
  0
LINE
  5
55
  8
0
 10
109.2399570820144
 20
125.7357722881584
 30
0.0
 11
110.2399570820144
 21
124.7357722881584
 31
0.0
  0
LINE
  5
56
  8
0
 10
97.864957082024645
 20
125.3607722881685
 30
0.0
 11
97.239957082014456
 21
124.7357722881584
 31
0.0
  0
LINE
  5
57
  8
0
 10
118.9399570820144
 20
114.7357722881583
 30
0.0
 11
119.2399570820144
 21
114.7357722881583
 31
0.0
  0
LINE
  5
58
  8
0
 10
118.9399570820144
 20
117.2357722881583
 30
0.0
 11
118.9399570820144
 21
102.2357722881584
 31
0.0
  0
LINE
  5
59
  8
0
 10
110.2399570820144
 20
118.2357722881584
 30
0.0
 11
117.9399570820144
 21
118.2357722881583
 31
0.0
  0
LINE
  5
5A
  8
0
 10
110.2399570820144
 20
124.7357722881584
 30
0.0
 11
110.2399570820144
 21
94.735772288158387
 31
0.0
  0
LINE
  5
5B
  8
0
 10
108.3649570820143
 20
125.7357722881584
 30
0.0
 11
109.2399570820144
 21
125.7357722881584
 31
0.0
  0
LINE
  5
5C
  8
0
 10
117.9399570820145
 20
118.2357722881583
 30
0.0
 11
117.9399570820145
 21
101.2357722881584
 31
0.0
  0
LINE
  5
5D
  8
0
 10
109.2399570820144
 20
125.7357722881584
 30
0.0
 11
109.2399570820144
 21
93.735772288158387
 31
0.0
  0
LINE
  5
5F
  8
0
 10
119.2399570820144
 20
104.7357722881584
 30
0.0
 11
118.9399570820144
 21
104.7357722881583
 31
0.0
  0
LINE
  5
61
  8
2
 10
102.6399570820144
 20
120.2357722881583
 30
0.0
 11
102.6399570820144
 21
99.235772288158387
 31
0.0
  0
LINE
  5
62
  8
2
 10
102.6399570820144
 20
99.235772288158387
 30
0.0
 11
102.1399570820144
 21
99.235772288158387
 31
0.0
  0
LINE
  5
63
  8
2
 10
102.1399570820144
 20
99.235772288158387
 30
0.0
 11
102.1399570820144
 21
120.2357722881583
 31
0.0
  0
LINE
  5
64
  8
2
 10
97.239957082014413
 20
96.235772288158401
 30
0.0
 11
102.1399570820144
 21
99.235772288158387
 31
0.0
  0
LINE
  5
65
  8
0
 10
97.239957082014413
 20
94.735772288158358
 30
0.0
 11
97.239957082014456
 21
124.7357722881584
 31
0.0
  0
LINE
  5
66
  8
0
 10
119.2399570820144
 20
104.7357722881583
 30
0.0
 11
119.2399570820144
 21
114.7357722881584
 31
0.0
  0
LINE
  5
67
  8
0
 10
98.239957082014485
 20
110.6235596616345
 30
0.0
 11
107.9899570820144
 21
110.6235596616344
 31
0.0
  0
LINE
  5
68
  8
0
 10
98.239957082014485
 20
113.82809121366491
 30
0.0
 11
108.0242513784705
 21
113.82809121366491
 31
0.0
  0
LINE
  5
69
  8
0
 10
98.239957082014485
 20
115.516763146923
 30
0.0
 11
107.9899580356887
 21
115.516763146923
 31
0.0
  0
LINE
  5
6A
  8
0
 10
98.239957082014485
 20
118.4076128233565
 30
0.0
 11
108.02739836514721
 21
118.4076128233565
 31
0.0
  0
LINE
  5
6B
  8
0
 10
98.239957082014485
 20
119.8440829684239
 30
0.0
 11
107.989959214495
 21
119.8440829684239
 31
0.0
  0
LINE
  5
6C
  8
0
 10
98.239957082014485
 20
122.1382742611971
 30
0.0
 11
108.0404159548312
 21
122.1382742611971
 31
0.0
  0
LINE
  5
6D
  8
0
 10
98.239957082014485
 20
123.1819309117986
 30
0.0
 11
107.9899580356887
 21
123.1819309117986
 31
0.0
  0
LINE
  5
6E
  8
0
 10
98.239957082014485
 20
124.6548923926042
 30
0.0
 11
107.9899570820144
 21
124.6548923926042
 31
0.0
  0
LINE
  5
6F
  8
0
 10
98.239957082014485
 20
125.2035751641954
 30
0.0
 11
107.9899570820144
 21
125.2035751641954
 31
0.0
  0
LINE
  5
79
  8
2
 10
97.239957082014413
 20
123.2357722881583
 30
0.0
 11
102.1399570820144
 21
120.2357722881583
 31
0.0
  0
LINE
  5
7A
  8
2
 10
102.6399570820144
 20
120.2357722881583
 30
0.0
 11
102.1399570820144
 21
120.2357722881583
 31
0.0
  0
LINE
  5
82
  8
0
 10
98.239957082014485
 20
125.7111231005661
 30
0.0
 11
98.239957082014485
 21
125.2035751641954
 31
0.0
  0
LINE
  5
83
  8
0
 10
98.239957082014485
 20
125.7111231005661
 30
0.0
 11
107.9899570820144
 21
125.7111231005661
 31
0.0
  0
POLYLINE
  5
84
  8
0
 66
     1
 10
0.0
 20
0.0
 30
0.0
  0
VERTEX
  5
85
  8
0
 10
98.239957082014456
 20
119.8440829684239
 30
0.0
 42
0.2015894264067176
 50
90.0
  0
VERTEX
  5
86
  8
0
 10
98.118890061748004
 20
119.7932036575407
 30
0.0
 42
0.0977170379735125
 50
90.0
  0
VERTEX
  5
87
  8
0
 10
97.974792039069584
 20
119.5734009808119
 30
0.0
 42
0.0547927573384048
 70
     2
 50
247.9141022391737
  0
VERTEX
  5
88
  8
0
 10
97.89639100519716
 20
119.29658440078521
 30
0.0
 42
0.0416539519670256
 50
247.9141022391737
  0
VERTEX
  5
89
  8
0
 10
97.864957082014556
 20
118.91991685522881
 30
0.0
 42
0.0416539519669881
 50
90.0
  0
SEQEND
  5
8A
  8
0
  0
POLYLINE
  5
8B
  8
0
 66
     1
 10
0.0
 20
0.0
 30
0.0
  0
VERTEX
  5
8C
  8
0
 10
97.864957082014556
 20
118.91991685522881
 30
0.0
 42
0.0737304435607645
 50
90.0
  0
VERTEX
  5
8D
  8
0
 10
97.894965409451316
 20
118.71752286858801
 30
0.0
 42
0.0845717212532976
 50
90.0
  0
VERTEX
  5
8E
  8
0
 10
97.974792039069541
 20
118.5576632002627
 30
0.0
 42
0.1063921108588694
 70
     2
 50
306.20365064702992
  0
VERTEX
  5
8F
  8
0
 10
98.112069137641086
 20
118.4355667702778
 30
0.0
 42
0.1510088585334486
 50
306.20365064702992
  0
VERTEX
  5
90
  8
0
 10
98.239957082014485
 20
118.4076128233533
 30
0.0
 42
0.1294534172461018
 50
90.0
  0
SEQEND
  5
91
  8
0
  0
POLYLINE
  5
92
  8
0
 66
     1
 10
0.0
 20
0.0
 30
0.0
  0
VERTEX
  5
93
  8
0
 10
97.864957082014556
 20
114.5641628252672
 30
0.0
 42
0.0520405140106174
 50
90.0
  0
VERTEX
  5
94
  8
0
 10
97.895998926969483
 20
114.2667236324548
 30
0.0
 42
0.0658985238271168
 50
90.0
  0
VERTEX
  5
95
  8
0
 10
97.974792039069584
 20
114.0436815972643
 30
0.0
 42
0.1046205348859841
 70
     2
 50
296.99708196701908
  0
VERTEX
  5
96
  8
0
 10
98.120329188292317
 20
113.8635873775418
 30
0.0
 42
0.1996909920929194
 50
296.99708196701908
  0
VERTEX
  5
97
  8
0
 10
98.239957082014485
 20
113.82809121366491
 30
0.0
 42
0.172337143622725
 50
90.0
  0
SEQEND
  5
98
  8
0
  0
POLYLINE
  5
99
  8
0
 66
     1
 10
0.0
 20
0.0
 30
0.0
  0
VERTEX
  5
9A
  8
0
 10
98.239957082014485
 20
115.516763146923
 30
0.0
 42
0.2055316714992537
 50
90.0
  0
VERTEX
  5
9B
  8
0
 10
98.119760096503626
 20
115.46517533445341
 30
0.0
 42
0.0965313913509376
 50
90.0
  0
VERTEX
  5
9C
  8
0
 10
97.974792039069385
 20
115.2377529724705
 30
0.0
 42
0.0533986296957384
 70
     2
 50
248.5124580243924
  0
VERTEX
  5
9D
  8
0
 10
97.896432240679474
 20
114.95277059757829
 30
0.0
 42
0.0404311354471943
 50
248.5124580243924
  0
VERTEX
  5
9E
  8
0
 10
97.864957082014257
 20
114.5641628252672
 30
0.0
 42
0.0404311354471791
 50
90.0
  0
SEQEND
  5
9F
  8
0
  0
POLYLINE
  5
A0
  8
0
 66
     1
 10
0.0
 20
0.0
 30
0.0
  0
VERTEX
  5
A1
  8
0
 10
97.864957082014556
 20
109.7357722881584
 30
0.0
 42
0.0433295665536456
 50
90.0
  0
VERTEX
  5
A2
  8
0
 10
97.896332768340386
 20
109.3743934134957
 30
0.0
 42
0.0566743414169658
 50
90.0
  0
VERTEX
  5
A3
  8
0
 10
97.974792039069584
 20
109.1080118161216
 30
0.0
 42
0.0992025570697266
 70
     2
 50
292.89911996388048
  0
VERTEX
  5
A4
  8
0
 10
98.125204933017642
 20
108.8869335856961
 30
0.0
 42
0.2280338981645266
 50
292.89911996388048
  0
VERTEX
  5
A5
  8
0
 10
98.239957082014485
 20
108.84798491469969
 30
0.0
 42
0.1963710675046459
 50
90.0
  0
SEQEND
  5
A6
  8
0
  0
POLYLINE
  5
A7
  8
0
 66
     1
 10
0.0
 20
0.0
 30
0.0
  0
VERTEX
  5
A8
  8
0
 10
98.239957082014442
 20
110.6235596616345
 30
0.0
 42
0.1963710675046226
 50
90.0
  0
VERTEX
  5
A9
  8
0
 10
98.117735959894759
 20
110.5736330264466
 30
0.0
 42
0.0992025570696904
 50
90.0
  0
VERTEX
  5
AA
  8
0
 10
97.974792039069541
 20
110.3635327601951
 30
0.0
 42
0.0566743414169369
 70
     2
 50
247.10088003612381
  0
VERTEX
  5
AB
  8
0
 10
97.896332768340386
 20
110.09715116282111
 30
0.0
 42
0.0433295665536664
 50
247.10088003612381
  0
VERTEX
  5
AC
  8
0
 10
97.864957082014556
 20
109.7357722881584
 30
0.0
 42
0.0433295665536456
 50
90.0
  0
SEQEND
  5
AD
  8
0
  0
LINE
  5
AE
  8
0
 10
98.239957082014485
 20
118.4076128233565
 30
0.0
 11
98.239957082014456
 21
115.516763146923
 31
0.0
  0
LINE
  5
AF
  8
0
 10
98.239957082014456
 20
113.82809121366491
 30
0.0
 11
98.239957082014485
 21
110.6235596616345
 31
0.0
  0
POLYLINE
  5
B0
  8
0
 66
     1
 10
0.0
 20
0.0
 30
0.0
  0
VERTEX
  5
B1
  8
0
 10
97.864957082014556
 20
122.3766628252676
 30
0.0
 42
0.1453834159301123
 50
90.0
  0
VERTEX
  5
B2
  8
0
 10
97.890174211312114
 20
122.29176960900629
 30
0.0
 42
0.1071699662217274
 50
90.0
  0
VERTEX
  5
B3
  8
0
 10
97.974792039069584
 20
122.208096655056
 30
0.0
 42
0.077350332773411
 70
     2
 50
327.55576388790911
  0
VERTEX
  5
B4
  8
0
 10
98.103256594597624
 20
122.1519767968017
 30
0.0
 42
0.0789475685392101
 50
327.55576388790911
  0
VERTEX
  5
B5
  8
0
 10
98.239957082014485
 20
122.1382742611988
 30
0.0
 42
0.0644571111103437
 50
90.0
  0
SEQEND
  5
B6
  8
0
  0
POLYLINE
  5
B7
  8
0
 66
     1
 10
0.0
 20
0.0
 30
0.0
  0
VERTEX
  5
B8
  8
0
 10
98.239957082014485
 20
123.1819309117986
 30
0.0
 42
0.1837701506072527
 50
90.0
  0
VERTEX
  5
B9
  8
0
 10
98.114939918823183
 20
123.1343760691225
 30
0.0
 42
0.1023570990015804
 50
90.0
  0
VERTEX
  5
BA
  8
0
 10
97.974792039066173
 20
122.94607334992681
 30
0.0
 42
0.06139380527182
 70
     2
 50
245.0293849661897
  0
VERTEX
  5
BB
  8
0
 10
97.896172655572542
 20
122.7033038596241
 30
0.0
 42
0.0476740870733025
 50
245.0293849661897
  0
VERTEX
  5
BC
  8
0
 10
97.864957082009767
 20
122.3766628252676
 30
0.0
 42
0.0476740870732675
 50
90.0
  0
SEQEND
  5
BD
  8
0
  0
LINE
  5
BE
  8
0
 10
98.239957082014485
 20
122.1382742611971
 30
0.0
 11
98.239957082014485
 21
119.8440829684239
 31
0.0
  0
POLYLINE
  5
BF
  8
0
 66
     1
 10
0.0
 20
0.0
 30
0.0
  0
VERTEX
  5
C0
  8
0
 10
98.239957082014485
 20
125.2035751641954
 30
0.0
 42
0.1488470320745859
 50
90.0
  0
VERTEX
  5
C1
  8
0
 10
98.107179394228154
 20
125.1631524517519
 30
0.0
 42
0.1070939314374275
 50
90.0
  0
VERTEX
  5
C2
  8
0
 10
97.974792039069584
 20
125.02562940953609
 30
0.0
 42
0.0758177480846394
 70
     2
 50
238.31552115822251
  0
VERTEX
  5
C3
  8
0
 10
97.895526439667364
 20
124.8390090527098
 30
0.0
 42
0.0626584555913342
 50
238.31552115822251
  0
VERTEX
  5
C4
  8
0
 10
97.864957082014556
 20
124.596030355271
 30
0.0
 42
0.0626584555913199
 50
90.0
  0
SEQEND
  5
C5
  8
0
  0
POLYLINE
  5
C6
  8
0
 66
     1
 10
0.0
 20
0.0
 30
0.0
  0
VERTEX
  5
C7
  8
0
 10
97.864957082014556
 20
124.596030355271
 30
0.0
 42
0.0162328826952284
 50
90.0
  0
VERTEX
  5
C8
  8
0
 10
98.019894685410236
 20
124.6010618489842
 30
0.0
 42
0.0226962008047463
 50
90.0
  0
VERTEX
  5
C9
  8
0
 10
98.130122124959456
 20
124.6132706468514
 30
0.0
 42
0.0516790455059756
 70
     2
 50
8.9206691496988508
  0
VERTEX
  5
CA
  8
0
 10
98.232378138806794
 20
124.6403592479239
 30
0.0
 50
8.9206691496988508
  0
VERTEX
  5
CB
  8
0
 10
98.239957082014485
 20
124.6548923926042
 30
0.0
 50
90.0
  0
SEQEND
  5
CC
  8
0
  0
LINE
  5
CD
  8
0
 10
98.239957082014485
 20
124.6548923926042
 30
0.0
 11
98.239957082014485
 21
123.1819309117986
 31
0.0
  0
POLYLINE
  5
CE
  8
0
 66
     1
 10
0.0
 20
0.0
 30
0.0
  0
VERTEX
  5
CF
  8
0
 10
97.864957082014556
 20
125.3607722881585
 30
0.0
 42
0.092572595455409
 50
90.0
  0
VERTEX
  5
D0
  8
0
 10
98.009630234834034
 20
125.387789354416
 30
0.0
 42
0.0958395211622397
 50
90.0
  0
VERTEX
  5
D1
  8
0
 10
98.130122124959456
 20
125.46338766531839
 30
0.0
 42
0.1008530118927434
 70
     2
 50
43.053698806586652
  0
VERTEX
  5
D2
  8
0
 10
98.218619446572575
 20
125.5877851260022
 30
0.0
 42
0.1236287328816281
 50
43.053698806586652
  0
VERTEX
  5
D3
  8
0
 10
98.239957082009823
 20
125.7111231005661
 30
0.0
 42
0.1047089114758273
 50
90.0
  0
SEQEND
  5
D4
  8
0
  0
POLYLINE
  5
D5
  8
0
 66
     1
 10
0.0
 20
0.0
 30
0.0
  0
VERTEX
  5
D6
  8
0
 10
108.3649570820143
 20
124.596030355271
 30
0.0
 42
-0.0162328826952284
 50
90.0
  0
VERTEX
  5
D7
  8
0
 10
108.21001947861861
 20
124.6010618489842
 30
0.0
 42
-0.0226962008047463
 50
90.0
  0
VERTEX
  5
D8
  8
0
 10
108.0997920390694
 20
124.6132706468514
 30
0.0
 42
-0.0516790455059756
 70
     2
 50
171.07933085030109
  0
VERTEX
  5
D9
  8
0
 10
107.9975360252221
 20
124.6403592479239
 30
0.0
 50
90.0
  0
VERTEX
  5
DA
  8
0
 10
107.9899570820144
 20
124.6548923926042
 30
0.0
 50
90.0
  0
SEQEND
  5
DB
  8
0
  0
POLYLINE
  5
DC
  8
0
 66
     1
 10
0.0
 20
0.0
 30
0.0
  0
VERTEX
  5
DD
  8
0
 10
107.9899570820144
 20
125.2035751641954
 30
0.0
 42
-0.1488470320745859
 50
90.0
  0
VERTEX
  5
DE
  8
0
 10
108.1227347698007
 20
125.1631524517519
 30
0.0
 42
-0.1070939314374275
 50
90.0
  0
VERTEX
  5
DF
  8
0
 10
108.2551221249593
 20
125.02562940953609
 30
0.0
 42
-0.0758177480846394
 70
     2
 50
301.68447884177749
  0
VERTEX
  5
E0
  8
0
 10
108.33438772436151
 20
124.8390090527098
 30
0.0
 42
-0.0626584555913342
 50
90.0
  0
VERTEX
  5
E1
  8
0
 10
108.3649570820143
 20
124.596030355271
 30
0.0
 42
-0.0626584555913199
 50
90.0
  0
SEQEND
  5
E2
  8
0
  0
POLYLINE
  5
E3
  8
0
 66
     1
 10
0.0
 20
0.0
 30
0.0
  0
VERTEX
  5
E4
  8
0
 10
107.9899570820144
 20
123.1819309117986
 30
0.0
 42
-0.1837701506072527
 50
90.0
  0
VERTEX
  5
E5
  8
0
 10
108.1149742452057
 20
123.1343760691225
 30
0.0
 42
-0.1023570990015804
 50
90.0
  0
VERTEX
  5
E6
  8
0
 10
108.2551221249627
 20
122.94607334992681
 30
0.0
 42
-0.06139380527182
 70
     2
 50
294.9706150338103
  0
VERTEX
  5
E7
  8
0
 10
108.3337415084563
 20
122.7033038596241
 30
0.0
 42
-0.0476740870733025
 50
90.0
  0
VERTEX
  5
E8
  8
0
 10
108.3649570820191
 20
122.3766628252676
 30
0.0
 42
-0.0476740870732675
 50
90.0
  0
SEQEND
  5
E9
  8
0
  0
POLYLINE
  5
EA
  8
0
 66
     1
 10
0.0
 20
0.0
 30
0.0
  0
VERTEX
  5
EB
  8
0
 10
108.3649570820143
 20
122.3766628252676
 30
0.0
 42
-0.1453834159301123
 50
90.0
  0
VERTEX
  5
EC
  8
0
 10
108.3397399527167
 20
122.29176960900629
 30
0.0
 42
-0.1071699662217274
 50
90.0
  0
VERTEX
  5
ED
  8
0
 10
108.2551221249593
 20
122.208096655056
 30
0.0
 42
-0.077350332773411
 70
     2
 50
212.444236112091
  0
VERTEX
  5
EE
  8
0
 10
108.1266575694312
 20
122.1519767968017
 30
0.0
 42
-0.0789475685392101
 50
90.0
  0
VERTEX
  5
EF
  8
0
 10
107.9899570820144
 20
122.1382742611988
 30
0.0
 42
-0.0644571111103437
 50
90.0
  0
SEQEND
  5
F0
  8
0
  0
POLYLINE
  5
F1
  8
0
 66
     1
 10
0.0
 20
0.0
 30
0.0
  0
VERTEX
  5
F2
  8
0
 10
107.9899570820144
 20
110.6235596616345
 30
0.0
 42
-0.1963710675046226
 50
90.0
  0
VERTEX
  5
F3
  8
0
 10
108.1121782041341
 20
110.5736330264466
 30
0.0
 42
-0.0992025570696904
 50
90.0
  0
VERTEX
  5
F4
  8
0
 10
108.2551221249593
 20
110.3635327601951
 30
0.0
 42
-0.0566743414169369
 70
     2
 50
292.89911996387622
  0
VERTEX
  5
F5
  8
0
 10
108.3335813956885
 20
110.09715116282111
 30
0.0
 42
-0.0433295665536664
 50
90.0
  0
VERTEX
  5
F6
  8
0
 10
108.3649570820143
 20
109.7357722881584
 30
0.0
 42
-0.0433295665536456
 50
90.0
  0
SEQEND
  5
F7
  8
0
  0
POLYLINE
  5
F8
  8
0
 66
     1
 10
0.0
 20
0.0
 30
0.0
  0
VERTEX
  5
F9
  8
0
 10
108.3649570820143
 20
109.7357722881584
 30
0.0
 42
-0.0433295665536456
 50
90.0
  0
VERTEX
  5
FA
  8
0
 10
108.3335813956885
 20
109.3743934134957
 30
0.0
 42
-0.0566743414169658
 50
90.0
  0
VERTEX
  5
FB
  8
0
 10
108.2551221249593
 20
109.1080118161216
 30
0.0
 42
-0.0992025570697266
 70
     2
 50
247.10088003611941
  0
VERTEX
  5
FC
  8
0
 10
108.1047092310112
 20
108.8869335856961
 30
0.0
 42
-0.2280338981645266
 50
90.0
  0
VERTEX
  5
FD
  8
0
 10
107.9899570820144
 20
108.84798491469969
 30
0.0
 42
-0.1963710675046459
 50
90.0
  0
SEQEND
  5
FE
  8
0
  0
POLYLINE
  5
FF
  8
0
 66
     1
 10
0.0
 20
0.0
 30
0.0
  0
VERTEX
  5
100
  8
0
 10
107.9899570820144
 20
115.516763146923
 30
0.0
 42
-0.2055316714992537
 50
90.0
  0
VERTEX
  5
101
  8
0
 10
108.1101540675252
 20
115.46517533445341
 30
0.0
 42
-0.0965313913509376
 50
90.0
  0
VERTEX
  5
102
  8
0
 10
108.2551221249595
 20
115.2377529724705
 30
0.0
 42
-0.0533986296957384
 70
     2
 50
291.4875419756076
  0
VERTEX
  5
103
  8
0
 10
108.3334819233494
 20
114.95277059757829
 30
0.0
 42
-0.0404311354471943
 50
90.0
  0
VERTEX
  5
104
  8
0
 10
108.3649570820146
 20
114.5641628252672
 30
0.0
 42
-0.0404311354471791
 50
90.0
  0
SEQEND
  5
105
  8
0
  0
POLYLINE
  5
106
  8
0
 66
     1
 10
0.0
 20
0.0
 30
0.0
  0
VERTEX
  5
107
  8
0
 10
108.3649570820143
 20
114.5641628252672
 30
0.0
 42
-0.0520405140106174
 50
90.0
  0
VERTEX
  5
108
  8
0
 10
108.3339152370594
 20
114.2667236324548
 30
0.0
 42
-0.0658985238271168
 50
90.0
  0
VERTEX
  5
109
  8
0
 10
108.2551221249593
 20
114.0436815972643
 30
0.0
 42
-0.1046205348859841
 70
     2
 50
243.00291803298089
  0
VERTEX
  5
10A
  8
0
 10
108.1095849757366
 20
113.8635873775418
 30
0.0
 42
-0.1996909920929194
 50
90.0
  0
VERTEX
  5
10B
  8
0
 10
107.9899570820144
 20
113.82809121366491
 30
0.0
 42
-0.172337143622725
 50
90.0
  0
SEQEND
  5
10C
  8
0
  0
POLYLINE
  5
10D
  8
0
 66
     1
 10
0.0
 20
0.0
 30
0.0
  0
VERTEX
  5
10E
  8
0
 10
108.3649570820143
 20
118.91991685522881
 30
0.0
 42
-0.0737304435607645
 50
90.0
  0
VERTEX
  5
10F
  8
0
 10
108.3349487545775
 20
118.71752286858801
 30
0.0
 42
-0.0845717212532976
 50
90.0
  0
VERTEX
  5
110
  8
0
 10
108.2551221249593
 20
118.5576632002627
 30
0.0
 42
-0.1063921108588694
 70
     2
 50
233.79634935297011
  0
VERTEX
  5
111
  8
0
 10
108.1178450263878
 20
118.4355667702778
 30
0.0
 42
-0.1510088585334486
 50
90.0
  0
VERTEX
  5
112
  8
0
 10
107.9899570820144
 20
118.4076128233533
 30
0.0
 42
-0.1294534172461018
 50
90.0
  0
SEQEND
  5
113
  8
0
  0
POLYLINE
  5
114
  8
0
 66
     1
 10
0.0
 20
0.0
 30
0.0
  0
VERTEX
  5
115
  8
0
 10
107.9899570820144
 20
119.8440829684239
 30
0.0
 42
-0.2015894264067176
 50
90.0
  0
VERTEX
  5
116
  8
0
 10
108.11102410228089
 20
119.7932036575407
 30
0.0
 42
-0.0977170379735125
 50
90.0
  0
VERTEX
  5
117
  8
0
 10
108.2551221249593
 20
119.5734009808119
 30
0.0
 42
-0.0547927573384048
 70
     2
 50
292.08589776082619
  0
VERTEX
  5
118
  8
0
 10
108.3335231588317
 20
119.29658440078521
 30
0.0
 42
-0.0416539519670256
 50
90.0
  0
VERTEX
  5
119
  8
0
 10
108.3649570820143
 20
118.91991685522881
 30
0.0
 42
-0.0416539519669881
 50
90.0
  0
SEQEND
  5
11A
  8
0
  0
POLYLINE
  5
11B
  8
0
 66
     1
 10
0.0
 20
0.0
 30
0.0
  0
VERTEX
  5
11C
  8
0
 10
107.9899570820144
 20
125.7111231005661
 30
0.0
 42
0.0068051090718327
 50
90.0
  0
VERTEX
  5
11D
  8
0
 10
108.1452177902263
 20
125.7132363305366
 30
0.0
 42
0.0096044777403865
 50
90.0
  0
VERTEX
  5
11E
  8
0
 10
108.2551221249593
 20
125.71834268046111
 30
0.0
 42
0.0229390352869734
 70
     2
 50
3.7607085175068882
  0
VERTEX
  5
11F
  8
0
 10
108.3617370478336
 20
125.7302804846785
 30
0.0
 50
3.7607085175068882
  0
VERTEX
  5
120
  8
0
 10
108.3649570820143
 20
125.7357722881584
 30
0.0
 50
90.0
  0
SEQEND
  5
121
  8
0
  0
POLYLINE
  5
122
  8
0
 66
     1
 10
0.0
 20
0.0
 30
0.0
  0
VERTEX
  5
123
  8
0
 10
107.9899570820144
 20
93.760421475750633
 30
0.0
 42
-0.0068051090718327
 50
90.0
  0
VERTEX
  5
124
  8
0
 10
108.1452177902263
 20
93.758308245780086
 30
0.0
 42
-0.0096044777403865
 50
90.0
  0
VERTEX
  5
125
  8
0
 10
108.2551221249593
 20
93.753201895855597
 30
0.0
 42
-0.0229390352869734
 70
     2
 50
356.23929148249317
  0
VERTEX
  5
126
  8
0
 10
108.3617370478336
 20
93.741264091638214
 30
0.0
 50
90.0
  0
VERTEX
  5
127
  8
0
 10
108.3649570820143
 20
93.735772288158358
 30
0.0
 50
90.0
  0
SEQEND
  5
128
  8
0
  0
POLYLINE
  5
129
  8
0
 66
     1
 10
0.0
 20
0.0
 30
0.0
  0
VERTEX
  5
12A
  8
0
 10
107.9899570820144
 20
99.627461607892783
 30
0.0
 42
0.2015894264067176
 50
90.0
  0
VERTEX
  5
12B
  8
0
 10
108.11102410228089
 20
99.678340918776001
 30
0.0
 42
0.0977170379735125
 50
90.0
  0
VERTEX
  5
12C
  8
0
 10
108.2551221249593
 20
99.898143595504862
 30
0.0
 42
0.0547927573384048
 70
     2
 50
67.914102239173715
  0
VERTEX
  5
12D
  8
0
 10
108.3335231588317
 20
100.1749601755315
 30
0.0
 42
0.0416539519670256
 50
90.0
  0
VERTEX
  5
12E
  8
0
 10
108.3649570820143
 20
100.5516277210879
 30
0.0
 42
0.0416539519669881
 50
90.0
  0
SEQEND
  5
12F
  8
0
  0
POLYLINE
  5
130
  8
0
 66
     1
 10
0.0
 20
0.0
 30
0.0
  0
VERTEX
  5
131
  8
0
 10
108.3649570820143
 20
100.5516277210879
 30
0.0
 42
0.0737304435607645
 50
90.0
  0
VERTEX
  5
132
  8
0
 10
108.3349487545775
 20
100.7540217077287
 30
0.0
 42
0.0845717212532976
 50
90.0
  0
VERTEX
  5
133
  8
0
 10
108.2551221249593
 20
100.91388137605399
 30
0.0
 42
0.1063921108588694
 70
     2
 50
126.2036506470299
  0
VERTEX
  5
134
  8
0
 10
108.1178450263878
 20
101.0359778060389
 30
0.0
 42
0.1510088585334486
 50
90.0
  0
VERTEX
  5
135
  8
0
 10
107.9899570820144
 20
101.0639317529634
 30
0.0
 42
0.1294534172461018
 50
90.0
  0
SEQEND
  5
136
  8
0
  0
POLYLINE
  5
137
  8
0
 66
     1
 10
0.0
 20
0.0
 30
0.0
  0
VERTEX
  5
138
  8
0
 10
108.3649570820143
 20
104.9073817510495
 30
0.0
 42
0.0520405140106174
 50
90.0
  0
VERTEX
  5
139
  8
0
 10
108.3339152370594
 20
105.2048209438619
 30
0.0
 42
0.0658985238271168
 50
90.0
  0
VERTEX
  5
13A
  8
0
 10
108.2551221249593
 20
105.42786297905241
 30
0.0
 42
0.1046205348859841
 70
     2
 50
116.9970819670191
  0
VERTEX
  5
13B
  8
0
 10
108.1095849757366
 20
105.6079571987749
 30
0.0
 42
0.1996909920929194
 50
90.0
  0
VERTEX
  5
13C
  8
0
 10
107.9899570820144
 20
105.6434533626518
 30
0.0
 42
0.172337143622725
 50
90.0
  0
SEQEND
  5
13D
  8
0
  0
POLYLINE
  5
13E
  8
0
 66
     1
 10
0.0
 20
0.0
 30
0.0
  0
VERTEX
  5
13F
  8
0
 10
107.9899570820144
 20
103.95478142939371
 30
0.0
 42
0.2055316714992537
 50
90.0
  0
VERTEX
  5
140
  8
0
 10
108.1101540675252
 20
104.0063692418633
 30
0.0
 42
0.0965313913509376
 50
90.0
  0
VERTEX
  5
141
  8
0
 10
108.2551221249595
 20
104.2337916038462
 30
0.0
 42
0.0533986296957384
 70
     2
 50
68.512458024392416
  0
VERTEX
  5
142
  8
0
 10
108.3334819233494
 20
104.51877397873839
 30
0.0
 42
0.0404311354471943
 50
90.0
  0
VERTEX
  5
143
  8
0
 10
108.3649570820146
 20
104.9073817510495
 30
0.0
 42
0.0404311354471791
 50
90.0
  0
SEQEND
  5
144
  8
0
  0
POLYLINE
  5
145
  8
0
 66
     1
 10
0.0
 20
0.0
 30
0.0
  0
VERTEX
  5
146
  8
0
 10
108.3649570820143
 20
97.094881751049087
 30
0.0
 42
0.1453834159301123
 50
90.0
  0
VERTEX
  5
147
  8
0
 10
108.3397399527167
 20
97.179774967310408
 30
0.0
 42
0.1071699662217274
 50
90.0
  0
VERTEX
  5
148
  8
0
 10
108.2551221249593
 20
97.263447921260678
 30
0.0
 42
0.077350332773411
 70
     2
 50
147.555763887909
  0
VERTEX
  5
149
  8
0
 10
108.1266575694312
 20
97.319567779514983
 30
0.0
 42
0.0789475685392101
 50
90.0
  0
VERTEX
  5
14A
  8
0
 10
107.9899570820144
 20
97.333270315117986
 30
0.0
 42
0.0644571111103437
 50
90.0
  0
SEQEND
  5
14B
  8
0
  0
POLYLINE
  5
14C
  8
0
 66
     1
 10
0.0
 20
0.0
 30
0.0
  0
VERTEX
  5
14D
  8
0
 10
107.9899570820144
 20
96.289613664518157
 30
0.0
 42
0.1837701506072527
 50
90.0
  0
VERTEX
  5
14E
  8
0
 10
108.1149742452057
 20
96.337168507194235
 30
0.0
 42
0.1023570990015804
 50
90.0
  0
VERTEX
  5
14F
  8
0
 10
108.2551221249627
 20
96.525471226389953
 30
0.0
 42
0.06139380527182
 70
     2
 50
65.029384966189681
  0
VERTEX
  5
150
  8
0
 10
108.3337415084563
 20
96.768240716692574
 30
0.0
 42
0.0476740870733025
 50
90.0
  0
VERTEX
  5
151
  8
0
 10
108.3649570820191
 20
97.094881751049087
 30
0.0
 42
0.0476740870732675
 50
90.0
  0
SEQEND
  5
152
  8
0
  0
POLYLINE
  5
153
  8
0
 66
     1
 10
0.0
 20
0.0
 30
0.0
  0
VERTEX
  5
154
  8
0
 10
107.9899570820144
 20
94.267969412121303
 30
0.0
 42
0.1488470320745859
 50
90.0
  0
VERTEX
  5
155
  8
0
 10
108.1227347698007
 20
94.30839212456479
 30
0.0
 42
0.1070939314374275
 50
90.0
  0
VERTEX
  5
156
  8
0
 10
108.2551221249593
 20
94.445915166780594
 30
0.0
 42
0.0758177480846394
 70
     2
 50
58.315521158222467
  0
VERTEX
  5
157
  8
0
 10
108.33438772436151
 20
94.632535523606947
 30
0.0
 42
0.0626584555913342
 50
90.0
  0
VERTEX
  5
158
  8
0
 10
108.3649570820143
 20
94.875514221045734
 30
0.0
 42
0.0626584555913199
 50
90.0
  0
SEQEND
  5
159
  8
0
  0
POLYLINE
  5
15A
  8
0
 66
     1
 10
0.0
 20
0.0
 30
0.0
  0
VERTEX
  5
15B
  8
0
 10
108.3649570820143
 20
94.875514221045734
 30
0.0
 42
0.0162328826952284
 50
90.0
  0
VERTEX
  5
15C
  8
0
 10
108.21001947861861
 20
94.870482727332515
 30
0.0
 42
0.0226962008047463
 50
90.0
  0
VERTEX
  5
15D
  8
0
 10
108.0997920390694
 20
94.858273929465298
 30
0.0
 42
0.0516790455059756
 70
     2
 50
188.92066914969891
  0
VERTEX
  5
15E
  8
0
 10
107.9975360252221
 20
94.831185328392834
 30
0.0
 50
90.0
  0
VERTEX
  5
15F
  8
0
 10
107.9899570820144
 20
94.816652183712563
 30
0.0
 50
90.0
  0
SEQEND
  5
160
  8
0
  0
POLYLINE
  5
161
  8
0
 66
     1
 10
0.0
 20
0.0
 30
0.0
  0
VERTEX
  5
162
  8
0
 10
97.864957082014556
 20
94.110772288158245
 30
0.0
 42
-0.092572595455409
 50
90.0
  0
VERTEX
  5
163
  8
0
 10
98.009630234834034
 20
94.083755221900745
 30
0.0
 42
-0.0958395211622397
 50
90.0
  0
VERTEX
  5
164
  8
0
 10
98.130122124959456
 20
94.008156910998267
 30
0.0
 42
-0.1008530118927434
 70
     2
 50
316.94630119341338
  0
VERTEX
  5
165
  8
0
 10
98.218619446572575
 20
93.8837594503145
 30
0.0
 42
-0.1236287328816281
 50
90.0
  0
VERTEX
  5
166
  8
0
 10
98.239957082009823
 20
93.760421475750633
 30
0.0
 42
-0.1047089114758273
 50
90.0
  0
SEQEND
  5
167
  8
0
  0
LINE
  5
168
  8
0
 10
98.239957082014485
 20
94.816652183712563
 30
0.0
 11
98.239957082014485
 21
96.289613664518157
 31
0.0
  0
POLYLINE
  5
169
  8
0
 66
     1
 10
0.0
 20
0.0
 30
0.0
  0
VERTEX
  5
16A
  8
0
 10
97.864957082014556
 20
94.875514221045734
 30
0.0
 42
-0.0162328826952284
 50
90.0
  0
VERTEX
  5
16B
  8
0
 10
98.019894685410236
 20
94.870482727332515
 30
0.0
 42
-0.0226962008047463
 50
90.0
  0
VERTEX
  5
16C
  8
0
 10
98.130122124959456
 20
94.858273929465298
 30
0.0
 42
-0.0516790455059756
 70
     2
 50
351.07933085030118
  0
VERTEX
  5
16D
  8
0
 10
98.232378138806794
 20
94.831185328392834
 30
0.0
 50
90.0
  0
VERTEX
  5
16E
  8
0
 10
98.239957082014485
 20
94.816652183712563
 30
0.0
 50
90.0
  0
SEQEND
  5
16F
  8
0
  0
POLYLINE
  5
170
  8
0
 66
     1
 10
0.0
 20
0.0
 30
0.0
  0
VERTEX
  5
171
  8
0
 10
98.239957082014485
 20
94.267969412121303
 30
0.0
 42
-0.1488470320745859
 50
90.0
  0
VERTEX
  5
172
  8
0
 10
98.107179394228154
 20
94.30839212456479
 30
0.0
 42
-0.1070939314374275
 50
90.0
  0
VERTEX
  5
173
  8
0
 10
97.974792039069584
 20
94.445915166780594
 30
0.0
 42
-0.0758177480846394
 70
     2
 50
121.6844788417775
  0
VERTEX
  5
174
  8
0
 10
97.895526439667364
 20
94.632535523606947
 30
0.0
 42
-0.0626584555913342
 50
90.0
  0
VERTEX
  5
175
  8
0
 10
97.864957082014556
 20
94.875514221045734
 30
0.0
 42
-0.0626584555913199
 50
90.0
  0
SEQEND
  5
176
  8
0
  0
LINE
  5
177
  8
0
 10
98.239957082014485
 20
97.333270315119606
 30
0.0
 11
98.239957082014485
 21
99.627461607892783
 31
0.0
  0
POLYLINE
  5
178
  8
0
 66
     1
 10
0.0
 20
0.0
 30
0.0
  0
VERTEX
  5
179
  8
0
 10
98.239957082014485
 20
96.289613664518157
 30
0.0
 42
-0.1837701506072527
 50
90.0
  0
VERTEX
  5
17A
  8
0
 10
98.114939918823183
 20
96.337168507194235
 30
0.0
 42
-0.1023570990015804
 50
90.0
  0
VERTEX
  5
17B
  8
0
 10
97.974792039066173
 20
96.525471226389953
 30
0.0
 42
-0.06139380527182
 70
     2
 50
114.9706150338103
  0
VERTEX
  5
17C
  8
0
 10
97.896172655572542
 20
96.768240716692574
 30
0.0
 42
-0.0476740870733025
 50
90.0
  0
VERTEX
  5
17D
  8
0
 10
97.864957082009767
 20
97.094881751049087
 30
0.0
 42
-0.0476740870732675
 50
90.0
  0
SEQEND
  5
17E
  8
0
  0
POLYLINE
  5
17F
  8
0
 66
     1
 10
0.0
 20
0.0
 30
0.0
  0
VERTEX
  5
180
  8
0
 10
97.864957082014556
 20
97.094881751049087
 30
0.0
 42
-0.1453834159301123
 50
90.0
  0
VERTEX
  5
181
  8
0
 10
97.890174211312114
 20
97.179774967310408
 30
0.0
 42
-0.1071699662217274
 50
90.0
  0
VERTEX
  5
182
  8
0
 10
97.974792039069584
 20
97.263447921260678
 30
0.0
 42
-0.077350332773411
 70
     2
 50
32.444236112090998
  0
VERTEX
  5
183
  8
0
 10
98.103256594597624
 20
97.319567779514983
 30
0.0
 42
-0.0789475685392101
 50
90.0
  0
VERTEX
  5
184
  8
0
 10
98.239957082014485
 20
97.333270315117986
 30
0.0
 42
-0.0644571111103437
 50
90.0
  0
SEQEND
  5
185
  8
0
  0
LINE
  5
186
  8
0
 10
98.239957082014456
 20
105.6434533626518
 30
0.0
 11
98.239957082014485
 21
108.8479849146822
 31
0.0
  0
LINE
  5
187
  8
0
 10
98.239957082014485
 20
101.0639317529602
 30
0.0
 11
98.239957082014456
 21
103.95478142939371
 31
0.0
  0
POLYLINE
  5
188
  8
0
 66
     1
 10
0.0
 20
0.0
 30
0.0
  0
VERTEX
  5
189
  8
0
 10
98.239957082014485
 20
103.95478142939371
 30
0.0
 42
-0.2055316714992537
 50
90.0
  0
VERTEX
  5
18A
  8
0
 10
98.119760096503626
 20
104.0063692418633
 30
0.0
 42
-0.0965313913509376
 50
90.0
  0
VERTEX
  5
18B
  8
0
 10
97.974792039069385
 20
104.2337916038462
 30
0.0
 42
-0.0533986296957384
 70
     2
 50
111.4875419756076
  0
VERTEX
  5
18C
  8
0
 10
97.896432240679474
 20
104.51877397873839
 30
0.0
 42
-0.0404311354471943
 50
90.0
  0
VERTEX
  5
18D
  8
0
 10
97.864957082014257
 20
104.9073817510495
 30
0.0
 42
-0.0404311354471791
 50
90.0
  0
SEQEND
  5
18E
  8
0
  0
POLYLINE
  5
18F
  8
0
 66
     1
 10
0.0
 20
0.0
 30
0.0
  0
VERTEX
  5
190
  8
0
 10
97.864957082014556
 20
104.9073817510495
 30
0.0
 42
-0.0520405140106174
 50
90.0
  0
VERTEX
  5
191
  8
0
 10
97.895998926969483
 20
105.2048209438619
 30
0.0
 42
-0.0658985238271168
 50
90.0
  0
VERTEX
  5
192
  8
0
 10
97.974792039069584
 20
105.42786297905241
 30
0.0
 42
-0.1046205348859841
 70
     2
 50
63.002918032980951
  0
VERTEX
  5
193
  8
0
 10
98.120329188292317
 20
105.6079571987749
 30
0.0
 42
-0.1996909920929194
 50
90.0
  0
VERTEX
  5
194
  8
0
 10
98.239957082014485
 20
105.6434533626518
 30
0.0
 42
-0.172337143622725
 50
90.0
  0
SEQEND
  5
195
  8
0
  0
POLYLINE
  5
196
  8
0
 66
     1
 10
0.0
 20
0.0
 30
0.0
  0
VERTEX
  5
197
  8
0
 10
97.864957082014556
 20
100.5516277210879
 30
0.0
 42
-0.0737304435607645
 50
90.0
  0
VERTEX
  5
198
  8
0
 10
97.894965409451316
 20
100.7540217077287
 30
0.0
 42
-0.0845717212532976
 50
90.0
  0
VERTEX
  5
199
  8
0
 10
97.974792039069541
 20
100.91388137605399
 30
0.0
 42
-0.1063921108588694
 70
     2
 50
53.796349352970111
  0
VERTEX
  5
19A
  8
0
 10
98.112069137641086
 20
101.0359778060389
 30
0.0
 42
-0.1510088585334486
 50
90.0
  0
VERTEX
  5
19B
  8
0
 10
98.239957082014485
 20
101.0639317529634
 30
0.0
 42
-0.1294534172461018
 50
90.0
  0
SEQEND
  5
19C
  8
0
  0
POLYLINE
  5
19D
  8
0
 66
     1
 10
0.0
 20
0.0
 30
0.0
  0
VERTEX
  5
19E
  8
0
 10
98.239957082014456
 20
99.627461607892783
 30
0.0
 42
-0.2015894264067176
 50
90.0
  0
VERTEX
  5
19F
  8
0
 10
98.118890061748004
 20
99.678340918776001
 30
0.0
 42
-0.0977170379735125
 50
90.0
  0
VERTEX
  5
1A0
  8
0
 10
97.974792039069584
 20
99.898143595504862
 30
0.0
 42
-0.0547927573384048
 70
     2
 50
112.0858977608263
  0
VERTEX
  5
1A1
  8
0
 10
97.89639100519716
 20
100.1749601755315
 30
0.0
 42
-0.0416539519670256
 50
90.0
  0
VERTEX
  5
1A2
  8
0
 10
97.864957082014556
 20
100.5516277210879
 30
0.0
 42
-0.0416539519669881
 50
90.0
  0
SEQEND
  5
1A3
  8
0
  0
LINE
  5
1A4
  8
0
 10
98.239957082014485
 20
93.760421475750633
 30
0.0
 11
107.9899570820144
 21
93.760421475750633
 31
0.0
  0
LINE
  5
1A5
  8
0
 10
98.239957082014485
 20
93.760421475750633
 30
0.0
 11
98.239957082014485
 21
94.267969412121303
 31
0.0
  0
LINE
  5
1A6
  8
0
 10
98.239957082014485
 20
94.267969412121289
 30
0.0
 11
107.9899570820144
 21
94.267969412121289
 31
0.0
  0
LINE
  5
1A7
  8
0
 10
98.239957082014485
 20
94.816652183712534
 30
0.0
 11
107.9899570820144
 21
94.816652183712534
 31
0.0
  0
LINE
  5
1A8
  8
0
 10
98.239957082014485
 20
96.289613664518157
 30
0.0
 11
107.9899580356887
 21
96.289613664518157
 31
0.0
  0
LINE
  5
1A9
  8
0
 10
98.239957082014485
 20
97.333270315119606
 30
0.0
 11
108.0404159548312
 21
97.333270315119606
 31
0.0
  0
LINE
  5
1AA
  8
0
 10
98.239957082014485
 20
99.627461607892783
 30
0.0
 11
107.989959214495
 21
99.627461607892783
 31
0.0
  0
LINE
  5
1AB
  8
0
 10
98.239957082014485
 20
101.0639317529602
 30
0.0
 11
108.02739836514721
 21
101.0639317529602
 31
0.0
  0
LINE
  5
1AC
  8
0
 10
98.239957082014485
 20
103.95478142939371
 30
0.0
 11
107.9899580356887
 21
103.95478142939371
 31
0.0
  0
LINE
  5
1AD
  8
0
 10
98.239957082014485
 20
105.6434533626518
 30
0.0
 11
108.0242513784705
 21
105.6434533626518
 31
0.0
  0
LINE
  5
1AE
  8
0
 10
98.239957082014485
 20
108.8479849146823
 30
0.0
 11
107.9899570820144
 21
108.8479849146823
 31
0.0
  0
LINE
  5
1AF
  8
0
 10
108.3649570820143
 20
93.735772288158358
 30
0.0
 11
109.2399570820144
 21
93.735772288158358
 31
0.0
  0
LINE
  5
1B0
  8
0
 10
97.864957082024645
 20
94.110772288148183
 30
0.0
 11
97.239957082014456
 21
94.735772288158358
 31
0.0
  0
LINE
  5
1BA
  8
0
 10
97.864957082024645
 20
149.11077228814821
 30
0.0
 11
97.239957082014485
 21
149.7357722881583
 31
0.0
  0
LINE
  5
1BB
  8
0
 10
108.3649570820143
 20
148.7357722881583
 30
0.0
 11
109.2399570820145
 21
148.7357722881583
 31
0.0
  0
LINE
  5
1BC
  8
0
 10
98.239957082014485
 20
163.84798491468231
 30
0.0
 11
107.9899570820144
 21
163.84798491468231
 31
0.0
  0
LINE
  5
1BD
  8
0
 10
98.239957082014485
 20
160.6434533626518
 30
0.0
 11
108.0242513784705
 21
160.6434533626518
 31
0.0
  0
LINE
  5
1BE
  8
0
 10
98.239957082014485
 20
158.95478142939371
 30
0.0
 11
107.9899580356887
 21
158.95478142939371
 31
0.0
  0
LINE
  5
1BF
  8
0
 10
98.239957082014485
 20
156.0639317529602
 30
0.0
 11
108.02739836514721
 21
156.0639317529602
 31
0.0
  0
LINE
  5
1C0
  8
0
 10
98.239957082014485
 20
154.6274616078928
 30
0.0
 11
107.989959214495
 21
154.6274616078928
 31
0.0
  0
LINE
  5
1C1
  8
0
 10
98.239957082014485
 20
152.33327031511959
 30
0.0
 11
108.0404159548312
 21
152.33327031511959
 31
0.0
  0
LINE
  5
1C2
  8
0
 10
98.239957082014485
 20
151.2896136645181
 30
0.0
 11
107.9899580356887
 21
151.2896136645181
 31
0.0
  0
LINE
  5
1C3
  8
0
 10
98.239957082014485
 20
149.81665218371251
 30
0.0
 11
107.9899570820144
 21
149.81665218371251
 31
0.0
  0
LINE
  5
1C4
  8
0
 10
98.239957082014485
 20
149.2679694121212
 30
0.0
 11
107.9899570820144
 21
149.2679694121212
 31
0.0
  0
LINE
  5
1C5
  8
0
 10
98.239957082014485
 20
148.7604214757506
 30
0.0
 11
98.239957082014485
 21
149.26796941212129
 31
0.0
  0
LINE
  5
1C6
  8
0
 10
98.239957082014485
 20
148.7604214757506
 30
0.0
 11
107.9899570820144
 21
148.7604214757506
 31
0.0
  0
POLYLINE
  5
1C7
  8
0
 66
     1
 10
0.0
 20
0.0
 30
0.0
  0
VERTEX
  5
1C8
  8
0
 10
98.239957082014485
 20
154.6274616078928
 30
0.0
 42
-0.2015894264067176
 50
90.0
  0
VERTEX
  5
1C9
  8
0
 10
98.118890061748004
 20
154.678340918776
 30
0.0
 42
-0.0977170379735125
 50
90.0
  0
VERTEX
  5
1CA
  8
0
 10
97.974792039069584
 20
154.89814359550479
 30
0.0
 42
-0.0547927573384048
 70
     2
 50
112.0858977608263
  0
VERTEX
  5
1CB
  8
0
 10
97.896391005197188
 20
155.17496017553151
 30
0.0
 42
-0.0416539519670256
 50
90.0
  0
VERTEX
  5
1CC
  8
0
 10
97.864957082014556
 20
155.5516277210879
 30
0.0
 42
-0.0416539519669881
 50
90.0
  0
SEQEND
  5
1CD
  8
0
  0
POLYLINE
  5
1CE
  8
0
 66
     1
 10
0.0
 20
0.0
 30
0.0
  0
VERTEX
  5
1CF
  8
0
 10
97.864957082014556
 20
155.5516277210879
 30
0.0
 42
-0.0737304435607645
 50
90.0
  0
VERTEX
  5
1D0
  8
0
 10
97.894965409451345
 20
155.7540217077287
 30
0.0
 42
-0.0845717212532976
 50
90.0
  0
VERTEX
  5
1D1
  8
0
 10
97.974792039069541
 20
155.91388137605401
 30
0.0
 42
-0.1063921108588694
 70
     2
 50
53.796349352970111
  0
VERTEX
  5
1D2
  8
0
 10
98.112069137641086
 20
156.03597780603889
 30
0.0
 42
-0.1510088585334486
 50
90.0
  0
VERTEX
  5
1D3
  8
0
 10
98.239957082014485
 20
156.06393175296341
 30
0.0
 42
-0.1294534172461018
 50
90.0
  0
SEQEND
  5
1D4
  8
0
  0
POLYLINE
  5
1D5
  8
0
 66
     1
 10
0.0
 20
0.0
 30
0.0
  0
VERTEX
  5
1D6
  8
0
 10
97.864957082014556
 20
159.90738175104951
 30
0.0
 42
-0.0520405140106174
 50
90.0
  0
VERTEX
  5
1D7
  8
0
 10
97.895998926969483
 20
160.2048209438619
 30
0.0
 42
-0.0658985238271168
 50
90.0
  0
VERTEX
  5
1D8
  8
0
 10
97.974792039069584
 20
160.42786297905241
 30
0.0
 42
-0.1046205348859841
 70
     2
 50
63.002918032980951
  0
VERTEX
  5
1D9
  8
0
 10
98.120329188292317
 20
160.6079571987749
 30
0.0
 42
-0.1996909920929194
 50
90.0
  0
VERTEX
  5
1DA
  8
0
 10
98.239957082014485
 20
160.6434533626518
 30
0.0
 42
-0.172337143622725
 50
90.0
  0
SEQEND
  5
1DB
  8
0
  0
POLYLINE
  5
1DC
  8
0
 66
     1
 10
0.0
 20
0.0
 30
0.0
  0
VERTEX
  5
1DD
  8
0
 10
98.239957082014485
 20
158.95478142939371
 30
0.0
 42
-0.2055316714992537
 50
90.0
  0
VERTEX
  5
1DE
  8
0
 10
98.119760096503626
 20
159.0063692418633
 30
0.0
 42
-0.0965313913509376
 50
90.0
  0
VERTEX
  5
1DF
  8
0
 10
97.974792039069385
 20
159.23379160384621
 30
0.0
 42
-0.0533986296957384
 70
     2
 50
111.4875419756076
  0
VERTEX
  5
1E0
  8
0
 10
97.896432240679474
 20
159.51877397873841
 30
0.0
 42
-0.0404311354471943
 50
90.0
  0
VERTEX
  5
1E1
  8
0
 10
97.864957082014257
 20
159.90738175104951
 30
0.0
 42
-0.0404311354471791
 50
90.0
  0
SEQEND
  5
1E2
  8
0
  0
LINE
  5
1E3
  8
0
 10
98.239957082014485
 20
156.0639317529602
 30
0.0
 11
98.239957082014485
 21
158.95478142939371
 31
0.0
  0
LINE
  5
1E4
  8
0
 10
98.239957082014485
 20
160.6434533626518
 30
0.0
 11
98.239957082014485
 21
163.8479849146822
 31
0.0
  0
POLYLINE
  5
1E5
  8
0
 66
     1
 10
0.0
 20
0.0
 30
0.0
  0
VERTEX
  5
1E6
  8
0
 10
97.864957082014556
 20
152.09488175104909
 30
0.0
 42
-0.1453834159301123
 50
90.0
  0
VERTEX
  5
1E7
  8
0
 10
97.890174211312114
 20
152.17977496731041
 30
0.0
 42
-0.1071699662217274
 50
90.0
  0
VERTEX
  5
1E8
  8
0
 10
97.974792039069584
 20
152.26344792126059
 30
0.0
 42
-0.077350332773411
 70
     2
 50
32.444236112090998
  0
VERTEX
  5
1E9
  8
0
 10
98.103256594597624
 20
152.31956777951501
 30
0.0
 42
-0.0789475685392101
 50
90.0
  0
VERTEX
  5
1EA
  8
0
 10
98.239957082014485
 20
152.333270315118
 30
0.0
 42
-0.0644571111103437
 50
90.0
  0
SEQEND
  5
1EB
  8
0
  0
POLYLINE
  5
1EC
  8
0
 66
     1
 10
0.0
 20
0.0
 30
0.0
  0
VERTEX
  5
1ED
  8
0
 10
98.239957082014485
 20
151.2896136645181
 30
0.0
 42
-0.1837701506072527
 50
90.0
  0
VERTEX
  5
1EE
  8
0
 10
98.114939918823225
 20
151.33716850719421
 30
0.0
 42
-0.1023570990015804
 50
90.0
  0
VERTEX
  5
1EF
  8
0
 10
97.974792039066173
 20
151.5254712263899
 30
0.0
 42
-0.06139380527182
 70
     2
 50
114.9706150338103
  0
VERTEX
  5
1F0
  8
0
 10
97.89617265557257
 20
151.76824071669259
 30
0.0
 42
-0.0476740870733025
 50
90.0
  0
VERTEX
  5
1F1
  8
0
 10
97.864957082009767
 20
152.09488175104909
 30
0.0
 42
-0.0476740870732675
 50
90.0
  0
SEQEND
  5
1F2
  8
0
  0
LINE
  5
1F3
  8
0
 10
98.239957082014485
 20
152.33327031511959
 30
0.0
 11
98.239957082014485
 21
154.6274616078928
 31
0.0
  0
POLYLINE
  5
1F4
  8
0
 66
     1
 10
0.0
 20
0.0
 30
0.0
  0
VERTEX
  5
1F5
  8
0
 10
98.239957082014485
 20
149.26796941212129
 30
0.0
 42
-0.1488470320745859
 50
90.0
  0
VERTEX
  5
1F6
  8
0
 10
98.107179394228183
 20
149.30839212456479
 30
0.0
 42
-0.1070939314374275
 50
90.0
  0
VERTEX
  5
1F7
  8
0
 10
97.974792039069584
 20
149.44591516678059
 30
0.0
 42
-0.0758177480846394
 70
     2
 50
121.6844788417775
  0
VERTEX
  5
1F8
  8
0
 10
97.895526439667378
 20
149.63253552360689
 30
0.0
 42
-0.0626584555913342
 50
90.0
  0
VERTEX
  5
1F9
  8
0
 10
97.864957082014556
 20
149.87551422104571
 30
0.0
 42
-0.0626584555913199
 50
90.0
  0
SEQEND
  5
1FA
  8
0
  0
POLYLINE
  5
1FB
  8
0
 66
     1
 10
0.0
 20
0.0
 30
0.0
  0
VERTEX
  5
1FC
  8
0
 10
97.864957082014556
 20
149.87551422104571
 30
0.0
 42
-0.0162328826952284
 50
90.0
  0
VERTEX
  5
1FD
  8
0
 10
98.019894685410236
 20
149.8704827273325
 30
0.0
 42
-0.0226962008047463
 50
90.0
  0
VERTEX
  5
1FE
  8
0
 10
98.130122124959485
 20
149.8582739294653
 30
0.0
 42
-0.0516790455059756
 70
     2
 50
351.07933085030118
  0
VERTEX
  5
1FF
  8
0
 10
98.232378138806837
 20
149.83118532839279
 30
0.0
 50
90.0
  0
VERTEX
  5
200
  8
0
 10
98.239957082014485
 20
149.81665218371251
 30
0.0
 50
90.0
  0
SEQEND
  5
201
  8
0
  0
LINE
  5
202
  8
0
 10
98.239957082014485
 20
149.81665218371251
 30
0.0
 11
98.239957082014485
 21
151.2896136645181
 31
0.0
  0
POLYLINE
  5
203
  8
0
 66
     1
 10
0.0
 20
0.0
 30
0.0
  0
VERTEX
  5
204
  8
0
 10
97.864957082014556
 20
149.11077228815819
 30
0.0
 42
-0.092572595455409
 50
90.0
  0
VERTEX
  5
205
  8
0
 10
98.009630234834034
 20
149.0837552219007
 30
0.0
 42
-0.0958395211622397
 50
90.0
  0
VERTEX
  5
206
  8
0
 10
98.130122124959485
 20
149.00815691099831
 30
0.0
 42
-0.1008530118927434
 70
     2
 50
316.94630119341338
  0
VERTEX
  5
207
  8
0
 10
98.218619446572575
 20
148.8837594503145
 30
0.0
 42
-0.1236287328816281
 50
90.0
  0
VERTEX
  5
208
  8
0
 10
98.239957082009852
 20
148.7604214757506
 30
0.0
 42
-0.1047089114758273
 50
90.0
  0
SEQEND
  5
209
  8
0
  0
POLYLINE
  5
20A
  8
0
 66
     1
 10
0.0
 20
0.0
 30
0.0
  0
VERTEX
  5
20B
  8
0
 10
108.3649570820143
 20
149.87551422104571
 30
0.0
 42
0.0162328826952284
 50
90.0
  0
VERTEX
  5
20C
  8
0
 10
108.21001947861861
 20
149.8704827273325
 30
0.0
 42
0.0226962008047463
 50
90.0
  0
VERTEX
  5
20D
  8
0
 10
108.0997920390694
 20
149.8582739294653
 30
0.0
 42
0.0516790455059756
 70
     2
 50
188.92066914969891
  0
VERTEX
  5
20E
  8
0
 10
107.9975360252221
 20
149.83118532839279
 30
0.0
 50
90.0
  0
VERTEX
  5
20F
  8
0
 10
107.9899570820144
 20
149.81665218371251
 30
0.0
 50
90.0
  0
SEQEND
  5
210
  8
0
  0
POLYLINE
  5
211
  8
0
 66
     1
 10
0.0
 20
0.0
 30
0.0
  0
VERTEX
  5
212
  8
0
 10
107.9899570820144
 20
149.26796941212129
 30
0.0
 42
0.1488470320745859
 50
90.0
  0
VERTEX
  5
213
  8
0
 10
108.1227347698007
 20
149.30839212456479
 30
0.0
 42
0.1070939314374275
 50
90.0
  0
VERTEX
  5
214
  8
0
 10
108.2551221249593
 20
149.44591516678059
 30
0.0
 42
0.0758177480846394
 70
     2
 50
58.315521158222467
  0
VERTEX
  5
215
  8
0
 10
108.33438772436151
 20
149.63253552360689
 30
0.0
 42
0.0626584555913342
 50
90.0
  0
VERTEX
  5
216
  8
0
 10
108.3649570820143
 20
149.87551422104571
 30
0.0
 42
0.0626584555913199
 50
90.0
  0
SEQEND
  5
217
  8
0
  0
POLYLINE
  5
218
  8
0
 66
     1
 10
0.0
 20
0.0
 30
0.0
  0
VERTEX
  5
219
  8
0
 10
107.9899570820144
 20
151.2896136645181
 30
0.0
 42
0.1837701506072527
 50
90.0
  0
VERTEX
  5
21A
  8
0
 10
108.1149742452057
 20
151.33716850719421
 30
0.0
 42
0.1023570990015804
 50
90.0
  0
VERTEX
  5
21B
  8
0
 10
108.2551221249627
 20
151.5254712263899
 30
0.0
 42
0.06139380527182
 70
     2
 50
65.029384966189681
  0
VERTEX
  5
21C
  8
0
 10
108.3337415084563
 20
151.76824071669259
 30
0.0
 42
0.0476740870733025
 50
90.0
  0
VERTEX
  5
21D
  8
0
 10
108.3649570820191
 20
152.09488175104909
 30
0.0
 42
0.0476740870732675
 50
90.0
  0
SEQEND
  5
21E
  8
0
  0
POLYLINE
  5
21F
  8
0
 66
     1
 10
0.0
 20
0.0
 30
0.0
  0
VERTEX
  5
220
  8
0
 10
108.3649570820143
 20
152.09488175104909
 30
0.0
 42
0.1453834159301123
 50
90.0
  0
VERTEX
  5
221
  8
0
 10
108.3397399527168
 20
152.17977496731041
 30
0.0
 42
0.1071699662217274
 50
90.0
  0
VERTEX
  5
222
  8
0
 10
108.2551221249593
 20
152.26344792126059
 30
0.0
 42
0.077350332773411
 70
     2
 50
147.555763887909
  0
VERTEX
  5
223
  8
0
 10
108.1266575694313
 20
152.31956777951501
 30
0.0
 42
0.0789475685392101
 50
90.0
  0
VERTEX
  5
224
  8
0
 10
107.9899570820144
 20
152.333270315118
 30
0.0
 42
0.0644571111103437
 50
90.0
  0
SEQEND
  5
225
  8
0
  0
POLYLINE
  5
226
  8
0
 66
     1
 10
0.0
 20
0.0
 30
0.0
  0
VERTEX
  5
227
  8
0
 10
107.9899570820144
 20
158.95478142939371
 30
0.0
 42
0.2055316714992537
 50
90.0
  0
VERTEX
  5
228
  8
0
 10
108.1101540675252
 20
159.0063692418633
 30
0.0
 42
0.0965313913509376
 50
90.0
  0
VERTEX
  5
229
  8
0
 10
108.2551221249595
 20
159.23379160384621
 30
0.0
 42
0.0533986296957384
 70
     2
 50
68.512458024392416
  0
VERTEX
  5
22A
  8
0
 10
108.3334819233494
 20
159.51877397873841
 30
0.0
 42
0.0404311354471943
 50
90.0
  0
VERTEX
  5
22B
  8
0
 10
108.3649570820146
 20
159.90738175104951
 30
0.0
 42
0.0404311354471791
 50
90.0
  0
SEQEND
  5
22C
  8
0
  0
POLYLINE
  5
22D
  8
0
 66
     1
 10
0.0
 20
0.0
 30
0.0
  0
VERTEX
  5
22E
  8
0
 10
108.3649570820143
 20
159.90738175104951
 30
0.0
 42
0.0520405140106174
 50
90.0
  0
VERTEX
  5
22F
  8
0
 10
108.3339152370594
 20
160.2048209438619
 30
0.0
 42
0.0658985238271168
 50
90.0
  0
VERTEX
  5
230
  8
0
 10
108.2551221249593
 20
160.42786297905241
 30
0.0
 42
0.1046205348859841
 70
     2
 50
116.9970819670191
  0
VERTEX
  5
231
  8
0
 10
108.1095849757366
 20
160.6079571987749
 30
0.0
 42
0.1996909920929194
 50
90.0
  0
VERTEX
  5
232
  8
0
 10
107.9899570820144
 20
160.6434533626518
 30
0.0
 42
0.172337143622725
 50
90.0
  0
SEQEND
  5
233
  8
0
  0
POLYLINE
  5
234
  8
0
 66
     1
 10
0.0
 20
0.0
 30
0.0
  0
VERTEX
  5
235
  8
0
 10
108.3649570820143
 20
155.5516277210879
 30
0.0
 42
0.0737304435607645
 50
90.0
  0
VERTEX
  5
236
  8
0
 10
108.3349487545776
 20
155.7540217077287
 30
0.0
 42
0.0845717212532976
 50
90.0
  0
VERTEX
  5
237
  8
0
 10
108.2551221249593
 20
155.91388137605401
 30
0.0
 42
0.1063921108588694
 70
     2
 50
126.2036506470299
  0
VERTEX
  5
238
  8
0
 10
108.1178450263878
 20
156.03597780603889
 30
0.0
 42
0.1510088585334486
 50
90.0
  0
VERTEX
  5
239
  8
0
 10
107.9899570820144
 20
156.06393175296341
 30
0.0
 42
0.1294534172461018
 50
90.0
  0
SEQEND
  5
23A
  8
0
  0
POLYLINE
  5
23B
  8
0
 66
     1
 10
0.0
 20
0.0
 30
0.0
  0
VERTEX
  5
23C
  8
0
 10
107.9899570820144
 20
154.6274616078928
 30
0.0
 42
0.2015894264067176
 50
90.0
  0
VERTEX
  5
23D
  8
0
 10
108.11102410228089
 20
154.678340918776
 30
0.0
 42
0.0977170379735125
 50
90.0
  0
VERTEX
  5
23E
  8
0
 10
108.2551221249593
 20
154.89814359550479
 30
0.0
 42
0.0547927573384048
 70
     2
 50
67.914102239173715
  0
VERTEX
  5
23F
  8
0
 10
108.3335231588317
 20
155.17496017553151
 30
0.0
 42
0.0416539519670256
 50
90.0
  0
VERTEX
  5
240
  8
0
 10
108.3649570820143
 20
155.5516277210879
 30
0.0
 42
0.0416539519669881
 50
90.0
  0
SEQEND
  5
241
  8
0
  0
POLYLINE
  5
242
  8
0
 66
     1
 10
0.0
 20
0.0
 30
0.0
  0
VERTEX
  5
243
  8
0
 10
107.9899570820144
 20
148.7604214757506
 30
0.0
 42
-0.0068051090718327
 50
90.0
  0
VERTEX
  5
244
  8
0
 10
108.1452177902263
 20
148.75830824578011
 30
0.0
 42
-0.0096044777403865
 50
90.0
  0
VERTEX
  5
245
  8
0
 10
108.2551221249593
 20
148.7532018958556
 30
0.0
 42
-0.0229390352869734
 70
     2
 50
356.23929148249317
  0
VERTEX
  5
246
  8
0
 10
108.3617370478337
 20
148.74126409163819
 30
0.0
 50
90.0
  0
VERTEX
  5
247
  8
0
 10
108.3649570820143
 20
148.7357722881583
 30
0.0
 50
90.0
  0
SEQEND
  5
248
  8
0
  0
POLYLINE
  5
249
  8
0
 66
     1
 10
0.0
 20
0.0
 30
0.0
  0
VERTEX
  5
24A
  8
0
 10
107.9899570820144
 20
180.71112310056611
 30
0.0
 42
0.0068051090718327
 50
90.0
  0
VERTEX
  5
24B
  8
0
 10
108.1452177902263
 20
180.7132363305366
 30
0.0
 42
0.0096044777403865
 50
90.0
  0
VERTEX
  5
24C
  8
0
 10
108.2551221249593
 20
180.71834268046109
 30
0.0
 42
0.0229390352869734
 70
     2
 50
3.7607085175068882
  0
VERTEX
  5
24D
  8
0
 10
108.3617370478337
 20
180.7302804846785
 30
0.0
 50
3.7607085175068882
  0
VERTEX
  5
24E
  8
0
 10
108.3649570820143
 20
180.7357722881583
 30
0.0
 50
90.0
  0
SEQEND
  5
24F
  8
0
  0
POLYLINE
  5
250
  8
0
 66
     1
 10
0.0
 20
0.0
 30
0.0
  0
VERTEX
  5
251
  8
0
 10
107.9899570820144
 20
174.84408296842389
 30
0.0
 42
-0.2015894264067176
 50
90.0
  0
VERTEX
  5
252
  8
0
 10
108.11102410228089
 20
174.79320365754069
 30
0.0
 42
-0.0977170379735125
 50
90.0
  0
VERTEX
  5
253
  8
0
 10
108.2551221249593
 20
174.5734009808119
 30
0.0
 42
-0.0547927573384048
 70
     2
 50
292.08589776082619
  0
VERTEX
  5
254
  8
0
 10
108.3335231588317
 20
174.29658440078521
 30
0.0
 42
-0.0416539519670256
 50
90.0
  0
VERTEX
  5
255
  8
0
 10
108.3649570820143
 20
173.91991685522879
 30
0.0
 42
-0.0416539519669881
 50
90.0
  0
SEQEND
  5
256
  8
0
  0
POLYLINE
  5
257
  8
0
 66
     1
 10
0.0
 20
0.0
 30
0.0
  0
VERTEX
  5
258
  8
0
 10
108.3649570820143
 20
173.91991685522879
 30
0.0
 42
-0.0737304435607645
 50
90.0
  0
VERTEX
  5
259
  8
0
 10
108.3349487545776
 20
173.71752286858799
 30
0.0
 42
-0.0845717212532976
 50
90.0
  0
VERTEX
  5
25A
  8
0
 10
108.2551221249593
 20
173.55766320026271
 30
0.0
 42
-0.1063921108588694
 70
     2
 50
233.79634935297011
  0
VERTEX
  5
25B
  8
0
 10
108.1178450263878
 20
173.4355667702778
 30
0.0
 42
-0.1510088585334486
 50
90.0
  0
VERTEX
  5
25C
  8
0
 10
107.9899570820144
 20
173.4076128233533
 30
0.0
 42
-0.1294534172461018
 50
90.0
  0
SEQEND
  5
25D
  8
0
  0
POLYLINE
  5
25E
  8
0
 66
     1
 10
0.0
 20
0.0
 30
0.0
  0
VERTEX
  5
25F
  8
0
 10
108.3649570820143
 20
169.5641628252672
 30
0.0
 42
-0.0520405140106174
 50
90.0
  0
VERTEX
  5
260
  8
0
 10
108.3339152370594
 20
169.26672363245481
 30
0.0
 42
-0.0658985238271168
 50
90.0
  0
VERTEX
  5
261
  8
0
 10
108.2551221249593
 20
169.04368159726431
 30
0.0
 42
-0.1046205348859841
 70
     2
 50
243.00291803298089
  0
VERTEX
  5
262
  8
0
 10
108.1095849757366
 20
168.86358737754179
 30
0.0
 42
-0.1996909920929194
 50
90.0
  0
VERTEX
  5
263
  8
0
 10
107.9899570820144
 20
168.82809121366489
 30
0.0
 42
-0.172337143622725
 50
90.0
  0
SEQEND
  5
264
  8
0
  0
POLYLINE
  5
265
  8
0
 66
     1
 10
0.0
 20
0.0
 30
0.0
  0
VERTEX
  5
266
  8
0
 10
107.9899570820144
 20
170.51676314692301
 30
0.0
 42
-0.2055316714992537
 50
90.0
  0
VERTEX
  5
267
  8
0
 10
108.1101540675252
 20
170.46517533445351
 30
0.0
 42
-0.0965313913509376
 50
90.0
  0
VERTEX
  5
268
  8
0
 10
108.2551221249595
 20
170.2377529724705
 30
0.0
 42
-0.0533986296957384
 70
     2
 50
291.4875419756076
  0
VERTEX
  5
269
  8
0
 10
108.3334819233494
 20
169.95277059757831
 30
0.0
 42
-0.0404311354471943
 50
90.0
  0
VERTEX
  5
26A
  8
0
 10
108.3649570820146
 20
169.5641628252672
 30
0.0
 42
-0.0404311354471791
 50
90.0
  0
SEQEND
  5
26B
  8
0
  0
POLYLINE
  5
26C
  8
0
 66
     1
 10
0.0
 20
0.0
 30
0.0
  0
VERTEX
  5
26D
  8
0
 10
108.3649570820143
 20
164.73577228815839
 30
0.0
 42
-0.0433295665536456
 50
90.0
  0
VERTEX
  5
26E
  8
0
 10
108.3335813956885
 20
164.37439341349571
 30
0.0
 42
-0.0566743414169658
 50
90.0
  0
VERTEX
  5
26F
  8
0
 10
108.2551221249593
 20
164.1080118161216
 30
0.0
 42
-0.0992025570697266
 70
     2
 50
247.10088003611941
  0
VERTEX
  5
270
  8
0
 10
108.1047092310112
 20
163.88693358569611
 30
0.0
 42
-0.2280338981645266
 50
90.0
  0
VERTEX
  5
271
  8
0
 10
107.9899570820144
 20
163.84798491469959
 30
0.0
 42
-0.1963710675046459
 50
90.0
  0
SEQEND
  5
272
  8
0
  0
POLYLINE
  5
273
  8
0
 66
     1
 10
0.0
 20
0.0
 30
0.0
  0
VERTEX
  5
274
  8
0
 10
107.9899570820144
 20
165.62355966163449
 30
0.0
 42
-0.1963710675046226
 50
90.0
  0
VERTEX
  5
275
  8
0
 10
108.1121782041341
 20
165.57363302644649
 30
0.0
 42
-0.0992025570696904
 50
90.0
  0
VERTEX
  5
276
  8
0
 10
108.2551221249593
 20
165.36353276019511
 30
0.0
 42
-0.0566743414169369
 70
     2
 50
292.89911996387622
  0
VERTEX
  5
277
  8
0
 10
108.3335813956885
 20
165.09715116282109
 30
0.0
 42
-0.0433295665536664
 50
90.0
  0
VERTEX
  5
278
  8
0
 10
108.3649570820143
 20
164.73577228815839
 30
0.0
 42
-0.0433295665536456
 50
90.0
  0
SEQEND
  5
279
  8
0
  0
POLYLINE
  5
27A
  8
0
 66
     1
 10
0.0
 20
0.0
 30
0.0
  0
VERTEX
  5
27B
  8
0
 10
108.3649570820143
 20
177.3766628252676
 30
0.0
 42
-0.1453834159301123
 50
90.0
  0
VERTEX
  5
27C
  8
0
 10
108.3397399527168
 20
177.29176960900631
 30
0.0
 42
-0.1071699662217274
 50
90.0
  0
VERTEX
  5
27D
  8
0
 10
108.2551221249593
 20
177.2080966550561
 30
0.0
 42
-0.077350332773411
 70
     2
 50
212.444236112091
  0
VERTEX
  5
27E
  8
0
 10
108.1266575694313
 20
177.1519767968017
 30
0.0
 42
-0.0789475685392101
 50
90.0
  0
VERTEX
  5
27F
  8
0
 10
107.9899570820144
 20
177.13827426119869
 30
0.0
 42
-0.0644571111103437
 50
90.0
  0
SEQEND
  5
280
  8
0
  0
POLYLINE
  5
281
  8
0
 66
     1
 10
0.0
 20
0.0
 30
0.0
  0
VERTEX
  5
282
  8
0
 10
107.9899570820144
 20
178.18193091179859
 30
0.0
 42
-0.1837701506072527
 50
90.0
  0
VERTEX
  5
283
  8
0
 10
108.1149742452057
 20
178.13437606912251
 30
0.0
 42
-0.1023570990015804
 50
90.0
  0
VERTEX
  5
284
  8
0
 10
108.2551221249627
 20
177.94607334992679
 30
0.0
 42
-0.06139380527182
 70
     2
 50
294.9706150338103
  0
VERTEX
  5
285
  8
0
 10
108.3337415084563
 20
177.7033038596241
 30
0.0
 42
-0.0476740870733025
 50
90.0
  0
VERTEX
  5
286
  8
0
 10
108.3649570820191
 20
177.3766628252676
 30
0.0
 42
-0.0476740870732675
 50
90.0
  0
SEQEND
  5
287
  8
0
  0
POLYLINE
  5
288
  8
0
 66
     1
 10
0.0
 20
0.0
 30
0.0
  0
VERTEX
  5
289
  8
0
 10
107.9899570820144
 20
180.2035751641954
 30
0.0
 42
-0.1488470320745859
 50
90.0
  0
VERTEX
  5
28A
  8
0
 10
108.1227347698007
 20
180.1631524517519
 30
0.0
 42
-0.1070939314374275
 50
90.0
  0
VERTEX
  5
28B
  8
0
 10
108.2551221249593
 20
180.02562940953609
 30
0.0
 42
-0.0758177480846394
 70
     2
 50
301.68447884177749
  0
VERTEX
  5
28C
  8
0
 10
108.33438772436151
 20
179.8390090527098
 30
0.0
 42
-0.0626584555913342
 50
90.0
  0
VERTEX
  5
28D
  8
0
 10
108.3649570820143
 20
179.59603035527101
 30
0.0
 42
-0.0626584555913199
 50
90.0
  0
SEQEND
  5
28E
  8
0
  0
POLYLINE
  5
28F
  8
0
 66
     1
 10
0.0
 20
0.0
 30
0.0
  0
VERTEX
  5
290
  8
0
 10
108.3649570820143
 20
179.59603035527101
 30
0.0
 42
-0.0162328826952284
 50
90.0
  0
VERTEX
  5
291
  8
0
 10
108.21001947861861
 20
179.60106184898419
 30
0.0
 42
-0.0226962008047463
 50
90.0
  0
VERTEX
  5
292
  8
0
 10
108.0997920390694
 20
179.61327064685139
 30
0.0
 42
-0.0516790455059756
 70
     2
 50
171.07933085030109
  0
VERTEX
  5
293
  8
0
 10
107.9975360252221
 20
179.6403592479239
 30
0.0
 50
90.0
  0
VERTEX
  5
294
  8
0
 10
107.9899570820144
 20
179.65489239260421
 30
0.0
 50
90.0
  0
SEQEND
  5
295
  8
0
  0
POLYLINE
  5
296
  8
0
 66
     1
 10
0.0
 20
0.0
 30
0.0
  0
VERTEX
  5
297
  8
0
 10
97.864957082014556
 20
180.3607722881585
 30
0.0
 42
0.092572595455409
 50
90.0
  0
VERTEX
  5
298
  8
0
 10
98.009630234834034
 20
180.38778935441599
 30
0.0
 42
0.0958395211622397
 50
90.0
  0
VERTEX
  5
299
  8
0
 10
98.130122124959485
 20
180.46338766531841
 30
0.0
 42
0.1008530118927434
 70
     2
 50
43.053698806586652
  0
VERTEX
  5
29A
  8
0
 10
98.218619446572575
 20
180.58778512600219
 30
0.0
 42
0.1236287328816281
 50
43.053698806586652
  0
VERTEX
  5
29B
  8
0
 10
98.239957082009852
 20
180.71112310056611
 30
0.0
 42
0.1047089114758273
 50
90.0
  0
SEQEND
  5
29C
  8
0
  0
LINE
  5
29D
  8
0
 10
98.239957082014485
 20
179.65489239260421
 30
0.0
 11
98.239957082014485
 21
178.18193091179859
 31
0.0
  0
POLYLINE
  5
29E
  8
0
 66
     1
 10
0.0
 20
0.0
 30
0.0
  0
VERTEX
  5
29F
  8
0
 10
97.864957082014556
 20
179.59603035527101
 30
0.0
 42
0.0162328826952284
 50
90.0
  0
VERTEX
  5
2A0
  8
0
 10
98.019894685410236
 20
179.60106184898419
 30
0.0
 42
0.0226962008047463
 50
90.0
  0
VERTEX
  5
2A1
  8
0
 10
98.130122124959485
 20
179.61327064685139
 30
0.0
 42
0.0516790455059756
 70
     2
 50
8.9206691496988508
  0
VERTEX
  5
2A2
  8
0
 10
98.232378138806837
 20
179.6403592479239
 30
0.0
 50
8.9206691496988508
  0
VERTEX
  5
2A3
  8
0
 10
98.239957082014485
 20
179.65489239260421
 30
0.0
 50
90.0
  0
SEQEND
  5
2A4
  8
0
  0
POLYLINE
  5
2A5
  8
0
 66
     1
 10
0.0
 20
0.0
 30
0.0
  0
VERTEX
  5
2A6
  8
0
 10
98.239957082014485
 20
180.2035751641954
 30
0.0
 42
0.1488470320745859
 50
90.0
  0
VERTEX
  5
2A7
  8
0
 10
98.107179394228183
 20
180.1631524517519
 30
0.0
 42
0.1070939314374275
 50
90.0
  0
VERTEX
  5
2A8
  8
0
 10
97.974792039069584
 20
180.02562940953609
 30
0.0
 42
0.0758177480846394
 70
     2
 50
238.31552115822251
  0
VERTEX
  5
2A9
  8
0
 10
97.895526439667378
 20
179.8390090527098
 30
0.0
 42
0.0626584555913342
 50
238.31552115822251
  0
VERTEX
  5
2AA
  8
0
 10
97.864957082014556
 20
179.59603035527101
 30
0.0
 42
0.0626584555913199
 50
90.0
  0
SEQEND
  5
2AB
  8
0
  0
LINE
  5
2AC
  8
0
 10
98.239957082014485
 20
177.1382742611971
 30
0.0
 11
98.239957082014485
 21
174.84408296842389
 31
0.0
  0
POLYLINE
  5
2AD
  8
0
 66
     1
 10
0.0
 20
0.0
 30
0.0
  0
VERTEX
  5
2AE
  8
0
 10
98.239957082014485
 20
178.18193091179859
 30
0.0
 42
0.1837701506072527
 50
90.0
  0
VERTEX
  5
2AF
  8
0
 10
98.114939918823225
 20
178.13437606912251
 30
0.0
 42
0.1023570990015804
 50
90.0
  0
VERTEX
  5
2B0
  8
0
 10
97.974792039066173
 20
177.94607334992679
 30
0.0
 42
0.06139380527182
 70
     2
 50
245.0293849661897
  0
VERTEX
  5
2B1
  8
0
 10
97.89617265557257
 20
177.7033038596241
 30
0.0
 42
0.0476740870733025
 50
245.0293849661897
  0
VERTEX
  5
2B2
  8
0
 10
97.864957082009767
 20
177.3766628252676
 30
0.0
 42
0.0476740870732675
 50
90.0
  0
SEQEND
  5
2B3
  8
0
  0
POLYLINE
  5
2B4
  8
0
 66
     1
 10
0.0
 20
0.0
 30
0.0
  0
VERTEX
  5
2B5
  8
0
 10
97.864957082014556
 20
177.3766628252676
 30
0.0
 42
0.1453834159301123
 50
90.0
  0
VERTEX
  5
2B6
  8
0
 10
97.890174211312114
 20
177.29176960900631
 30
0.0
 42
0.1071699662217274
 50
90.0
  0
VERTEX
  5
2B7
  8
0
 10
97.974792039069584
 20
177.2080966550561
 30
0.0
 42
0.077350332773411
 70
     2
 50
327.55576388790911
  0
VERTEX
  5
2B8
  8
0
 10
98.103256594597624
 20
177.1519767968017
 30
0.0
 42
0.0789475685392101
 50
327.55576388790911
  0
VERTEX
  5
2B9
  8
0
 10
98.239957082014485
 20
177.13827426119869
 30
0.0
 42
0.0644571111103437
 50
90.0
  0
SEQEND
  5
2BA
  8
0
  0
LINE
  5
2BB
  8
0
 10
98.239957082014485
 20
168.82809121366489
 30
0.0
 11
98.239957082014485
 21
165.62355966163449
 31
0.0
  0
LINE
  5
2BC
  8
0
 10
98.239957082014485
 20
173.40761282335649
 30
0.0
 11
98.239957082014485
 21
170.51676314692301
 31
0.0
  0
POLYLINE
  5
2BD
  8
0
 66
     1
 10
0.0
 20
0.0
 30
0.0
  0
VERTEX
  5
2BE
  8
0
 10
98.239957082014456
 20
165.62355966163449
 30
0.0
 42
0.1963710675046226
 50
90.0
  0
VERTEX
  5
2BF
  8
0
 10
98.117735959894773
 20
165.57363302644649
 30
0.0
 42
0.0992025570696904
 50
90.0
  0
VERTEX
  5
2C0
  8
0
 10
97.974792039069584
 20
165.36353276019511
 30
0.0
 42
0.0566743414169369
 70
     2
 50
247.10088003612381
  0
VERTEX
  5
2C1
  8
0
 10
97.896332768340415
 20
165.09715116282109
 30
0.0
 42
0.0433295665536664
 50
247.10088003612381
  0
VERTEX
  5
2C2
  8
0
 10
97.864957082014556
 20
164.73577228815839
 30
0.0
 42
0.0433295665536456
 50
90.0
  0
SEQEND
  5
2C3
  8
0
  0
POLYLINE
  5
2C4
  8
0
 66
     1
 10
0.0
 20
0.0
 30
0.0
  0
VERTEX
  5
2C5
  8
0
 10
97.864957082014556
 20
164.73577228815839
 30
0.0
 42
0.0433295665536456
 50
90.0
  0
VERTEX
  5
2C6
  8
0
 10
97.896332768340415
 20
164.37439341349571
 30
0.0
 42
0.0566743414169658
 50
90.0
  0
VERTEX
  5
2C7
  8
0
 10
97.974792039069584
 20
164.1080118161216
 30
0.0
 42
0.0992025570697266
 70
     2
 50
292.89911996388048
  0
VERTEX
  5
2C8
  8
0
 10
98.125204933017642
 20
163.88693358569611
 30
0.0
 42
0.2280338981645266
 50
292.89911996388048
  0
VERTEX
  5
2C9
  8
0
 10
98.239957082014485
 20
163.84798491469959
 30
0.0
 42
0.1963710675046459
 50
90.0
  0
SEQEND
  5
2CA
  8
0
  0
POLYLINE
  5
2CB
  8
0
 66
     1
 10
0.0
 20
0.0
 30
0.0
  0
VERTEX
  5
2CC
  8
0
 10
98.239957082014485
 20
170.51676314692301
 30
0.0
 42
0.2055316714992537
 50
90.0
  0
VERTEX
  5
2CD
  8
0
 10
98.119760096503626
 20
170.46517533445351
 30
0.0
 42
0.0965313913509376
 50
90.0
  0
VERTEX
  5
2CE
  8
0
 10
97.974792039069385
 20
170.2377529724705
 30
0.0
 42
0.0533986296957384
 70
     2
 50
248.5124580243924
  0
VERTEX
  5
2CF
  8
0
 10
97.896432240679474
 20
169.95277059757831
 30
0.0
 42
0.0404311354471943
 50
248.5124580243924
  0
VERTEX
  5
2D0
  8
0
 10
97.864957082014257
 20
169.5641628252672
 30
0.0
 42
0.0404311354471791
 50
90.0
  0
SEQEND
  5
2D1
  8
0
  0
POLYLINE
  5
2D2
  8
0
 66
     1
 10
0.0
 20
0.0
 30
0.0
  0
VERTEX
  5
2D3
  8
0
 10
97.864957082014556
 20
169.5641628252672
 30
0.0
 42
0.0520405140106174
 50
90.0
  0
VERTEX
  5
2D4
  8
0
 10
97.895998926969483
 20
169.26672363245481
 30
0.0
 42
0.0658985238271168
 50
90.0
  0
VERTEX
  5
2D5
  8
0
 10
97.974792039069584
 20
169.04368159726431
 30
0.0
 42
0.1046205348859841
 70
     2
 50
296.99708196701908
  0
VERTEX
  5
2D6
  8
0
 10
98.120329188292317
 20
168.86358737754179
 30
0.0
 42
0.1996909920929194
 50
296.99708196701908
  0
VERTEX
  5
2D7
  8
0
 10
98.239957082014485
 20
168.82809121366489
 30
0.0
 42
0.172337143622725
 50
90.0
  0
SEQEND
  5
2D8
  8
0
  0
POLYLINE
  5
2D9
  8
0
 66
     1
 10
0.0
 20
0.0
 30
0.0
  0
VERTEX
  5
2DA
  8
0
 10
97.864957082014556
 20
173.91991685522879
 30
0.0
 42
0.0737304435607645
 50
90.0
  0
VERTEX
  5
2DB
  8
0
 10
97.894965409451345
 20
173.71752286858799
 30
0.0
 42
0.0845717212532976
 50
90.0
  0
VERTEX
  5
2DC
  8
0
 10
97.974792039069541
 20
173.55766320026271
 30
0.0
 42
0.1063921108588694
 70
     2
 50
306.20365064702992
  0
VERTEX
  5
2DD
  8
0
 10
98.112069137641086
 20
173.4355667702778
 30
0.0
 42
0.1510088585334486
 50
306.20365064702992
  0
VERTEX
  5
2DE
  8
0
 10
98.239957082014485
 20
173.4076128233533
 30
0.0
 42
0.1294534172461018
 50
90.0
  0
SEQEND
  5
2DF
  8
0
  0
POLYLINE
  5
2E0
  8
0
 66
     1
 10
0.0
 20
0.0
 30
0.0
  0
VERTEX
  5
2E1
  8
0
 10
98.239957082014485
 20
174.84408296842389
 30
0.0
 42
0.2015894264067176
 50
90.0
  0
VERTEX
  5
2E2
  8
0
 10
98.118890061748004
 20
174.79320365754069
 30
0.0
 42
0.0977170379735125
 50
90.0
  0
VERTEX
  5
2E3
  8
0
 10
97.974792039069584
 20
174.5734009808119
 30
0.0
 42
0.0547927573384048
 70
     2
 50
247.9141022391737
  0
VERTEX
  5
2E4
  8
0
 10
97.896391005197188
 20
174.29658440078521
 30
0.0
 42
0.0416539519670256
 50
247.9141022391737
  0
VERTEX
  5
2E5
  8
0
 10
97.864957082014556
 20
173.91991685522879
 30
0.0
 42
0.0416539519669881
 50
90.0
  0
SEQEND
  5
2E6
  8
0
  0
LINE
  5
2E7
  8
0
 10
98.239957082014485
 20
180.71112310056611
 30
0.0
 11
107.9899570820144
 21
180.71112310056611
 31
0.0
  0
LINE
  5
2E8
  8
0
 10
98.239957082014485
 20
180.71112310056611
 30
0.0
 11
98.239957082014485
 21
180.2035751641954
 31
0.0
  0
LINE
  5
2F0
  8
2
 10
102.6399570820144
 20
175.2357722881583
 30
0.0
 11
102.1399570820144
 21
175.2357722881583
 31
0.0
  0
LINE
  5
2F1
  8
2
 10
97.239957082014413
 20
178.2357722881583
 30
0.0
 11
102.1399570820144
 21
175.2357722881583
 31
0.0
  0
LINE
  5
2F7
  8
2
 10
109.2399570820144
 20
160.73577228815839
 30
0.0
 11
109.2399570820144
 21
168.7357722881583
 31
0.0
  0
LINE
  5
2FB
  8
0
 10
98.239957082014485
 20
180.2035751641954
 30
0.0
 11
107.9899570820144
 21
180.2035751641954
 31
0.0
  0
LINE
  5
2FC
  8
0
 10
98.239957082014485
 20
179.65489239260421
 30
0.0
 11
107.9899570820144
 21
179.65489239260421
 31
0.0
  0
LINE
  5
2FD
  8
0
 10
98.239957082014485
 20
178.18193091179859
 30
0.0
 11
107.9899580356887
 21
178.18193091179859
 31
0.0
  0
LINE
  5
2FE
  8
0
 10
98.239957082014485
 20
177.1382742611971
 30
0.0
 11
108.0404159548312
 21
177.1382742611971
 31
0.0
  0
LINE
  5
2FF
  8
0
 10
98.239957082014485
 20
174.84408296842389
 30
0.0
 11
107.989959214495
 21
174.84408296842389
 31
0.0
  0
LINE
  5
300
  8
0
 10
98.239957082014485
 20
173.40761282335649
 30
0.0
 11
108.02739836514721
 21
173.40761282335649
 31
0.0
  0
LINE
  5
301
  8
0
 10
98.239957082014485
 20
170.51676314692301
 30
0.0
 11
107.9899580356887
 21
170.51676314692301
 31
0.0
  0
LINE
  5
302
  8
0
 10
98.239957082014485
 20
168.82809121366489
 30
0.0
 11
108.0242513784705
 21
168.82809121366489
 31
0.0
  0
LINE
  5
303
  8
0
 10
98.239957082014485
 20
165.62355966163449
 30
0.0
 11
107.9899570820144
 21
165.6235596616344
 31
0.0
  0
LINE
  5
304
  8
0
 10
119.2399570820144
 20
159.7357722881583
 30
0.0
 11
119.2399570820144
 21
169.73577228815839
 31
0.0
  0
LINE
  5
305
  8
0
 10
97.239957082014413
 20
149.7357722881583
 30
0.0
 11
97.239957082014485
 21
179.7357722881583
 31
0.0
  0
LINE
  5
306
  8
2
 10
97.239957082014413
 20
151.23577228815839
 30
0.0
 11
102.1399570820144
 21
154.23577228815839
 31
0.0
  0
LINE
  5
307
  8
2
 10
102.1399570820144
 20
154.23577228815839
 30
0.0
 11
102.1399570820144
 21
175.2357722881583
 31
0.0
  0
LINE
  5
308
  8
2
 10
102.6399570820144
 20
154.23577228815839
 30
0.0
 11
102.1399570820144
 21
154.23577228815839
 31
0.0
  0
LINE
  5
309
  8
2
 10
102.6399570820144
 20
175.2357722881583
 30
0.0
 11
102.6399570820144
 21
154.23577228815839
 31
0.0
  0
LINE
  5
30B
  8
0
 10
119.2399570820144
 20
159.73577228815839
 30
0.0
 11
118.9399570820144
 21
159.7357722881583
 31
0.0
  0
LINE
  5
30D
  8
0
 10
109.2399570820145
 20
180.7357722881583
 30
0.0
 11
109.2399570820145
 21
148.73577228815839
 31
0.0
  0
LINE
  5
30E
  8
0
 10
117.9399570820145
 20
173.2357722881583
 30
0.0
 11
117.9399570820145
 21
156.23577228815839
 31
0.0
  0
LINE
  5
30F
  8
0
 10
108.3649570820143
 20
180.7357722881583
 30
0.0
 11
109.2399570820145
 21
180.7357722881583
 31
0.0
  0
LINE
  5
310
  8
0
 10
110.2399570820145
 20
179.7357722881583
 30
0.0
 11
110.2399570820145
 21
149.73577228815839
 31
0.0
  0
LINE
  5
311
  8
0
 10
110.2399570820145
 20
173.23577228815839
 30
0.0
 11
117.9399570820144
 21
173.2357722881583
 31
0.0
  0
LINE
  5
312
  8
0
 10
118.9399570820144
 20
172.2357722881583
 30
0.0
 11
118.9399570820144
 21
157.23577228815839
 31
0.0
  0
LINE
  5
313
  8
0
 10
118.9399570820144
 20
169.73577228815839
 30
0.0
 11
119.2399570820144
 21
169.73577228815839
 31
0.0
  0
LINE
  5
314
  8
0
 10
97.864957082024645
 20
180.3607722881685
 30
0.0
 11
97.239957082014485
 21
179.7357722881583
 31
0.0
  0
LINE
  5
315
  8
0
 10
109.2399570820145
 20
180.7357722881583
 30
0.0
 11
110.2399570820145
 21
179.7357722881583
 31
0.0
  0
LINE
  5
316
  8
0
 10
117.9399570820144
 20
173.2357722881583
 30
0.0
 11
118.9399570820144
 21
172.2357722881583
 31
0.0
  0
LINE
  5
317
  8
0
 10
117.9399570820144
 20
156.2357722881583
 30
0.0
 11
118.9399570820144
 21
157.23577228815839
 31
0.0
  0
LINE
  5
318
  8
0
 10
109.2399570820145
 20
148.73577228815839
 30
0.0
 11
110.2399570820145
 21
149.73577228815839
 31
0.0
  0
LINE
  5
319
  8
0
 10
110.2399570820144
 20
156.2357722881583
 30
0.0
 11
117.9399570820144
 21
156.2357722881583
 31
0.0
  0
LINE
  5
31A
  8
1
 10
154.2399570820144
 20
164.7357722881583
 30
0.0
 11
92.239957082014456
 21
164.73577228815839
 31
0.0
  0
LINE
  5
31B
  8
0
 10
97.864957082024645
 20
39.110772288148183
 30
0.0
 11
97.239957082014456
 21
39.735772288158358
 31
0.0
  0
LINE
  5
31C
  8
0
 10
108.3649570820143
 20
38.735772288158358
 30
0.0
 11
109.2399570820144
 21
38.735772288158358
 31
0.0
  0
LINE
  5
31D
  8
0
 10
98.239957082014485
 20
53.847984914682279
 30
0.0
 11
107.9899570820144
 21
53.847984914682279
 31
0.0
  0
LINE
  5
31E
  8
0
 10
98.239957082014485
 20
50.643453362651833
 30
0.0
 11
108.0242513784705
 21
50.643453362651833
 31
0.0
  0
LINE
  5
31F
  8
0
 10
98.239957082014485
 20
48.954781429393726
 30
0.0
 11
107.9899580356887
 21
48.954781429393726
 31
0.0
  0
LINE
  5
320
  8
0
 10
98.239957082014485
 20
46.063931752960258
 30
0.0
 11
108.02739836514721
 21
46.063931752960258
 31
0.0
  0
LINE
  5
321
  8
0
 10
98.239957082014485
 20
44.627461607892791
 30
0.0
 11
107.989959214495
 21
44.627461607892791
 31
0.0
  0
LINE
  5
322
  8
0
 10
98.239957082014485
 20
42.333270315119613
 30
0.0
 11
108.0404159548312
 21
42.333270315119613
 31
0.0
  0
LINE
  5
323
  8
0
 10
98.239957082014485
 20
41.28961366451815
 30
0.0
 11
107.9899580356887
 21
41.28961366451815
 31
0.0
  0
LINE
  5
324
  8
0
 10
98.239957082014485
 20
39.816652183712527
 30
0.0
 11
107.9899570820144
 21
39.816652183712527
 31
0.0
  0
LINE
  5
325
  8
0
 10
98.239957082014485
 20
39.267969412121289
 30
0.0
 11
107.9899570820144
 21
39.267969412121289
 31
0.0
  0
LINE
  5
326
  8
0
 10
98.239957082014485
 20
38.760421475750633
 30
0.0
 11
98.239957082014485
 21
39.267969412121317
 31
0.0
  0
LINE
  5
327
  8
0
 10
98.239957082014485
 20
38.760421475750633
 30
0.0
 11
107.9899570820144
 21
38.760421475750633
 31
0.0
  0
POLYLINE
  5
328
  8
0
 66
     1
 10
0.0
 20
0.0
 30
0.0
  0
VERTEX
  5
329
  8
0
 10
98.239957082014456
 20
44.627461607892791
 30
0.0
 42
-0.2015894264067176
 50
90.0
  0
VERTEX
  5
32A
  8
0
 10
98.118890061748004
 20
44.678340918776001
 30
0.0
 42
-0.0977170379735125
 50
90.0
  0
VERTEX
  5
32B
  8
0
 10
97.974792039069584
 20
44.898143595504848
 30
0.0
 42
-0.0547927573384048
 70
     2
 50
112.0858977608263
  0
VERTEX
  5
32C
  8
0
 10
97.89639100519716
 20
45.174960175531481
 30
0.0
 42
-0.0416539519670256
 50
90.0
  0
VERTEX
  5
32D
  8
0
 10
97.864957082014556
 20
45.551627721087947
 30
0.0
 42
-0.0416539519669881
 50
90.0
  0
SEQEND
  5
32E
  8
0
  0
POLYLINE
  5
32F
  8
0
 66
     1
 10
0.0
 20
0.0
 30
0.0
  0
VERTEX
  5
330
  8
0
 10
97.864957082014556
 20
45.551627721087932
 30
0.0
 42
-0.0737304435607645
 50
90.0
  0
VERTEX
  5
331
  8
0
 10
97.894965409451316
 20
45.754021707728697
 30
0.0
 42
-0.0845717212532976
 50
90.0
  0
VERTEX
  5
332
  8
0
 10
97.974792039069541
 20
45.913881376054029
 30
0.0
 42
-0.1063921108588694
 70
     2
 50
53.796349352970111
  0
VERTEX
  5
333
  8
0
 10
98.112069137641086
 20
46.035977806038908
 30
0.0
 42
-0.1510088585334486
 50
90.0
  0
VERTEX
  5
334
  8
0
 10
98.239957082014485
 20
46.063931752963413
 30
0.0
 42
-0.1294534172461018
 50
90.0
  0
SEQEND
  5
335
  8
0
  0
POLYLINE
  5
336
  8
0
 66
     1
 10
0.0
 20
0.0
 30
0.0
  0
VERTEX
  5
337
  8
0
 10
97.864957082014556
 20
49.90738175104957
 30
0.0
 42
-0.0520405140106174
 50
90.0
  0
VERTEX
  5
338
  8
0
 10
97.895998926969483
 20
50.204820943861961
 30
0.0
 42
-0.0658985238271168
 50
90.0
  0
VERTEX
  5
339
  8
0
 10
97.974792039069584
 20
50.427862979052442
 30
0.0
 42
-0.1046205348859841
 70
     2
 50
63.002918032980951
  0
VERTEX
  5
33A
  8
0
 10
98.120329188292317
 20
50.607957198774891
 30
0.0
 42
-0.1996909920929194
 50
90.0
  0
VERTEX
  5
33B
  8
0
 10
98.239957082014485
 20
50.643453362651833
 30
0.0
 42
-0.172337143622725
 50
90.0
  0
SEQEND
  5
33C
  8
0
  0
POLYLINE
  5
33D
  8
0
 66
     1
 10
0.0
 20
0.0
 30
0.0
  0
VERTEX
  5
33E
  8
0
 10
98.239957082014485
 20
48.954781429393726
 30
0.0
 42
-0.2055316714992537
 50
90.0
  0
VERTEX
  5
33F
  8
0
 10
98.119760096503626
 20
49.00636924186329
 30
0.0
 42
-0.0965313913509376
 50
90.0
  0
VERTEX
  5
340
  8
0
 10
97.974792039069385
 20
49.233791603846207
 30
0.0
 42
-0.0533986296957384
 70
     2
 50
111.4875419756076
  0
VERTEX
  5
341
  8
0
 10
97.896432240679474
 20
49.51877397873838
 30
0.0
 42
-0.0404311354471943
 50
90.0
  0
VERTEX
  5
342
  8
0
 10
97.864957082014257
 20
49.90738175104957
 30
0.0
 42
-0.0404311354471791
 50
90.0
  0
SEQEND
  5
343
  8
0
  0
LINE
  5
344
  8
0
 10
98.239957082014485
 20
46.063931752960258
 30
0.0
 11
98.239957082014456
 21
48.954781429393712
 31
0.0
  0
LINE
  5
345
  8
0
 10
98.239957082014456
 20
50.643453362651798
 30
0.0
 11
98.239957082014485
 21
53.847984914682257
 31
0.0
  0
POLYLINE
  5
346
  8
0
 66
     1
 10
0.0
 20
0.0
 30
0.0
  0
VERTEX
  5
347
  8
0
 10
97.864957082014556
 20
42.09488175104908
 30
0.0
 42
-0.1453834159301123
 50
90.0
  0
VERTEX
  5
348
  8
0
 10
97.890174211312114
 20
42.179774967310401
 30
0.0
 42
-0.1071699662217274
 50
90.0
  0
VERTEX
  5
349
  8
0
 10
97.974792039069584
 20
42.263447921260671
 30
0.0
 42
-0.077350332773411
 70
     2
 50
32.444236112090998
  0
VERTEX
  5
34A
  8
0
 10
98.103256594597624
 20
42.319567779514983
 30
0.0
 42
-0.0789475685392101
 50
90.0
  0
VERTEX
  5
34B
  8
0
 10
98.239957082014485
 20
42.333270315117971
 30
0.0
 42
-0.0644571111103437
 50
90.0
  0
SEQEND
  5
34C
  8
0
  0
POLYLINE
  5
34D
  8
0
 66
     1
 10
0.0
 20
0.0
 30
0.0
  0
VERTEX
  5
34E
  8
0
 10
98.239957082014485
 20
41.28961366451815
 30
0.0
 42
-0.1837701506072527
 50
90.0
  0
VERTEX
  5
34F
  8
0
 10
98.114939918823183
 20
41.337168507194228
 30
0.0
 42
-0.1023570990015804
 50
90.0
  0
VERTEX
  5
350
  8
0
 10
97.974792039066173
 20
41.525471226389953
 30
0.0
 42
-0.06139380527182
 70
     2
 50
114.9706150338103
  0
VERTEX
  5
351
  8
0
 10
97.896172655572542
 20
41.768240716692581
 30
0.0
 42
-0.0476740870733025
 50
90.0
  0
VERTEX
  5
352
  8
0
 10
97.864957082009767
 20
42.09488175104908
 30
0.0
 42
-0.0476740870732675
 50
90.0
  0
SEQEND
  5
353
  8
0
  0
LINE
  5
354
  8
0
 10
98.239957082014485
 20
42.333270315119613
 30
0.0
 11
98.239957082014485
 21
44.627461607892791
 31
0.0
  0
POLYLINE
  5
355
  8
0
 66
     1
 10
0.0
 20
0.0
 30
0.0
  0
VERTEX
  5
356
  8
0
 10
98.239957082014485
 20
39.267969412121317
 30
0.0
 42
-0.1488470320745859
 50
90.0
  0
VERTEX
  5
357
  8
0
 10
98.107179394228154
 20
39.30839212456479
 30
0.0
 42
-0.1070939314374275
 50
90.0
  0
VERTEX
  5
358
  8
0
 10
97.974792039069584
 20
39.445915166780587
 30
0.0
 42
-0.0758177480846394
 70
     2
 50
121.6844788417775
  0
VERTEX
  5
359
  8
0
 10
97.895526439667364
 20
39.632535523606947
 30
0.0
 42
-0.0626584555913342
 50
90.0
  0
VERTEX
  5
35A
  8
0
 10
97.864957082014556
 20
39.875514221045727
 30
0.0
 42
-0.0626584555913199
 50
90.0
  0
SEQEND
  5
35B
  8
0
  0
POLYLINE
  5
35C
  8
0
 66
     1
 10
0.0
 20
0.0
 30
0.0
  0
VERTEX
  5
35D
  8
0
 10
97.864957082014556
 20
39.875514221045727
 30
0.0
 42
-0.0162328826952284
 50
90.0
  0
VERTEX
  5
35E
  8
0
 10
98.019894685410236
 20
39.870482727332529
 30
0.0
 42
-0.0226962008047463
 50
90.0
  0
VERTEX
  5
35F
  8
0
 10
98.130122124959456
 20
39.858273929465298
 30
0.0
 42
-0.0516790455059756
 70
     2
 50
351.07933085030118
  0
VERTEX
  5
360
  8
0
 10
98.232378138806794
 20
39.83118532839282
 30
0.0
 50
90.0
  0
VERTEX
  5
361
  8
0
 10
98.239957082014485
 20
39.816652183712563
 30
0.0
 50
90.0
  0
SEQEND
  5
362
  8
0
  0
LINE
  5
363
  8
0
 10
98.239957082014485
 20
39.816652183712563
 30
0.0
 11
98.239957082014485
 21
41.28961366451815
 31
0.0
  0
POLYLINE
  5
364
  8
0
 66
     1
 10
0.0
 20
0.0
 30
0.0
  0
VERTEX
  5
365
  8
0
 10
97.864957082014556
 20
39.110772288158252
 30
0.0
 42
-0.092572595455409
 50
90.0
  0
VERTEX
  5
366
  8
0
 10
98.009630234834034
 20
39.083755221900759
 30
0.0
 42
-0.0958395211622397
 50
90.0
  0
VERTEX
  5
367
  8
0
 10
98.130122124959456
 20
39.008156910998281
 30
0.0
 42
-0.1008530118927434
 70
     2
 50
316.94630119341338
  0
VERTEX
  5
368
  8
0
 10
98.218619446572575
 20
38.8837594503145
 30
0.0
 42
-0.1236287328816281
 50
90.0
  0
VERTEX
  5
369
  8
0
 10
98.239957082009823
 20
38.760421475750633
 30
0.0
 42
-0.1047089114758273
 50
90.0
  0
SEQEND
  5
36A
  8
0
  0
POLYLINE
  5
36B
  8
0
 66
     1
 10
0.0
 20
0.0
 30
0.0
  0
VERTEX
  5
36C
  8
0
 10
108.3649570820143
 20
39.875514221045727
 30
0.0
 42
0.0162328826952284
 50
90.0
  0
VERTEX
  5
36D
  8
0
 10
108.21001947861861
 20
39.870482727332529
 30
0.0
 42
0.0226962008047463
 50
90.0
  0
VERTEX
  5
36E
  8
0
 10
108.0997920390694
 20
39.858273929465298
 30
0.0
 42
0.0516790455059756
 70
     2
 50
188.92066914969891
  0
VERTEX
  5
36F
  8
0
 10
107.9975360252221
 20
39.83118532839282
 30
0.0
 50
90.0
  0
VERTEX
  5
370
  8
0
 10
107.9899570820144
 20
39.816652183712563
 30
0.0
 50
90.0
  0
SEQEND
  5
371
  8
0
  0
POLYLINE
  5
372
  8
0
 66
     1
 10
0.0
 20
0.0
 30
0.0
  0
VERTEX
  5
373
  8
0
 10
107.9899570820144
 20
39.267969412121317
 30
0.0
 42
0.1488470320745859
 50
90.0
  0
VERTEX
  5
374
  8
0
 10
108.1227347698007
 20
39.30839212456479
 30
0.0
 42
0.1070939314374275
 50
90.0
  0
VERTEX
  5
375
  8
0
 10
108.2551221249593
 20
39.445915166780587
 30
0.0
 42
0.0758177480846394
 70
     2
 50
58.315521158222467
  0
VERTEX
  5
376
  8
0
 10
108.33438772436151
 20
39.632535523606947
 30
0.0
 42
0.0626584555913342
 50
90.0
  0
VERTEX
  5
377
  8
0
 10
108.3649570820143
 20
39.875514221045727
 30
0.0
 42
0.0626584555913199
 50
90.0
  0
SEQEND
  5
378
  8
0
  0
POLYLINE
  5
379
  8
0
 66
     1
 10
0.0
 20
0.0
 30
0.0
  0
VERTEX
  5
37A
  8
0
 10
107.9899570820144
 20
41.28961366451815
 30
0.0
 42
0.1837701506072527
 50
90.0
  0
VERTEX
  5
37B
  8
0
 10
108.1149742452057
 20
41.337168507194228
 30
0.0
 42
0.1023570990015804
 50
90.0
  0
VERTEX
  5
37C
  8
0
 10
108.2551221249627
 20
41.525471226389953
 30
0.0
 42
0.06139380527182
 70
     2
 50
65.029384966189681
  0
VERTEX
  5
37D
  8
0
 10
108.3337415084563
 20
41.768240716692581
 30
0.0
 42
0.0476740870733025
 50
90.0
  0
VERTEX
  5
37E
  8
0
 10
108.3649570820191
 20
42.09488175104908
 30
0.0
 42
0.0476740870732675
 50
90.0
  0
SEQEND
  5
37F
  8
0
  0
POLYLINE
  5
380
  8
0
 66
     1
 10
0.0
 20
0.0
 30
0.0
  0
VERTEX
  5
381
  8
0
 10
108.3649570820143
 20
42.09488175104908
 30
0.0
 42
0.1453834159301123
 50
90.0
  0
VERTEX
  5
382
  8
0
 10
108.3397399527167
 20
42.179774967310401
 30
0.0
 42
0.1071699662217274
 50
90.0
  0
VERTEX
  5
383
  8
0
 10
108.2551221249593
 20
42.263447921260671
 30
0.0
 42
0.077350332773411
 70
     2
 50
147.555763887909
  0
VERTEX
  5
384
  8
0
 10
108.1266575694312
 20
42.319567779514983
 30
0.0
 42
0.0789475685392101
 50
90.0
  0
VERTEX
  5
385
  8
0
 10
107.9899570820144
 20
42.333270315117971
 30
0.0
 42
0.0644571111103437
 50
90.0
  0
SEQEND
  5
386
  8
0
  0
POLYLINE
  5
387
  8
0
 66
     1
 10
0.0
 20
0.0
 30
0.0
  0
VERTEX
  5
388
  8
0
 10
107.9899570820144
 20
48.954781429393726
 30
0.0
 42
0.2055316714992537
 50
90.0
  0
VERTEX
  5
389
  8
0
 10
108.1101540675252
 20
49.00636924186329
 30
0.0
 42
0.0965313913509376
 50
90.0
  0
VERTEX
  5
38A
  8
0
 10
108.2551221249595
 20
49.233791603846207
 30
0.0
 42
0.0533986296957384
 70
     2
 50
68.512458024392416
  0
VERTEX
  5
38B
  8
0
 10
108.3334819233494
 20
49.51877397873838
 30
0.0
 42
0.0404311354471943
 50
90.0
  0
VERTEX
  5
38C
  8
0
 10
108.3649570820146
 20
49.90738175104957
 30
0.0
 42
0.0404311354471791
 50
90.0
  0
SEQEND
  5
38D
  8
0
  0
POLYLINE
  5
38E
  8
0
 66
     1
 10
0.0
 20
0.0
 30
0.0
  0
VERTEX
  5
38F
  8
0
 10
108.3649570820143
 20
49.90738175104957
 30
0.0
 42
0.0520405140106174
 50
90.0
  0
VERTEX
  5
390
  8
0
 10
108.3339152370594
 20
50.204820943861961
 30
0.0
 42
0.0658985238271168
 50
90.0
  0
VERTEX
  5
391
  8
0
 10
108.2551221249593
 20
50.427862979052442
 30
0.0
 42
0.1046205348859841
 70
     2
 50
116.9970819670191
  0
VERTEX
  5
392
  8
0
 10
108.1095849757366
 20
50.607957198774891
 30
0.0
 42
0.1996909920929194
 50
90.0
  0
VERTEX
  5
393
  8
0
 10
107.9899570820144
 20
50.643453362651833
 30
0.0
 42
0.172337143622725
 50
90.0
  0
SEQEND
  5
394
  8
0
  0
POLYLINE
  5
395
  8
0
 66
     1
 10
0.0
 20
0.0
 30
0.0
  0
VERTEX
  5
396
  8
0
 10
108.3649570820143
 20
45.551627721087932
 30
0.0
 42
0.0737304435607645
 50
90.0
  0
VERTEX
  5
397
  8
0
 10
108.3349487545775
 20
45.754021707728697
 30
0.0
 42
0.0845717212532976
 50
90.0
  0
VERTEX
  5
398
  8
0
 10
108.2551221249593
 20
45.913881376054029
 30
0.0
 42
0.1063921108588694
 70
     2
 50
126.2036506470299
  0
VERTEX
  5
399
  8
0
 10
108.1178450263878
 20
46.035977806038908
 30
0.0
 42
0.1510088585334486
 50
90.0
  0
VERTEX
  5
39A
  8
0
 10
107.9899570820144
 20
46.063931752963413
 30
0.0
 42
0.1294534172461018
 50
90.0
  0
SEQEND
  5
39B
  8
0
  0
POLYLINE
  5
39C
  8
0
 66
     1
 10
0.0
 20
0.0
 30
0.0
  0
VERTEX
  5
39D
  8
0
 10
107.9899570820144
 20
44.627461607892791
 30
0.0
 42
0.2015894264067176
 50
90.0
  0
VERTEX
  5
39E
  8
0
 10
108.11102410228089
 20
44.678340918776001
 30
0.0
 42
0.0977170379735125
 50
90.0
  0
VERTEX
  5
39F
  8
0
 10
108.2551221249593
 20
44.898143595504848
 30
0.0
 42
0.0547927573384048
 70
     2
 50
67.914102239173715
  0
VERTEX
  5
3A0
  8
0
 10
108.3335231588317
 20
45.174960175531481
 30
0.0
 42
0.0416539519670256
 50
90.0
  0
VERTEX
  5
3A1
  8
0
 10
108.3649570820143
 20
45.551627721087947
 30
0.0
 42
0.0416539519669881
 50
90.0
  0
SEQEND
  5
3A2
  8
0
  0
POLYLINE
  5
3A3
  8
0
 66
     1
 10
0.0
 20
0.0
 30
0.0
  0
VERTEX
  5
3A4
  8
0
 10
107.9899570820144
 20
38.760421475750633
 30
0.0
 42
-0.0068051090718327
 50
90.0
  0
VERTEX
  5
3A5
  8
0
 10
108.1452177902263
 20
38.758308245780093
 30
0.0
 42
-0.0096044777403865
 50
90.0
  0
VERTEX
  5
3A6
  8
0
 10
108.2551221249593
 20
38.753201895855597
 30
0.0
 42
-0.0229390352869734
 70
     2
 50
356.23929148249317
  0
VERTEX
  5
3A7
  8
0
 10
108.3617370478336
 20
38.741264091638207
 30
0.0
 50
90.0
  0
VERTEX
  5
3A8
  8
0
 10
108.3649570820143
 20
38.735772288158358
 30
0.0
 50
90.0
  0
SEQEND
  5
3A9
  8
0
  0
POLYLINE
  5
3AA
  8
0
 66
     1
 10
0.0
 20
0.0
 30
0.0
  0
VERTEX
  5
3AB
  8
0
 10
107.9899570820144
 20
70.711123100566112
 30
0.0
 42
0.0068051090718327
 50
90.0
  0
VERTEX
  5
3AC
  8
0
 10
108.1452177902263
 20
70.713236330536645
 30
0.0
 42
0.0096044777403865
 50
90.0
  0
VERTEX
  5
3AD
  8
0
 10
108.2551221249593
 20
70.718342680461149
 30
0.0
 42
0.0229390352869734
 70
     2
 50
3.7607085175068882
  0
VERTEX
  5
3AE
  8
0
 10
108.3617370478336
 20
70.730280484678531
 30
0.0
 50
3.7607085175068882
  0
VERTEX
  5
3AF
  8
0
 10
108.3649570820143
 20
70.735772288158387
 30
0.0
 50
90.0
  0
SEQEND
  5
3B0
  8
0
  0
POLYLINE
  5
3B1
  8
0
 66
     1
 10
0.0
 20
0.0
 30
0.0
  0
VERTEX
  5
3B2
  8
0
 10
107.9899570820144
 20
64.844082968423947
 30
0.0
 42
-0.2015894264067176
 50
90.0
  0
VERTEX
  5
3B3
  8
0
 10
108.11102410228089
 20
64.793203657540744
 30
0.0
 42
-0.0977170379735125
 50
90.0
  0
VERTEX
  5
3B4
  8
0
 10
108.2551221249593
 20
64.573400980811897
 30
0.0
 42
-0.0547927573384048
 70
     2
 50
292.08589776082619
  0
VERTEX
  5
3B5
  8
0
 10
108.3335231588317
 20
64.296584400785264
 30
0.0
 42
-0.0416539519670256
 50
90.0
  0
VERTEX
  5
3B6
  8
0
 10
108.3649570820143
 20
63.919916855228792
 30
0.0
 42
-0.0416539519669881
 50
90.0
  0
SEQEND
  5
3B7
  8
0
  0
POLYLINE
  5
3B8
  8
0
 66
     1
 10
0.0
 20
0.0
 30
0.0
  0
VERTEX
  5
3B9
  8
0
 10
108.3649570820143
 20
63.919916855228813
 30
0.0
 42
-0.0737304435607645
 50
90.0
  0
VERTEX
  5
3BA
  8
0
 10
108.3349487545775
 20
63.717522868588048
 30
0.0
 42
-0.0845717212532976
 50
90.0
  0
VERTEX
  5
3BB
  8
0
 10
108.2551221249593
 20
63.557663200262709
 30
0.0
 42
-0.1063921108588694
 70
     2
 50
233.79634935297011
  0
VERTEX
  5
3BC
  8
0
 10
108.1178450263878
 20
63.435566770277831
 30
0.0
 42
-0.1510088585334486
 50
90.0
  0
VERTEX
  5
3BD
  8
0
 10
107.9899570820144
 20
63.407612823353332
 30
0.0
 42
-0.1294534172461018
 50
90.0
  0
SEQEND
  5
3BE
  8
0
  0
POLYLINE
  5
3BF
  8
0
 66
     1
 10
0.0
 20
0.0
 30
0.0
  0
VERTEX
  5
3C0
  8
0
 10
108.3649570820143
 20
59.564162825267211
 30
0.0
 42
-0.0520405140106174
 50
90.0
  0
VERTEX
  5
3C1
  8
0
 10
108.3339152370594
 20
59.266723632454777
 30
0.0
 42
-0.0658985238271168
 50
90.0
  0
VERTEX
  5
3C2
  8
0
 10
108.2551221249593
 20
59.04368159726431
 30
0.0
 42
-0.1046205348859841
 70
     2
 50
243.00291803298089
  0
VERTEX
  5
3C3
  8
0
 10
108.1095849757366
 20
58.863587377541847
 30
0.0
 42
-0.1996909920929194
 50
90.0
  0
VERTEX
  5
3C4
  8
0
 10
107.9899570820144
 20
58.828091213664912
 30
0.0
 42
-0.172337143622725
 50
90.0
  0
SEQEND
  5
3C5
  8
0
  0
POLYLINE
  5
3C6
  8
0
 66
     1
 10
0.0
 20
0.0
 30
0.0
  0
VERTEX
  5
3C7
  8
0
 10
107.9899570820144
 20
60.51676314692304
 30
0.0
 42
-0.2055316714992537
 50
90.0
  0
VERTEX
  5
3C8
  8
0
 10
108.1101540675252
 20
60.465175334453477
 30
0.0
 42
-0.0965313913509376
 50
90.0
  0
VERTEX
  5
3C9
  8
0
 10
108.2551221249595
 20
60.237752972470531
 30
0.0
 42
-0.0533986296957384
 70
     2
 50
291.4875419756076
  0
VERTEX
  5
3CA
  8
0
 10
108.3334819233494
 20
59.952770597578358
 30
0.0
 42
-0.0404311354471943
 50
90.0
  0
VERTEX
  5
3CB
  8
0
 10
108.3649570820146
 20
59.564162825267211
 30
0.0
 42
-0.0404311354471791
 50
90.0
  0
SEQEND
  5
3CC
  8
0
  0
POLYLINE
  5
3CD
  8
0
 66
     1
 10
0.0
 20
0.0
 30
0.0
  0
VERTEX
  5
3CE
  8
0
 10
108.3649570820143
 20
54.73577228815838
 30
0.0
 42
-0.0433295665536456
 50
90.0
  0
VERTEX
  5
3CF
  8
0
 10
108.3335813956885
 20
54.374393413495731
 30
0.0
 42
-0.0566743414169658
 50
90.0
  0
VERTEX
  5
3D0
  8
0
 10
108.2551221249593
 20
54.108011816121632
 30
0.0
 42
-0.0992025570697266
 70
     2
 50
247.10088003611941
  0
VERTEX
  5
3D1
  8
0
 10
108.1047092310112
 20
53.886933585696113
 30
0.0
 42
-0.2280338981645266
 50
90.0
  0
VERTEX
  5
3D2
  8
0
 10
107.9899570820144
 20
53.84798491469968
 30
0.0
 42
-0.1963710675046459
 50
90.0
  0
SEQEND
  5
3D3
  8
0
  0
POLYLINE
  5
3D4
  8
0
 66
     1
 10
0.0
 20
0.0
 30
0.0
  0
VERTEX
  5
3D5
  8
0
 10
107.9899570820144
 20
55.623559661634481
 30
0.0
 42
-0.1963710675046226
 50
90.0
  0
VERTEX
  5
3D6
  8
0
 10
108.1121782041341
 20
55.573633026446572
 30
0.0
 42
-0.0992025570696904
 50
90.0
  0
VERTEX
  5
3D7
  8
0
 10
108.2551221249593
 20
55.363532760195113
 30
0.0
 42
-0.0566743414169369
 70
     2
 50
292.89911996387622
  0
VERTEX
  5
3D8
  8
0
 10
108.3335813956885
 20
55.097151162821149
 30
0.0
 42
-0.0433295665536664
 50
90.0
  0
VERTEX
  5
3D9
  8
0
 10
108.3649570820143
 20
54.73577228815838
 30
0.0
 42
-0.0433295665536456
 50
90.0
  0
SEQEND
  5
3DA
  8
0
  0
POLYLINE
  5
3DB
  8
0
 66
     1
 10
0.0
 20
0.0
 30
0.0
  0
VERTEX
  5
3DC
  8
0
 10
108.3649570820143
 20
67.376662825267658
 30
0.0
 42
-0.1453834159301123
 50
90.0
  0
VERTEX
  5
3DD
  8
0
 10
108.3397399527167
 20
67.291769609006337
 30
0.0
 42
-0.1071699662217274
 50
90.0
  0
VERTEX
  5
3DE
  8
0
 10
108.2551221249593
 20
67.208096655056067
 30
0.0
 42
-0.077350332773411
 70
     2
 50
212.444236112091
  0
VERTEX
  5
3DF
  8
0
 10
108.1266575694312
 20
67.151976796801762
 30
0.0
 42
-0.0789475685392101
 50
90.0
  0
VERTEX
  5
3E0
  8
0
 10
107.9899570820144
 20
67.138274261198774
 30
0.0
 42
-0.0644571111103437
 50
90.0
  0
SEQEND
  5
3E1
  8
0
  0
POLYLINE
  5
3E2
  8
0
 66
     1
 10
0.0
 20
0.0
 30
0.0
  0
VERTEX
  5
3E3
  8
0
 10
107.9899570820144
 20
68.181930911798588
 30
0.0
 42
-0.1837701506072527
 50
90.0
  0
VERTEX
  5
3E4
  8
0
 10
108.1149742452057
 20
68.13437606912251
 30
0.0
 42
-0.1023570990015804
 50
90.0
  0
VERTEX
  5
3E5
  8
0
 10
108.2551221249627
 20
67.946073349926792
 30
0.0
 42
-0.06139380527182
 70
     2
 50
294.9706150338103
  0
VERTEX
  5
3E6
  8
0
 10
108.3337415084563
 20
67.703303859624157
 30
0.0
 42
-0.0476740870733025
 50
90.0
  0
VERTEX
  5
3E7
  8
0
 10
108.3649570820191
 20
67.376662825267658
 30
0.0
 42
-0.0476740870732675
 50
90.0
  0
SEQEND
  5
3E8
  8
0
  0
POLYLINE
  5
3E9
  8
0
 66
     1
 10
0.0
 20
0.0
 30
0.0
  0
VERTEX
  5
3EA
  8
0
 10
107.9899570820144
 20
70.203575164195428
 30
0.0
 42
-0.1488470320745859
 50
90.0
  0
VERTEX
  5
3EB
  8
0
 10
108.1227347698007
 20
70.163152451751955
 30
0.0
 42
-0.1070939314374275
 50
90.0
  0
VERTEX
  5
3EC
  8
0
 10
108.2551221249593
 20
70.025629409536151
 30
0.0
 42
-0.0758177480846394
 70
     2
 50
301.68447884177749
  0
VERTEX
  5
3ED
  8
0
 10
108.33438772436151
 20
69.839009052709798
 30
0.0
 42
-0.0626584555913342
 50
90.0
  0
VERTEX
  5
3EE
  8
0
 10
108.3649570820143
 20
69.596030355271012
 30
0.0
 42
-0.0626584555913199
 50
90.0
  0
SEQEND
  5
3EF
  8
0
  0
POLYLINE
  5
3F0
  8
0
 66
     1
 10
0.0
 20
0.0
 30
0.0
  0
VERTEX
  5
3F1
  8
0
 10
108.3649570820143
 20
69.596030355271012
 30
0.0
 42
-0.0162328826952284
 50
90.0
  0
VERTEX
  5
3F2
  8
0
 10
108.21001947861861
 20
69.601061848984216
 30
0.0
 42
-0.0226962008047463
 50
90.0
  0
VERTEX
  5
3F3
  8
0
 10
108.0997920390694
 20
69.613270646851447
 30
0.0
 42
-0.0516790455059756
 70
     2
 50
171.07933085030109
  0
VERTEX
  5
3F4
  8
0
 10
107.9975360252221
 20
69.640359247923925
 30
0.0
 50
90.0
  0
VERTEX
  5
3F5
  8
0
 10
107.9899570820144
 20
69.654892392604182
 30
0.0
 50
90.0
  0
SEQEND
  5
3F6
  8
0
  0
POLYLINE
  5
3F7
  8
0
 66
     1
 10
0.0
 20
0.0
 30
0.0
  0
VERTEX
  5
3F8
  8
0
 10
97.864957082014556
 20
70.3607722881585
 30
0.0
 42
0.092572595455409
 50
90.0
  0
VERTEX
  5
3F9
  8
0
 10
98.009630234834034
 20
70.387789354415986
 30
0.0
 42
0.0958395211622397
 50
90.0
  0
VERTEX
  5
3FA
  8
0
 10
98.130122124959456
 20
70.463387665318464
 30
0.0
 42
0.1008530118927434
 70
     2
 50
43.053698806586652
  0
VERTEX
  5
3FB
  8
0
 10
98.218619446572575
 20
70.587785126002245
 30
0.0
 42
0.1236287328816281
 50
43.053698806586652
  0
VERTEX
  5
3FC
  8
0
 10
98.239957082009823
 20
70.711123100566112
 30
0.0
 42
0.1047089114758273
 50
90.0
  0
SEQEND
  5
3FD
  8
0
  0
LINE
  5
3FE
  8
0
 10
98.239957082014485
 20
69.654892392604182
 30
0.0
 11
98.239957082014485
 21
68.181930911798588
 31
0.0
  0
POLYLINE
  5
3FF
  8
0
 66
     1
 10
0.0
 20
0.0
 30
0.0
  0
VERTEX
  5
400
  8
0
 10
97.864957082014556
 20
69.596030355271012
 30
0.0
 42
0.0162328826952284
 50
90.0
  0
VERTEX
  5
401
  8
0
 10
98.019894685410236
 20
69.601061848984216
 30
0.0
 42
0.0226962008047463
 50
90.0
  0
VERTEX
  5
402
  8
0
 10
98.130122124959456
 20
69.613270646851447
 30
0.0
 42
0.0516790455059756
 70
     2
 50
8.9206691496988508
  0
VERTEX
  5
403
  8
0
 10
98.232378138806794
 20
69.640359247923925
 30
0.0
 50
8.9206691496988508
  0
VERTEX
  5
404
  8
0
 10
98.239957082014485
 20
69.654892392604182
 30
0.0
 50
90.0
  0
SEQEND
  5
405
  8
0
  0
POLYLINE
  5
406
  8
0
 66
     1
 10
0.0
 20
0.0
 30
0.0
  0
VERTEX
  5
407
  8
0
 10
98.239957082014485
 20
70.203575164195428
 30
0.0
 42
0.1488470320745859
 50
90.0
  0
VERTEX
  5
408
  8
0
 10
98.107179394228154
 20
70.163152451751955
 30
0.0
 42
0.1070939314374275
 50
90.0
  0
VERTEX
  5
409
  8
0
 10
97.974792039069584
 20
70.025629409536151
 30
0.0
 42
0.0758177480846394
 70
     2
 50
238.31552115822251
  0
VERTEX
  5
40A
  8
0
 10
97.895526439667364
 20
69.839009052709798
 30
0.0
 42
0.0626584555913342
 50
238.31552115822251
  0
VERTEX
  5
40B
  8
0
 10
97.864957082014556
 20
69.596030355271012
 30
0.0
 42
0.0626584555913199
 50
90.0
  0
SEQEND
  5
40C
  8
0
  0
LINE
  5
40D
  8
0
 10
98.239957082014485
 20
67.138274261197125
 30
0.0
 11
98.239957082014485
 21
64.844082968423947
 31
0.0
  0
POLYLINE
  5
40E
  8
0
 66
     1
 10
0.0
 20
0.0
 30
0.0
  0
VERTEX
  5
40F
  8
0
 10
98.239957082014485
 20
68.181930911798588
 30
0.0
 42
0.1837701506072527
 50
90.0
  0
VERTEX
  5
410
  8
0
 10
98.114939918823183
 20
68.13437606912251
 30
0.0
 42
0.1023570990015804
 50
90.0
  0
VERTEX
  5
411
  8
0
 10
97.974792039066173
 20
67.946073349926792
 30
0.0
 42
0.06139380527182
 70
     2
 50
245.0293849661897
  0
VERTEX
  5
412
  8
0
 10
97.896172655572542
 20
67.703303859624157
 30
0.0
 42
0.0476740870733025
 50
245.0293849661897
  0
VERTEX
  5
413
  8
0
 10
97.864957082009767
 20
67.376662825267658
 30
0.0
 42
0.0476740870732675
 50
90.0
  0
SEQEND
  5
414
  8
0
  0
POLYLINE
  5
415
  8
0
 66
     1
 10
0.0
 20
0.0
 30
0.0
  0
VERTEX
  5
416
  8
0
 10
97.864957082014556
 20
67.376662825267658
 30
0.0
 42
0.1453834159301123
 50
90.0
  0
VERTEX
  5
417
  8
0
 10
97.890174211312114
 20
67.291769609006337
 30
0.0
 42
0.1071699662217274
 50
90.0
  0
VERTEX
  5
418
  8
0
 10
97.974792039069584
 20
67.208096655056067
 30
0.0
 42
0.077350332773411
 70
     2
 50
327.55576388790911
  0
VERTEX
  5
419
  8
0
 10
98.103256594597624
 20
67.151976796801762
 30
0.0
 42
0.0789475685392101
 50
327.55576388790911
  0
VERTEX
  5
41A
  8
0
 10
98.239957082014485
 20
67.138274261198774
 30
0.0
 42
0.0644571111103437
 50
90.0
  0
SEQEND
  5
41B
  8
0
  0
LINE
  5
41C
  8
0
 10
98.239957082014456
 20
58.828091213664948
 30
0.0
 11
98.239957082014485
 21
55.623559661634481
 31
0.0
  0
LINE
  5
41D
  8
0
 10
98.239957082014485
 20
63.40761282335648
 30
0.0
 11
98.239957082014456
 21
60.51676314692304
 31
0.0
  0
POLYLINE
  5
41E
  8
0
 66
     1
 10
0.0
 20
0.0
 30
0.0
  0
VERTEX
  5
41F
  8
0
 10
98.239957082014442
 20
55.623559661634481
 30
0.0
 42
0.1963710675046226
 50
90.0
  0
VERTEX
  5
420
  8
0
 10
98.117735959894759
 20
55.573633026446572
 30
0.0
 42
0.0992025570696904
 50
90.0
  0
VERTEX
  5
421
  8
0
 10
97.974792039069541
 20
55.363532760195113
 30
0.0
 42
0.0566743414169369
 70
     2
 50
247.10088003612381
  0
VERTEX
  5
422
  8
0
 10
97.896332768340386
 20
55.097151162821149
 30
0.0
 42
0.0433295665536664
 50
247.10088003612381
  0
VERTEX
  5
423
  8
0
 10
97.864957082014556
 20
54.73577228815838
 30
0.0
 42
0.0433295665536456
 50
90.0
  0
SEQEND
  5
424
  8
0
  0
POLYLINE
  5
425
  8
0
 66
     1
 10
0.0
 20
0.0
 30
0.0
  0
VERTEX
  5
426
  8
0
 10
97.864957082014556
 20
54.73577228815838
 30
0.0
 42
0.0433295665536456
 50
90.0
  0
VERTEX
  5
427
  8
0
 10
97.896332768340386
 20
54.374393413495731
 30
0.0
 42
0.0566743414169658
 50
90.0
  0
VERTEX
  5
428
  8
0
 10
97.974792039069584
 20
54.108011816121632
 30
0.0
 42
0.0992025570697266
 70
     2
 50
292.89911996388048
  0
VERTEX
  5
429
  8
0
 10
98.125204933017642
 20
53.886933585696113
 30
0.0
 42
0.2280338981645266
 50
292.89911996388048
  0
VERTEX
  5
42A
  8
0
 10
98.239957082014485
 20
53.84798491469968
 30
0.0
 42
0.1963710675046459
 50
90.0
  0
SEQEND
  5
42B
  8
0
  0
POLYLINE
  5
42C
  8
0
 66
     1
 10
0.0
 20
0.0
 30
0.0
  0
VERTEX
  5
42D
  8
0
 10
98.239957082014485
 20
60.51676314692304
 30
0.0
 42
0.2055316714992537
 50
90.0
  0
VERTEX
  5
42E
  8
0
 10
98.119760096503626
 20
60.465175334453477
 30
0.0
 42
0.0965313913509376
 50
90.0
  0
VERTEX
  5
42F
  8
0
 10
97.974792039069385
 20
60.237752972470531
 30
0.0
 42
0.0533986296957384
 70
     2
 50
248.5124580243924
  0
VERTEX
  5
430
  8
0
 10
97.896432240679474
 20
59.952770597578358
 30
0.0
 42
0.0404311354471943
 50
248.5124580243924
  0
VERTEX
  5
431
  8
0
 10
97.864957082014257
 20
59.564162825267211
 30
0.0
 42
0.0404311354471791
 50
90.0
  0
SEQEND
  5
432
  8
0
  0
POLYLINE
  5
433
  8
0
 66
     1
 10
0.0
 20
0.0
 30
0.0
  0
VERTEX
  5
434
  8
0
 10
97.864957082014556
 20
59.564162825267211
 30
0.0
 42
0.0520405140106174
 50
90.0
  0
VERTEX
  5
435
  8
0
 10
97.895998926969483
 20
59.266723632454777
 30
0.0
 42
0.0658985238271168
 50
90.0
  0
VERTEX
  5
436
  8
0
 10
97.974792039069584
 20
59.04368159726431
 30
0.0
 42
0.1046205348859841
 70
     2
 50
296.99708196701908
  0
VERTEX
  5
437
  8
0
 10
98.120329188292317
 20
58.863587377541847
 30
0.0
 42
0.1996909920929194
 50
296.99708196701908
  0
VERTEX
  5
438
  8
0
 10
98.239957082014485
 20
58.828091213664912
 30
0.0
 42
0.172337143622725
 50
90.0
  0
SEQEND
  5
439
  8
0
  0
POLYLINE
  5
43A
  8
0
 66
     1
 10
0.0
 20
0.0
 30
0.0
  0
VERTEX
  5
43B
  8
0
 10
97.864957082014556
 20
63.919916855228813
 30
0.0
 42
0.0737304435607645
 50
90.0
  0
VERTEX
  5
43C
  8
0
 10
97.894965409451316
 20
63.717522868588048
 30
0.0
 42
0.0845717212532976
 50
90.0
  0
VERTEX
  5
43D
  8
0
 10
97.974792039069541
 20
63.557663200262709
 30
0.0
 42
0.1063921108588694
 70
     2
 50
306.20365064702992
  0
VERTEX
  5
43E
  8
0
 10
98.112069137641086
 20
63.435566770277831
 30
0.0
 42
0.1510088585334486
 50
306.20365064702992
  0
VERTEX
  5
43F
  8
0
 10
98.239957082014485
 20
63.407612823353332
 30
0.0
 42
0.1294534172461018
 50
90.0
  0
SEQEND
  5
440
  8
0
  0
POLYLINE
  5
441
  8
0
 66
     1
 10
0.0
 20
0.0
 30
0.0
  0
VERTEX
  5
442
  8
0
 10
98.239957082014456
 20
64.844082968423947
 30
0.0
 42
0.2015894264067176
 50
90.0
  0
VERTEX
  5
443
  8
0
 10
98.118890061748004
 20
64.793203657540744
 30
0.0
 42
0.0977170379735125
 50
90.0
  0
VERTEX
  5
444
  8
0
 10
97.974792039069584
 20
64.573400980811897
 30
0.0
 42
0.0547927573384048
 70
     2
 50
247.9141022391737
  0
VERTEX
  5
445
  8
0
 10
97.89639100519716
 20
64.296584400785264
 30
0.0
 42
0.0416539519670256
 50
247.9141022391737
  0
VERTEX
  5
446
  8
0
 10
97.864957082014556
 20
63.919916855228792
 30
0.0
 42
0.0416539519669881
 50
90.0
  0
SEQEND
  5
447
  8
0
  0
LINE
  5
448
  8
0
 10
98.239957082014485
 20
70.711123100566112
 30
0.0
 11
107.9899570820144
 21
70.711123100566112
 31
0.0
  0
LINE
  5
449
  8
0
 10
98.239957082014485
 20
70.711123100566112
 30
0.0
 11
98.239957082014485
 21
70.203575164195428
 31
0.0
  0
LINE
  5
451
  8
2
 10
102.6399570820144
 20
65.235772288158358
 30
0.0
 11
102.1399570820144
 21
65.235772288158358
 31
0.0
  0
LINE
  5
452
  8
2
 10
97.239957082014413
 20
68.235772288158344
 30
0.0
 11
102.1399570820144
 21
65.235772288158358
 31
0.0
  0
LINE
  5
45C
  8
0
 10
98.239957082014485
 20
70.203575164195456
 30
0.0
 11
107.9899570820144
 21
70.203575164195456
 31
0.0
  0
LINE
  5
45D
  8
0
 10
98.239957082014485
 20
69.654892392604211
 30
0.0
 11
107.9899570820144
 21
69.654892392604211
 31
0.0
  0
LINE
  5
45E
  8
0
 10
98.239957082014485
 20
68.181930911798588
 30
0.0
 11
107.9899580356887
 21
68.181930911798588
 31
0.0
  0
LINE
  5
45F
  8
0
 10
98.239957082014485
 20
67.138274261197125
 30
0.0
 11
108.0404159548312
 21
67.138274261197125
 31
0.0
  0
LINE
  5
460
  8
0
 10
98.239957082014485
 20
64.844082968423947
 30
0.0
 11
107.989959214495
 21
64.844082968423947
 31
0.0
  0
LINE
  5
461
  8
0
 10
98.239957082014485
 20
63.40761282335648
 30
0.0
 11
108.02739836514721
 21
63.40761282335648
 31
0.0
  0
LINE
  5
462
  8
0
 10
98.239957082014485
 20
60.51676314692304
 30
0.0
 11
107.9899580356887
 21
60.51676314692304
 31
0.0
  0
LINE
  5
463
  8
0
 10
98.239957082014485
 20
58.828091213664912
 30
0.0
 11
108.0242513784705
 21
58.828091213664912
 31
0.0
  0
LINE
  5
464
  8
0
 10
98.239957082014485
 20
55.623559661634481
 30
0.0
 11
107.9899570820144
 21
55.623559661634459
 31
0.0
  0
LINE
  5
465
  8
0
 10
119.2399570820144
 20
49.735772288158358
 30
0.0
 11
119.2399570820144
 21
59.73577228815838
 31
0.0
  0
LINE
  5
466
  8
0
 10
97.239957082014413
 20
39.735772288158358
 30
0.0
 11
97.239957082014456
 21
69.735772288158387
 31
0.0
  0
LINE
  5
467
  8
2
 10
97.239957082014413
 20
41.235772288158387
 30
0.0
 11
102.1399570820144
 21
44.235772288158387
 31
0.0
  0
LINE
  5
468
  8
2
 10
102.1399570820144
 20
44.235772288158387
 30
0.0
 11
102.1399570820144
 21
65.235772288158358
 31
0.0
  0
LINE
  5
469
  8
2
 10
102.6399570820144
 20
44.235772288158387
 30
0.0
 11
102.1399570820144
 21
44.235772288158387
 31
0.0
  0
LINE
  5
46A
  8
2
 10
102.6399570820144
 20
65.235772288158358
 30
0.0
 11
102.6399570820144
 21
44.235772288158387
 31
0.0
  0
LINE
  5
46C
  8
0
 10
119.2399570820144
 20
49.73577228815838
 30
0.0
 11
118.9399570820144
 21
49.735772288158358
 31
0.0
  0
LINE
  5
46E
  8
0
 10
109.2399570820144
 20
70.735772288158387
 30
0.0
 11
109.2399570820144
 21
38.735772288158387
 31
0.0
  0
LINE
  5
46F
  8
0
 10
117.9399570820145
 20
63.235772288158351
 30
0.0
 11
117.9399570820145
 21
46.235772288158387
 31
0.0
  0
LINE
  5
470
  8
0
 10
108.3649570820143
 20
70.735772288158387
 30
0.0
 11
109.2399570820144
 21
70.735772288158387
 31
0.0
  0
LINE
  5
471
  8
0
 10
110.2399570820144
 20
69.735772288158387
 30
0.0
 11
110.2399570820144
 21
39.735772288158387
 31
0.0
  0
LINE
  5
472
  8
0
 10
110.2399570820144
 20
63.235772288158387
 30
0.0
 11
117.9399570820144
 21
63.235772288158351
 31
0.0
  0
LINE
  5
473
  8
0
 10
118.9399570820144
 20
62.235772288158358
 30
0.0
 11
118.9399570820144
 21
47.23577228815838
 31
0.0
  0
LINE
  5
474
  8
0
 10
118.9399570820144
 20
59.73577228815838
 30
0.0
 11
119.2399570820144
 21
59.73577228815838
 31
0.0
  0
LINE
  5
475
  8
0
 10
97.864957082024645
 20
70.360772288168562
 30
0.0
 11
97.239957082014456
 21
69.735772288158387
 31
0.0
  0
LINE
  5
476
  8
0
 10
109.2399570820144
 20
70.735772288158387
 30
0.0
 11
110.2399570820144
 21
69.735772288158387
 31
0.0
  0
LINE
  5
477
  8
0
 10
117.9399570820144
 20
63.235772288158351
 30
0.0
 11
118.9399570820144
 21
62.235772288158358
 31
0.0
  0
LINE
  5
478
  8
0
 10
117.9399570820144
 20
46.235772288158351
 30
0.0
 11
118.9399570820144
 21
47.23577228815838
 31
0.0
  0
LINE
  5
479
  8
0
 10
109.2399570820144
 20
38.735772288158387
 30
0.0
 11
110.2399570820144
 21
39.735772288158387
 31
0.0
  0
LINE
  5
47A
  8
0
 10
110.2399570820144
 20
46.235772288158351
 30
0.0
 11
117.9399570820144
 21
46.235772288158351
 31
0.0
  0
LINE
  5
47B
  8
1
 10
154.23995708201329
 20
54.73577228815838
 30
0.0
 11
92.239957082014371
 21
54.73577228815838
 31
0.0
  0
CIRCLE
  5
47C
  8
0
 10
205.23995708201389
 20
109.7357722881584
 30
0.0
 40
16.0
  0
LINE
  5
47D
  8
1
 10
205.23995708201389
 20
88.735772288158387
 30
0.0
 11
205.23995708201389
 21
130.73577228815839
 31
0.0
  0
LINE
  5
47E
  8
1
 10
226.23995708201389
 20
109.7357722881583
 30
0.0
 11
184.23995708201389
 21
109.7357722881584
 31
0.0
  0
CIRCLE
  5
481
  8
0
 10
205.23995708201389
 20
109.7357722881583
 30
0.0
 40
15.0
  0
CIRCLE
  5
482
  8
0
 10
205.23995708201389
 20
109.7357722881583
 30
0.0
 40
8.4999999999999858
  0
CIRCLE
  5
483
  8
0
 10
205.23995708201389
 20
109.7357722881583
 30
0.0
 40
7.4999999999999707
  0
CIRCLE
  5
484
  8
0
 10
205.23995708201389
 20
109.7357722881583
 30
0.0
 40
5.0
  0
LINE
  5
9A7
  8
3
 10
121.2399570820145
 20
161.41227228815819
 30
0.0
 11
120.06822471069439
 21
160.73577228815839
 31
0.0
  0
LINE
  5
9A8
  8
0
 10
121.2399570820145
 20
168.7357722881583
 30
0.0
 11
121.2399570820144
 21
160.7357722881583
 31
0.0
  0
LINE
  5
9A9
  8
0
 10
148.0399570820145
 20
168.7357722881583
 30
0.0
 11
148.03995708201441
 21
160.7357722881583
 31
0.0
  0
LINE
  5
9AA
  8
0
 10
149.2399570820144
 20
161.93577228815829
 30
0.0
 11
148.03995708201441
 21
160.7357722881583
 31
0.0
  0
LINE
  5
9AB
  8
3
 10
121.2399570820144
 20
161.41227228815819
 30
0.0
 11
148.7164570820143
 21
161.41227228815819
 31
0.0
  0
LINE
  5
9AC
  8
0
 10
119.2399570820144
 20
160.7357722881583
 30
0.0
 11
148.03995708201441
 21
160.7357722881583
 31
0.0
  0
LINE
  5
9AD
  8
0
 10
149.23995708201451
 20
167.53577228815831
 30
0.0
 11
149.2399570820144
 21
161.93577228815829
 31
0.0
  0
LINE
  5
9AE
  8
3
 10
121.2399570820145
 20
168.05927228815841
 30
0.0
 11
120.06822471069439
 21
168.7357722881583
 31
0.0
  0
LINE
  5
9AF
  8
0
 10
148.0399570820145
 20
168.7357722881583
 30
0.0
 11
149.23995708201451
 21
167.53577228815831
 31
0.0
  0
LINE
  5
9B0
  8
0
 10
119.2399570820145
 20
168.7357722881583
 30
0.0
 11
148.0399570820145
 21
168.7357722881583
 31
0.0
  0
LINE
  5
9B1
  8
3
 10
121.2399570820145
 20
168.05927228815841
 30
0.0
 11
148.7164570820143
 21
168.05927228815841
 31
0.0
  0
LINE
  5
9B5
  8
0
 10
149.23995708201451
 20
112.5357722881583
 30
0.0
 11
149.2399570820144
 21
106.9357722881583
 31
0.0
  0
LINE
  5
9B6
  8
0
 10
119.2399570820144
 20
105.7357722881583
 30
0.0
 11
148.03995708201441
 21
105.7357722881583
 31
0.0
  0
LINE
  5
9B7
  8
3
 10
121.2399570820144
 20
106.41227228815821
 30
0.0
 11
148.7164570820143
 21
106.41227228815821
 31
0.0
  0
LINE
  5
9B8
  8
0
 10
149.2399570820144
 20
106.9357722881583
 30
0.0
 11
148.03995708201441
 21
105.7357722881583
 31
0.0
  0
LINE
  5
9B9
  8
0
 10
148.0399570820145
 20
113.7357722881583
 30
0.0
 11
148.03995708201441
 21
105.7357722881583
 31
0.0
  0
LINE
  5
9BA
  8
0
 10
121.2399570820145
 20
113.7357722881583
 30
0.0
 11
121.2399570820144
 21
105.7357722881583
 31
0.0
  0
LINE
  5
9BB
  8
3
 10
121.2399570820144
 20
106.41227228815821
 30
0.0
 11
120.0682247106943
 21
105.7357722881584
 31
0.0
  0
LINE
  5
9BC
  8
3
 10
121.2399570820144
 20
113.0592722881585
 30
0.0
 11
148.7164570820143
 21
113.0592722881584
 31
0.0
  0
LINE
  5
9BD
  8
0
 10
119.2399570820145
 20
113.7357722881583
 30
0.0
 11
148.0399570820145
 21
113.7357722881583
 31
0.0
  0
LINE
  5
9BE
  8
0
 10
148.0399570820145
 20
113.7357722881583
 30
0.0
 11
149.23995708201451
 21
112.5357722881583
 31
0.0
  0
LINE
  5
9BF
  8
3
 10
121.2399570820144
 20
113.0592722881585
 30
0.0
 11
120.0682247106943
 21
113.7357722881583
 31
0.0
  0
LINE
  5
9C0
  8
3
 10
121.2399570820144
 20
51.412272288158263
 30
0.0
 11
120.0682247106943
 21
50.735772288158401
 31
0.0
  0
LINE
  5
9C1
  8
0
 10
121.2399570820145
 20
58.735772288158373
 30
0.0
 11
121.2399570820144
 21
50.735772288158337
 31
0.0
  0
LINE
  5
9C2
  8
0
 10
148.0399570820145
 20
58.735772288158373
 30
0.0
 11
148.03995708201441
 21
50.735772288158337
 31
0.0
  0
LINE
  5
9C3
  8
0
 10
149.2399570820144
 20
51.935772288158361
 30
0.0
 11
148.03995708201441
 21
50.735772288158337
 31
0.0
  0
LINE
  5
9C4
  8
3
 10
121.2399570820144
 20
51.412272288158263
 30
0.0
 11
148.7164570820143
 21
51.412272288158263
 31
0.0
  0
LINE
  5
9C5
  8
0
 10
119.2399570820144
 20
50.735772288158337
 30
0.0
 11
148.03995708201441
 21
50.735772288158337
 31
0.0
  0
LINE
  5
9C6
  8
0
 10
149.23995708201451
 20
57.535772288158348
 30
0.0
 11
149.2399570820144
 21
51.935772288158361
 31
0.0
  0
LINE
  5
9C7
  8
3
 10
121.2399570820144
 20
58.059272288158482
 30
0.0
 11
120.0682247106943
 21
58.735772288158373
 31
0.0
  0
LINE
  5
9C8
  8
0
 10
148.0399570820145
 20
58.735772288158337
 30
0.0
 11
149.23995708201451
 21
57.535772288158348
 31
0.0
  0
LINE
  5
9C9
  8
0
 10
119.2399570820145
 20
58.735772288158337
 30
0.0
 11
148.0399570820145
 21
58.735772288158337
 31
0.0
  0
LINE
  5
9CA
  8
3
 10
121.2399570820144
 20
58.059272288158482
 30
0.0
 11
148.7164570820143
 21
58.059272288158454
 31
0.0
  0
CIRCLE
  5
9CE
  8
3
 10
205.23995708201389
 20
109.7357722881583
 30
0.0
 40
3.3235000000000801
  0
CIRCLE
  5
9CF
  8
0
 10
205.23995708201389
 20
109.7357722881583
 30
0.0
 40
3.9999999999999849
  0
TEXT
  5
A85
  8
0
 62
     3
 10
0.0
 20
0.0
 30
0.0
 40
10.0
  1
FTK32AX30-SUS
  7
STANDARD1
  0
ENDSEC
  0
EOF
