  0
SECTION
  2
HEADER
  9
$ACADVER
  1
AC1009
  9
$INSBASE
 10
0.0
 20
0.0
 30
0.0
  9
$EXTMIN
 10
0.0
 20
-2.960436562073669
 30
0.0
  9
$EXTMAX
 10
206.97401777661869
 20
187.84959316798449
 30
0.0
  9
$LIMMIN
 10
0.0
 20
0.0
  9
$LIMMAX
 10
187.5
 20
135.0
  9
$ORTHOMODE
 70
     1
  9
$REGENMODE
 70
     1
  9
$FILLMODE
 70
     1
  9
$QTEXTMODE
 70
     0
  9
$MIRRTEXT
 70
     0
  9
$DRAGMODE
 70
     2
  9
$LTSCALE
 40
5.0
  9
$OSMODE
 70
    55
  9
$ATTMODE
 70
     1
  9
$TEXTSIZE
 40
5.0
  9
$TRACEWID
 40
0.05
  9
$TEXTSTYLE
  7
STANDARD
  9
$CLAYER
  8
0
  9
$CELTYPE
  6
BYLAYER
  9
$CECOLOR
 62
   256
  9
$DIMSCALE
 40
0.5
  9
$DIMASZ
 40
3.0
  9
$DIMEXO
 40
2.0
  9
$DIMDLI
 40
0.38
  9
$DIMRND
 40
0.0
  9
$DIMDLE
 40
0.0
  9
$DIMEXE
 40
2.0
  9
$DIMTP
 40
0.0
  9
$DIMTM
 40
0.0
  9
$DIMTXT
 40
3.2000000000000002
  9
$DIMCEN
 40
0.09
  9
$DIMTSZ
 40
0.0
  9
$DIMTOL
 70
     0
  9
$DIMLIM
 70
     0
  9
$DIMTIH
 70
     0
  9
$DIMTOH
 70
     0
  9
$DIMSE1
 70
     0
  9
$DIMSE2
 70
     0
  9
$DIMTAD
 70
     1
  9
$DIMZIN
 70
     0
  9
$DIMBLK
  1

  9
$DIMASO
 70
     1
  9
$DIMSHO
 70
     0
  9
$DIMPOST
  1

  9
$DIMAPOST
  1

  9
$DIMALT
 70
     0
  9
$DIMALTD
 70
     2
  9
$DIMALTF
 40
25.399999999999999
  9
$DIMLFAC
 40
1.0
  9
$DIMTOFL
 70
     0
  9
$DIMTVP
 40
1.6000000000000001
  9
$DIMTIX
 70
     1
  9
$DIMSOXD
 70
     0
  9
$DIMSAH
 70
     0
  9
$DIMBLK1
  1

  9
$DIMBLK2
  1

  9
$DIMSTYLE
  2
STANDARD
  9
$DIMCLRD
 70
     0
  9
$DIMCLRE
 70
     0
  9
$DIMCLRT
 70
     0
  9
$DIMTFAC
 40
1.0
  9
$DIMGAP
 40
0.09
  9
$LUNITS
 70
     2
  9
$LUPREC
 70
     4
  9
$SKETCHINC
 40
0.1
  9
$FILLETRAD
 40
0.3
  9
$AUNITS
 70
     0
  9
$AUPREC
 70
     0
  9
$MENU
  1
E:\r13\win\SUPPORT\ACAD
  9
$ELEVATION
 40
0.0
  9
$PELEVATION
 40
0.0
  9
$THICKNESS
 40
0.0
  9
$LIMCHECK
 70
     0
  9
$BLIPMODE
 70
     0
  9
$CHAMFERA
 40
0.0
  9
$CHAMFERB
 40
0.0
  9
$SKPOLY
 70
     0
  9
$TDCREATE
 40
2449839.7836226849
  9
$TDUPDATE
 40
2456598.678268576
  9
$TDINDWG
 40
0.0007863194
  9
$TDUSRTIMER
 40
0.0007863194
  9
$USRTIMER
 70
     1
  9
$ANGBASE
 50
0.0
  9
$ANGDIR
 70
     0
  9
$PDMODE
 70
     0
  9
$PDSIZE
 40
0.0
  9
$PLINEWID
 40
0.0
  9
$COORDS
 70
     1
  9
$SPLFRAME
 70
     0
  9
$SPLINETYPE
 70
     6
  9
$SPLINESEGS
 70
     8
  9
$ATTDIA
 70
     0
  9
$ATTREQ
 70
     1
  9
$HANDLING
 70
     1
  9
$HANDSEED
  5
AD0
  9
$SURFTAB1
 70
     6
  9
$SURFTAB2
 70
     6
  9
$SURFTYPE
 70
     6
  9
$SURFU
 70
     6
  9
$SURFV
 70
     6
  9
$UCSNAME
  2

  9
$UCSORG
 10
0.0
 20
0.0
 30
0.0
  9
$UCSXDIR
 10
1.0
 20
0.0
 30
0.0
  9
$UCSYDIR
 10
0.0
 20
1.0
 30
0.0
  9
$PUCSNAME
  2

  9
$PUCSORG
 10
0.0
 20
0.0
 30
0.0
  9
$PUCSXDIR
 10
1.0
 20
0.0
 30
0.0
  9
$PUCSYDIR
 10
0.0
 20
1.0
 30
0.0
  9
$USERI1
 70
     0
  9
$USERI2
 70
     1
  9
$USERI3
 70
     1
  9
$USERI4
 70
     0
  9
$USERI5
 70
     0
  9
$USERR1
 40
0.0
  9
$USERR2
 40
0.0
  9
$USERR3
 40
0.0
  9
$USERR4
 40
0.0
  9
$USERR5
 40
0.0
  9
$WORLDVIEW
 70
     1
  9
$SHADEDGE
 70
     3
  9
$SHADEDIF
 70
    70
  9
$TILEMODE
 70
     1
  9
$MAXACTVP
 70
    16
  9
$PLIMCHECK
 70
     0
  9
$PEXTMIN
 10
1.0000000000000000E+020
 20
1.0000000000000000E+020
 30
1.0000000000000000E+020
  9
$PEXTMAX
 10
-1.0000000000000000E+020
 20
-1.0000000000000000E+020
 30
-1.0000000000000000E+020
  9
$PLIMMIN
 10
0.0
 20
0.0
  9
$PLIMMAX
 10
12.0
 20
9.0
  9
$UNITMODE
 70
     0
  9
$VISRETAIN
 70
     0
  9
$PLINEGEN
 70
     0
  9
$PSLTSCALE
 70
     0
  0
ENDSEC
  0
SECTION
  2
TABLES
  0
TABLE
  2
VPORT
 70
     1
  0
VPORT
  2
*ACTIVE
 70
     0
 10
0.0
 20
0.0
 11
1.0
 21
1.0
 12
103.4870093702083
 22
121.38569605763659
 13
0.0
 23
0.0
 14
5.0
 24
5.0
 15
5.0
 25
5.0
 16
0.0
 26
0.0
 36
1.0
 17
0.0
 27
0.0
 37
0.0
 40
250.90963860495009
 41
1.7807262569832401
 42
50.0
 43
0.0
 44
0.0
 50
0.0
 51
0.0
 71
     0
 72
   500
 73
     1
 74
     0
 75
     0
 76
     0
 77
     0
 78
     2
  0
ENDTAB
  0
TABLE
  2
LTYPE
 70
     4
  0
LTYPE
  2
CONTINUOUS
 70
     0
  3
Solid Line
 72
    65
 73
     0
 40
0.0
  0
LTYPE
  2
CENTER
 70
     0
  3
____ _ ____ _ ____ _ ____ _ ____ _ ____ _ ____
 72
    65
 73
     4
 40
2.0
 49
1.25
 49
-0.25
 49
0.25
 49
-0.25
  0
LTYPE
  2
HIDDEN
 70
     0
  3
_ _ _ _ _ _ _ _ _ _ _ _ _ _ _ _ _ _ _ _ _ _ _
 72
    65
 73
     2
 40
0.375
 49
0.25
 49
-0.125
  0
LTYPE
  2
PHANTOM2
 70
     0
  3
___ _ _ ___ _ _ ___ _ _ ___ _ _
 72
    65
 73
     6
 40
1.25
 49
0.625
 49
-0.125
 49
0.125
 49
-0.125
 49
0.125
 49
-0.125
  0
ENDTAB
  0
TABLE
  2
LAYER
 70
     4
  0
LAYER
  2
0
 70
     0
 62
     7
  6
CONTINUOUS
  0
LAYER
  2
1
 70
     0
 62
     1
  6
CENTER
  0
LAYER
  2
3
 70
     0
 62
     3
  6
CONTINUOUS
  0
LAYER
  2
2
 70
     0
 62
     2
  6
HIDDEN
  0
ENDTAB
  0
TABLE
  2
STYLE
 70
     2
  0
STYLE
  2
STANDARD
 70
     0
 40
0.0
 41
1.0
 50
0.0
 71
     0
 42
5.0
  3
TXT
  4
BIGFONT
  0
STYLE
  2
STANDARD1
 70
     0
 40
0.0
 41
1.0
 50
0.0
 71
     0
 42
3.0
  3
txt
  4

  0
ENDTAB
  0
TABLE
  2
VIEW
 70
     1
  0
VIEW
  2
ALL
 70
     0
 40
135.0
 10
110.4957983193277
 20
67.5
 41
0.0
 11
0.0
 21
0.0
 31
1.0
 12
0.0
 22
0.0
 32
0.0
 42
0.0
 43
0.0
 44
0.0
 50
0.0
 71
     0
  0
ENDTAB
  0
TABLE
  2
UCS
 70
     0
  0
ENDTAB
  0
TABLE
  2
APPID
 70
     3
  0
APPID
  2
ACAD
 70
     0
  0
APPID
  2
ACAD_MLEADERVER
 70
     0
  0
APPID
  2
ACAD_NAV_VCDISPLAY
 70
     0
  0
ENDTAB
  0
TABLE
  2
DIMSTYLE
 70
     1
  0
DIMSTYLE
  2
STANDARD
 70
     0
  3

  4

  5

  6

  7

 40
1.0
 41
0.18
 42
0.0625
 43
0.38
 44
0.18
 45
0.0
 46
0.0
 47
0.0
 48
0.0
140
0.18
141
0.09
142
0.0
143
25.399999999999999
144
1.0
145
0.0
146
1.0
147
0.09
 71
     0
 72
     0
 73
     1
 74
     1
 75
     0
 76
     0
 77
     0
 78
     0
170
     0
171
     2
172
     0
173
     0
174
     0
175
     0
176
     0
177
     0
178
     0
  0
ENDTAB
  0
ENDSEC
  0
SECTION
  2
BLOCKS
  0
BLOCK
  8
0
  2
$MODEL_SPACE
 70
     0
 10
0.0
 20
0.0
 30
0.0
  3
$MODEL_SPACE
  1

  0
ENDBLK
  5
4CD
  8
0
  0
BLOCK
 67
     1
  8
0
  2
$PAPER_SPACE
 70
     0
 10
0.0
 20
0.0
 30
0.0
  3
$PAPER_SPACE
  1

  0
ENDBLK
  5
4CB
 67
     1
  8
0
  0
ENDSEC
  0
SECTION
  2
ENTITIES
  0
CIRCLE
  5
521
  8
0
 10
60.974017776618659
 20
116.84959316798449
 30
0.0
 40
4.9999999999999849
  0
CIRCLE
  5
522
  8
3
 10
60.974017776618638
 20
116.84959316798459
 30
0.0
 40
3.0
  0
CIRCLE
  5
523
  8
0
 10
60.974017776618638
 20
116.84959316798459
 30
0.0
 40
2.3098531250000032
  0
CIRCLE
  5
524
  8
0
 10
185.97401777661861
 20
116.84959316798459
 30
0.0
 40
2.3098531250000032
  0
CIRCLE
  5
525
  8
3
 10
185.97401777661861
 20
116.84959316798459
 30
0.0
 40
3.0
  0
CIRCLE
  5
526
  8
0
 10
185.97401777661861
 20
116.84959316798449
 30
0.0
 40
5.9999999999999849
  0
LINE
  5
527
  8
2
 10
127.1362181924011
 20
55.84959316798453
 30
0.0
 11
127.1362181924011
 21
54.849593167984537
 31
0.0
  0
LINE
  5
528
  8
2
 10
121.03621819240109
 20
56.349593167984537
 30
0.0
 11
121.9022431924011
 21
54.849593167984537
 31
0.0
  0
LINE
  5
529
  8
2
 10
127.1362181924011
 20
54.849593167984537
 30
0.0
 11
121.9022431924011
 21
54.849593167984537
 31
0.0
  0
LINE
  5
52A
  8
2
 10
121.03621819240109
 20
56.849593167984537
 30
0.0
 11
120.4362181924012
 21
56.849593167984537
 31
0.0
  0
LINE
  5
52B
  8
2
 10
121.7263651924012
 20
59.539740167984512
 30
0.0
 11
121.03621819240109
 21
58.849593167984537
 31
0.0
  0
LINE
  5
52C
  8
2
 10
121.7263651924012
 20
64.159446167984569
 30
0.0
 11
121.7263651924012
 21
59.539740167984512
 31
0.0
  0
LINE
  5
52D
  8
2
 10
121.03621819240109
 20
64.849593167984537
 30
0.0
 11
121.7263651924012
 21
64.159446167984569
 31
0.0
  0
LINE
  5
52E
  8
2
 10
121.03621819240109
 20
56.349593167984573
 30
0.0
 11
121.03621819240109
 21
67.349593167984537
 31
0.0
  0
LINE
  5
52F
  8
2
 10
121.03621819240109
 20
66.849593167984537
 30
0.0
 11
120.4362181924012
 21
66.849593167984537
 31
0.0
  0
LINE
  5
530
  8
2
 10
127.1362181924011
 20
67.849593167984537
 30
0.0
 11
127.1362181924011
 21
68.849593167984537
 31
0.0
  0
LINE
  5
531
  8
2
 10
121.03621819240109
 20
67.349593167984537
 30
0.0
 11
121.9022431924011
 21
68.849593167984537
 31
0.0
  0
LINE
  5
532
  8
2
 10
127.1362181924011
 20
68.849593167984537
 30
0.0
 11
121.9022431924011
 21
68.849593167984537
 31
0.0
  0
LINE
  5
533
  8
2
 10
130.13621819240109
 20
68.849593167984537
 30
0.0
 11
130.13621819240109
 21
67.849593167984537
 31
0.0
  0
LINE
  5
534
  8
2
 10
130.13621819240109
 20
67.849593167984537
 30
0.0
 11
127.1362181924011
 21
67.849593167984537
 31
0.0
  0
LINE
  5
535
  8
0
 10
136.73621819240111
 20
67.849593167984537
 30
0.0
 11
137.03621819240109
 21
67.849593167984537
 31
0.0
  0
LINE
  5
536
  8
0
 10
137.03621819240109
 20
55.849593167984551
 30
0.0
 11
136.73621819240111
 21
55.84959316798453
 31
0.0
  0
LINE
  5
537
  8
0
 10
137.03621819240109
 20
55.84959316798453
 30
0.0
 11
137.03621819240109
 21
67.849593167984551
 31
0.0
  0
LINE
  5
538
  8
2
 10
136.35975519240111
 20
59.539740167984512
 30
0.0
 11
136.35989119240111
 21
64.159446167984569
 31
0.0
  0
LINE
  5
539
  8
2
 10
137.03621819240109
 20
64.849593167984537
 30
0.0
 11
136.35989119240111
 21
64.159446167984569
 31
0.0
  0
LINE
  5
53A
  8
2
 10
136.35975519240111
 20
59.539740167984512
 30
0.0
 11
137.03621819240109
 21
58.849593167984537
 31
0.0
  0
LINE
  5
53B
  8
2
 10
121.7263651924012
 20
64.159446167984569
 30
0.0
 11
136.35989119240111
 21
64.159446167984569
 31
0.0
  0
LINE
  5
53C
  8
2
 10
121.03621819240109
 20
64.849593167984537
 30
0.0
 11
137.03621819240109
 21
64.849593167984537
 31
0.0
  0
LINE
  5
53D
  8
2
 10
134.1362181924012
 20
68.849593167984537
 30
0.0
 11
130.13621819240109
 21
68.849593167984537
 31
0.0
  0
LINE
  5
53E
  8
2
 10
136.73621819240111
 20
67.849593167984537
 30
0.0
 11
134.1362181924012
 21
67.849593167984537
 31
0.0
  0
LINE
  5
53F
  8
2
 10
134.1362181924012
 20
67.849593167984537
 30
0.0
 11
134.1362181924012
 21
68.849593167984537
 31
0.0
  0
LINE
  5
540
  8
2
 10
121.7263651924012
 20
59.539740167984512
 30
0.0
 11
136.35975519240111
 21
59.539740167984512
 31
0.0
  0
LINE
  5
541
  8
2
 10
137.03621819240109
 20
58.849593167984537
 30
0.0
 11
121.03621819240109
 21
58.849593167984537
 31
0.0
  0
LINE
  5
542
  8
2
 10
130.13621819240109
 20
55.84959316798453
 30
0.0
 11
127.1362181924011
 21
55.84959316798453
 31
0.0
  0
LINE
  5
543
  8
2
 10
130.13621819240109
 20
54.849593167984537
 30
0.0
 11
130.13621819240109
 21
55.84959316798453
 31
0.0
  0
LINE
  5
544
  8
2
 10
136.73621819240111
 20
55.84959316798453
 30
0.0
 11
134.1362181924012
 21
55.84959316798453
 31
0.0
  0
LINE
  5
545
  8
2
 10
134.1362181924012
 20
55.84959316798453
 30
0.0
 11
134.1362181924012
 21
54.849593167984537
 31
0.0
  0
LINE
  5
546
  8
2
 10
134.1362181924012
 20
54.849593167984537
 30
0.0
 11
130.13621819240109
 21
54.849593167984537
 31
0.0
  0
LINE
  5
547
  8
2
 10
127.1362181924012
 20
165.84959316798449
 30
0.0
 11
127.1362181924012
 21
164.84959316798449
 31
0.0
  0
LINE
  5
548
  8
2
 10
121.03621819240109
 20
166.34959316798449
 30
0.0
 11
121.9022431924011
 21
164.84959316798449
 31
0.0
  0
LINE
  5
549
  8
2
 10
127.1362181924012
 20
164.84959316798449
 30
0.0
 11
121.9022431924011
 21
164.84959316798449
 31
0.0
  0
LINE
  5
54A
  8
2
 10
121.03621819240109
 20
166.84959316798449
 30
0.0
 11
120.4362181924012
 21
166.84959316798449
 31
0.0
  0
LINE
  5
54B
  8
2
 10
121.7263651924012
 20
169.53974016798449
 30
0.0
 11
121.03621819240109
 21
168.84959316798449
 31
0.0
  0
LINE
  5
54C
  8
2
 10
121.7263651924012
 20
174.1594461679845
 30
0.0
 11
121.7263651924012
 21
169.53974016798449
 31
0.0
  0
LINE
  5
54D
  8
2
 10
121.03621819240109
 20
174.84959316798449
 30
0.0
 11
121.7263651924012
 21
174.1594461679845
 31
0.0
  0
LINE
  5
54E
  8
2
 10
121.03621819240109
 20
166.34959316798449
 30
0.0
 11
121.03621819240109
 21
177.34959316798449
 31
0.0
  0
LINE
  5
54F
  8
2
 10
121.03621819240109
 20
176.84959316798449
 30
0.0
 11
120.4362181924012
 21
176.84959316798449
 31
0.0
  0
LINE
  5
550
  8
2
 10
121.03621819240109
 20
177.34959316798449
 30
0.0
 11
121.9022431924011
 21
178.84959316798449
 31
0.0
  0
LINE
  5
551
  8
2
 10
127.1362181924012
 20
178.84959316798449
 30
0.0
 11
121.9022431924011
 21
178.84959316798449
 31
0.0
  0
LINE
  5
552
  8
2
 10
127.1362181924012
 20
177.84959316798449
 30
0.0
 11
127.1362181924012
 21
178.84959316798449
 31
0.0
  0
LINE
  5
553
  8
2
 10
136.35975519240111
 20
169.53974016798449
 30
0.0
 11
136.35989119240111
 21
174.1594461679845
 31
0.0
  0
LINE
  5
554
  8
2
 10
137.03621819240109
 20
174.84959316798449
 30
0.0
 11
136.35989119240111
 21
174.1594461679845
 31
0.0
  0
LINE
  5
555
  8
2
 10
136.35975519240111
 20
169.53974016798449
 30
0.0
 11
137.03621819240109
 21
168.84959316798449
 31
0.0
  0
LINE
  5
556
  8
2
 10
121.7263651924012
 20
174.1594461679845
 30
0.0
 11
136.35989119240111
 21
174.1594461679845
 31
0.0
  0
LINE
  5
557
  8
2
 10
121.03621819240109
 20
174.84959316798449
 30
0.0
 11
137.03621819240109
 21
174.84959316798449
 31
0.0
  0
LINE
  5
558
  8
2
 10
130.1362181924012
 20
178.84959316798449
 30
0.0
 11
130.1362181924012
 21
177.84959316798449
 31
0.0
  0
LINE
  5
559
  8
2
 10
130.1362181924012
 20
177.84959316798449
 30
0.0
 11
127.1362181924012
 21
177.84959316798449
 31
0.0
  0
LINE
  5
55A
  8
2
 10
134.1362181924012
 20
178.84959316798449
 30
0.0
 11
130.1362181924012
 21
178.84959316798449
 31
0.0
  0
LINE
  5
55B
  8
2
 10
136.73621819240111
 20
177.84959316798449
 30
0.0
 11
134.1362181924012
 21
177.84959316798449
 31
0.0
  0
LINE
  5
55C
  8
2
 10
134.1362181924012
 20
177.84959316798449
 30
0.0
 11
134.1362181924012
 21
178.84959316798449
 31
0.0
  0
LINE
  5
55D
  8
2
 10
121.7263651924012
 20
169.53974016798449
 30
0.0
 11
136.35975519240111
 21
169.53974016798449
 31
0.0
  0
LINE
  5
55E
  8
2
 10
137.03621819240109
 20
168.84959316798449
 30
0.0
 11
121.03621819240109
 21
168.84959316798449
 31
0.0
  0
LINE
  5
55F
  8
2
 10
130.1362181924012
 20
165.84959316798449
 30
0.0
 11
127.1362181924012
 21
165.84959316798449
 31
0.0
  0
LINE
  5
560
  8
2
 10
130.1362181924012
 20
164.84959316798449
 30
0.0
 11
130.1362181924012
 21
165.84959316798449
 31
0.0
  0
LINE
  5
561
  8
2
 10
136.73621819240111
 20
165.84959316798449
 30
0.0
 11
134.1362181924012
 21
165.84959316798449
 31
0.0
  0
LINE
  5
562
  8
2
 10
134.1362181924012
 20
165.84959316798449
 30
0.0
 11
134.1362181924012
 21
164.84959316798449
 31
0.0
  0
LINE
  5
563
  8
2
 10
134.1362181924012
 20
164.84959316798449
 30
0.0
 11
130.1362181924012
 21
164.84959316798449
 31
0.0
  0
LINE
  5
564
  8
2
 10
127.1362181924011
 20
122.84959316798449
 30
0.0
 11
127.1362181924011
 21
123.84959316798449
 31
0.0
  0
LINE
  5
565
  8
2
 10
127.1362181924011
 20
123.84959316798449
 30
0.0
 11
121.9022431924011
 21
123.84959316798449
 31
0.0
  0
LINE
  5
566
  8
2
 10
121.03621819240109
 20
119.84959316798449
 30
0.0
 11
121.7263651924012
 21
119.1594461679845
 31
0.0
  0
LINE
  5
567
  8
2
 10
121.03621819240109
 20
122.34959316798449
 30
0.0
 11
121.9022431924011
 21
123.84959316798449
 31
0.0
  0
LINE
  5
568
  8
2
 10
121.03621819240109
 20
121.84959316798449
 30
0.0
 11
120.4362181924012
 21
121.84959316798449
 31
0.0
  0
LINE
  5
569
  8
2
 10
121.7263651924012
 20
119.1594461679845
 30
0.0
 11
121.7263651924012
 21
114.5397401679845
 31
0.0
  0
LINE
  5
56A
  8
2
 10
121.7263651924012
 20
114.5397401679845
 30
0.0
 11
121.03621819240109
 21
113.84959316798449
 31
0.0
  0
LINE
  5
56B
  8
2
 10
121.03621819240109
 20
111.84959316798449
 30
0.0
 11
120.4362181924012
 21
111.84959316798449
 31
0.0
  0
LINE
  5
56C
  8
2
 10
121.03621819240109
 20
111.34959316798449
 30
0.0
 11
121.03621819240109
 21
122.34959316798449
 31
0.0
  0
LINE
  5
56D
  8
2
 10
127.1362181924011
 20
109.84959316798449
 30
0.0
 11
121.9022431924011
 21
109.84959316798449
 31
0.0
  0
LINE
  5
56E
  8
2
 10
121.03621819240109
 20
111.34959316798449
 30
0.0
 11
121.9022431924011
 21
109.84959316798449
 31
0.0
  0
LINE
  5
56F
  8
2
 10
127.1362181924011
 20
110.84959316798449
 30
0.0
 11
127.1362181924011
 21
109.84959316798449
 31
0.0
  0
LINE
  5
570
  8
2
 10
136.35975519240111
 20
114.5397401679845
 30
0.0
 11
137.03621819240109
 21
113.84959316798449
 31
0.0
  0
LINE
  5
571
  8
2
 10
137.03621819240109
 20
119.84959316798449
 30
0.0
 11
136.35989119240111
 21
119.1594461679845
 31
0.0
  0
LINE
  5
572
  8
2
 10
136.35975519240111
 20
114.5397401679845
 30
0.0
 11
136.35989119240111
 21
119.1594461679845
 31
0.0
  0
LINE
  5
573
  8
2
 10
134.1362181924012
 20
122.84959316798449
 30
0.0
 11
134.1362181924012
 21
123.84959316798449
 31
0.0
  0
LINE
  5
574
  8
2
 10
136.73621819240111
 20
122.84959316798449
 30
0.0
 11
134.1362181924012
 21
122.84959316798449
 31
0.0
  0
LINE
  5
575
  8
2
 10
134.1362181924012
 20
123.84959316798449
 30
0.0
 11
130.13621819240109
 21
123.84959316798449
 31
0.0
  0
LINE
  5
576
  8
2
 10
130.13621819240109
 20
122.84959316798449
 30
0.0
 11
127.1362181924011
 21
122.84959316798449
 31
0.0
  0
LINE
  5
577
  8
2
 10
130.13621819240109
 20
123.84959316798449
 30
0.0
 11
130.13621819240109
 21
122.84959316798449
 31
0.0
  0
LINE
  5
578
  8
2
 10
121.03621819240109
 20
119.84959316798449
 30
0.0
 11
137.03621819240109
 21
119.84959316798449
 31
0.0
  0
LINE
  5
579
  8
2
 10
121.7263651924012
 20
119.1594461679845
 30
0.0
 11
136.35989119240111
 21
119.1594461679845
 31
0.0
  0
LINE
  5
57A
  8
2
 10
134.1362181924012
 20
109.84959316798449
 30
0.0
 11
130.13621819240109
 21
109.84959316798449
 31
0.0
  0
LINE
  5
57B
  8
2
 10
134.1362181924012
 20
110.84959316798449
 30
0.0
 11
134.1362181924012
 21
109.84959316798449
 31
0.0
  0
LINE
  5
57C
  8
2
 10
136.73621819240111
 20
110.84959316798449
 30
0.0
 11
134.1362181924012
 21
110.84959316798449
 31
0.0
  0
LINE
  5
57D
  8
2
 10
130.13621819240109
 20
109.84959316798449
 30
0.0
 11
130.13621819240109
 21
110.84959316798449
 31
0.0
  0
LINE
  5
57E
  8
2
 10
130.13621819240109
 20
110.84959316798449
 30
0.0
 11
127.1362181924011
 21
110.84959316798449
 31
0.0
  0
LINE
  5
57F
  8
2
 10
137.03621819240109
 20
113.84959316798449
 30
0.0
 11
121.03621819240109
 21
113.84959316798449
 31
0.0
  0
LINE
  5
580
  8
2
 10
121.7263651924012
 20
114.5397401679845
 30
0.0
 11
136.35975519240111
 21
114.5397401679845
 31
0.0
  0
CIRCLE
  5
581
  8
0
 10
185.97401777661861
 20
116.84959316798449
 30
0.0
 40
7.4999999999999707
  0
CIRCLE
  5
582
  8
0
 10
185.97401777661861
 20
116.84959316798449
 30
0.0
 40
8.4999999999999858
  0
CIRCLE
  5
583
  8
0
 10
185.97401777661861
 20
116.84959316798449
 30
0.0
 40
15.0
  0
LINE
  5
584
  8
1
 10
206.97401777661869
 20
116.84959316798449
 30
0.0
 11
164.97401777661861
 21
116.84959316798449
 31
0.0
  0
LINE
  5
585
  8
1
 10
185.97401777661861
 20
95.849593167984551
 30
0.0
 11
185.97401777661861
 21
137.84959316798449
 31
0.0
  0
CIRCLE
  5
586
  8
0
 10
185.97401777661861
 20
116.84959316798449
 30
0.0
 40
16.0
  0
LINE
  5
587
  8
1
 10
142.03621819240109
 20
61.849593167984551
 30
0.0
 11
110.03621819240099
 21
61.849593167984551
 31
0.0
  0
LINE
  5
588
  8
0
 10
128.03621819240109
 20
53.349593167984523
 30
0.0
 11
135.73621819240111
 21
53.349593167984523
 31
0.0
  0
LINE
  5
589
  8
0
 10
127.03621819240109
 20
45.849593167984551
 30
0.0
 11
128.03621819240109
 21
46.849593167984551
 31
0.0
  0
LINE
  5
58A
  8
0
 10
135.73621819240111
 20
53.349593167984523
 30
0.0
 11
136.73621819240111
 21
54.349593167984551
 31
0.0
  0
LINE
  5
58B
  8
0
 10
135.73621819240111
 20
70.349593167984523
 30
0.0
 11
136.73621819240111
 21
69.349593167984523
 31
0.0
  0
LINE
  5
58C
  8
0
 10
127.03621819240109
 20
77.849593167984551
 30
0.0
 11
128.03621819240109
 21
76.849593167984551
 31
0.0
  0
LINE
  5
58D
  8
0
 10
115.6612181924113
 20
77.474593167994726
 30
0.0
 11
115.03621819240109
 21
76.849593167984551
 31
0.0
  0
LINE
  5
58E
  8
0
 10
136.73621819240111
 20
69.349593167984523
 30
0.0
 11
136.73621819240111
 21
54.349593167984551
 31
0.0
  0
LINE
  5
58F
  8
0
 10
128.03621819240109
 20
70.349593167984551
 30
0.0
 11
135.73621819240111
 21
70.349593167984523
 31
0.0
  0
LINE
  5
590
  8
0
 10
128.03621819240109
 20
76.849593167984551
 30
0.0
 11
128.03621819240109
 21
46.849593167984551
 31
0.0
  0
LINE
  5
591
  8
0
 10
126.16121819240099
 20
77.849593167984551
 30
0.0
 11
127.03621819240109
 21
77.849593167984551
 31
0.0
  0
LINE
  5
592
  8
0
 10
135.7362181924012
 20
70.349593167984523
 30
0.0
 11
135.7362181924012
 21
53.349593167984551
 31
0.0
  0
LINE
  5
593
  8
0
 10
127.03621819240109
 20
77.849593167984551
 30
0.0
 11
127.03621819240109
 21
45.849593167984551
 31
0.0
  0
LINE
  5
594
  8
2
 10
120.4362181924011
 20
72.349593167984523
 30
0.0
 11
120.4362181924011
 21
51.349593167984551
 31
0.0
  0
LINE
  5
595
  8
2
 10
120.4362181924011
 20
51.349593167984551
 30
0.0
 11
119.9362181924011
 21
51.349593167984551
 31
0.0
  0
LINE
  5
596
  8
2
 10
119.9362181924011
 20
51.349593167984551
 30
0.0
 11
119.9362181924011
 21
72.349593167984523
 31
0.0
  0
LINE
  5
597
  8
2
 10
115.03621819240109
 20
48.349593167984551
 30
0.0
 11
119.9362181924011
 21
51.349593167984551
 31
0.0
  0
LINE
  5
598
  8
0
 10
115.03621819240109
 20
46.849593167984523
 30
0.0
 11
115.03621819240109
 21
76.849593167984551
 31
0.0
  0
LINE
  5
599
  8
0
 10
116.03621819240109
 20
62.737380541460652
 30
0.0
 11
125.78621819240109
 21
62.737380541460617
 31
0.0
  0
LINE
  5
59A
  8
0
 10
116.03621819240109
 20
65.941912093491084
 30
0.0
 11
125.8205124888572
 21
65.941912093491084
 31
0.0
  0
LINE
  5
59B
  8
0
 10
116.03621819240109
 20
67.630584026749204
 30
0.0
 11
125.7862191460754
 21
67.630584026749204
 31
0.0
  0
LINE
  5
59C
  8
0
 10
116.03621819240109
 20
70.521433703182652
 30
0.0
 11
125.8236594755339
 21
70.521433703182652
 31
0.0
  0
LINE
  5
59D
  8
0
 10
116.03621819240109
 20
71.957903848250112
 30
0.0
 11
125.7862203248817
 21
71.957903848250112
 31
0.0
  0
LINE
  5
59E
  8
0
 10
116.03621819240109
 20
74.25209514102329
 30
0.0
 11
125.8366770652179
 21
74.25209514102329
 31
0.0
  0
LINE
  5
59F
  8
0
 10
116.03621819240109
 20
75.295751791624753
 30
0.0
 11
125.7862191460754
 21
75.295751791624753
 31
0.0
  0
LINE
  5
5A0
  8
0
 10
116.03621819240109
 20
76.768713272430375
 30
0.0
 11
125.78621819240109
 21
76.768713272430375
 31
0.0
  0
LINE
  5
5A1
  8
0
 10
116.03621819240109
 20
77.317396044021621
 30
0.0
 11
125.78621819240109
 21
77.317396044021621
 31
0.0
  0
LINE
  5
5A2
  8
2
 10
127.03621819240109
 20
57.849593167984551
 30
0.0
 11
127.03621819240109
 21
65.849593167984494
 31
0.0
  0
LINE
  5
5A3
  8
2
 10
115.03621819240109
 20
75.349593167984523
 30
0.0
 11
119.9362181924011
 21
72.349593167984523
 31
0.0
  0
LINE
  5
5A4
  8
2
 10
120.4362181924011
 20
72.349593167984523
 30
0.0
 11
119.9362181924011
 21
72.349593167984523
 31
0.0
  0
LINE
  5
5A5
  8
0
 10
116.03621819240109
 20
77.824943980392277
 30
0.0
 11
116.03621819240109
 21
77.317396044021592
 31
0.0
  0
LINE
  5
5A6
  8
0
 10
116.03621819240109
 20
77.824943980392277
 30
0.0
 11
125.78621819240109
 21
77.824943980392277
 31
0.0
  0
POLYLINE
  5
5A7
  8
0
 66
     1
 10
0.0
 20
0.0
 30
0.0
  0
VERTEX
  5
5A8
  8
0
 10
116.03621819240109
 20
71.957903848250112
 30
0.0
 42
0.2015894264067176
 50
90.0
  0
VERTEX
  5
5A9
  8
0
 10
115.9151511721347
 20
71.907024537366894
 30
0.0
 42
0.0977170379735125
 50
90.0
  0
VERTEX
  5
5AA
  8
0
 10
115.77105314945619
 20
71.687221860638061
 30
0.0
 42
0.0547927573384048
 70
     2
 50
247.9141022391737
  0
VERTEX
  5
5AB
  8
0
 10
115.6926521155838
 20
71.410405280611428
 30
0.0
 42
0.0416539519670256
 50
247.9141022391737
  0
VERTEX
  5
5AC
  8
0
 10
115.66121819240119
 20
71.033737735054956
 30
0.0
 42
0.0416539519669881
 50
90.0
  0
SEQEND
  5
5AD
  8
0
  0
POLYLINE
  5
5AE
  8
0
 66
     1
 10
0.0
 20
0.0
 30
0.0
  0
VERTEX
  5
5AF
  8
0
 10
115.66121819240119
 20
71.033737735054984
 30
0.0
 42
0.0737304435607645
 50
90.0
  0
VERTEX
  5
5B0
  8
0
 10
115.691226519838
 20
70.831343748414213
 30
0.0
 42
0.0845717212532976
 50
90.0
  0
VERTEX
  5
5B1
  8
0
 10
115.77105314945619
 20
70.671484080088874
 30
0.0
 42
0.1063921108588694
 70
     2
 50
306.20365064702992
  0
VERTEX
  5
5B2
  8
0
 10
115.9083302480277
 20
70.549387650103995
 30
0.0
 42
0.1510088585334486
 50
306.20365064702992
  0
VERTEX
  5
5B3
  8
0
 10
116.03621819240109
 20
70.521433703179497
 30
0.0
 42
0.1294534172461018
 50
90.0
  0
SEQEND
  5
5B4
  8
0
  0
POLYLINE
  5
5B5
  8
0
 66
     1
 10
0.0
 20
0.0
 30
0.0
  0
VERTEX
  5
5B6
  8
0
 10
115.66121819240119
 20
66.677983705093368
 30
0.0
 42
0.0520405140106174
 50
90.0
  0
VERTEX
  5
5B7
  8
0
 10
115.69226003735611
 20
66.380544512280949
 30
0.0
 42
0.0658985238271168
 50
90.0
  0
VERTEX
  5
5B8
  8
0
 10
115.77105314945619
 20
66.157502477090475
 30
0.0
 42
0.1046205348859841
 70
     2
 50
296.99708196701908
  0
VERTEX
  5
5B9
  8
0
 10
115.916590298679
 20
65.977408257368012
 30
0.0
 42
0.1996909920929194
 50
296.99708196701908
  0
VERTEX
  5
5BA
  8
0
 10
116.03621819240109
 20
65.941912093491084
 30
0.0
 42
0.172337143622725
 50
90.0
  0
SEQEND
  5
5BB
  8
0
  0
POLYLINE
  5
5BC
  8
0
 66
     1
 10
0.0
 20
0.0
 30
0.0
  0
VERTEX
  5
5BD
  8
0
 10
116.03621819240109
 20
67.630584026749204
 30
0.0
 42
0.2055316714992537
 50
90.0
  0
VERTEX
  5
5BE
  8
0
 10
115.91602120689031
 20
67.578996214279641
 30
0.0
 42
0.0965313913509376
 50
90.0
  0
VERTEX
  5
5BF
  8
0
 10
115.77105314945599
 20
67.351573852296696
 30
0.0
 42
0.0533986296957384
 70
     2
 50
248.5124580243924
  0
VERTEX
  5
5C0
  8
0
 10
115.6926933510662
 20
67.066591477404515
 30
0.0
 42
0.0404311354471943
 50
248.5124580243924
  0
VERTEX
  5
5C1
  8
0
 10
115.6612181924009
 20
66.677983705093368
 30
0.0
 42
0.0404311354471791
 50
90.0
  0
SEQEND
  5
5C2
  8
0
  0
POLYLINE
  5
5C3
  8
0
 66
     1
 10
0.0
 20
0.0
 30
0.0
  0
VERTEX
  5
5C4
  8
0
 10
115.66121819240119
 20
61.849593167984551
 30
0.0
 42
0.0433295665536456
 50
90.0
  0
VERTEX
  5
5C5
  8
0
 10
115.6925938787271
 20
61.48821429332191
 30
0.0
 42
0.0566743414169658
 50
90.0
  0
VERTEX
  5
5C6
  8
0
 10
115.77105314945631
 20
61.221832695947789
 30
0.0
 42
0.0992025570697266
 70
     2
 50
292.89911996388048
  0
VERTEX
  5
5C7
  8
0
 10
115.92146604340429
 20
61.000754465522277
 30
0.0
 42
0.2280338981645266
 50
292.89911996388048
  0
VERTEX
  5
5C8
  8
0
 10
116.03621819240109
 20
60.961805794525837
 30
0.0
 42
0.1963710675046459
 50
90.0
  0
SEQEND
  5
5C9
  8
0
  0
POLYLINE
  5
5CA
  8
0
 66
     1
 10
0.0
 20
0.0
 30
0.0
  0
VERTEX
  5
5CB
  8
0
 10
116.03621819240109
 20
62.737380541460652
 30
0.0
 42
0.1963710675046226
 50
90.0
  0
VERTEX
  5
5CC
  8
0
 10
115.9139970702814
 20
62.687453906272729
 30
0.0
 42
0.0992025570696904
 50
90.0
  0
VERTEX
  5
5CD
  8
0
 10
115.77105314945619
 20
62.477353640021278
 30
0.0
 42
0.0566743414169369
 70
     2
 50
247.10088003612381
  0
VERTEX
  5
5CE
  8
0
 10
115.6925938787271
 20
62.210972042647313
 30
0.0
 42
0.0433295665536664
 50
247.10088003612381
  0
VERTEX
  5
5CF
  8
0
 10
115.66121819240119
 20
61.849593167984551
 30
0.0
 42
0.0433295665536456
 50
90.0
  0
SEQEND
  5
5D0
  8
0
  0
LINE
  5
5D1
  8
0
 10
116.03621819240109
 20
70.521433703182652
 30
0.0
 11
116.03621819240109
 21
67.630584026749204
 31
0.0
  0
LINE
  5
5D2
  8
0
 10
116.03621819240109
 20
65.941912093491112
 30
0.0
 11
116.03621819240109
 21
62.737380541460652
 31
0.0
  0
POLYLINE
  5
5D3
  8
0
 66
     1
 10
0.0
 20
0.0
 30
0.0
  0
VERTEX
  5
5D4
  8
0
 10
115.66121819240119
 20
74.490483705093823
 30
0.0
 42
0.1453834159301123
 50
90.0
  0
VERTEX
  5
5D5
  8
0
 10
115.6864353216988
 20
74.405590488832502
 30
0.0
 42
0.1071699662217274
 50
90.0
  0
VERTEX
  5
5D6
  8
0
 10
115.77105314945619
 20
74.321917534882232
 30
0.0
 42
0.077350332773411
 70
     2
 50
327.55576388790911
  0
VERTEX
  5
5D7
  8
0
 10
115.89951770498431
 20
74.265797676627926
 30
0.0
 42
0.0789475685392101
 50
327.55576388790911
  0
VERTEX
  5
5D8
  8
0
 10
116.03621819240109
 20
74.252095141024938
 30
0.0
 42
0.0644571111103437
 50
90.0
  0
SEQEND
  5
5D9
  8
0
  0
POLYLINE
  5
5DA
  8
0
 66
     1
 10
0.0
 20
0.0
 30
0.0
  0
VERTEX
  5
5DB
  8
0
 10
116.03621819240109
 20
75.295751791624753
 30
0.0
 42
0.1837701506072527
 50
90.0
  0
VERTEX
  5
5DC
  8
0
 10
115.91120102920991
 20
75.248196948948674
 30
0.0
 42
0.1023570990015804
 50
90.0
  0
VERTEX
  5
5DD
  8
0
 10
115.7710531494529
 20
75.059894229752956
 30
0.0
 42
0.06139380527182
 70
     2
 50
245.0293849661897
  0
VERTEX
  5
5DE
  8
0
 10
115.69243376595919
 20
74.817124739450321
 30
0.0
 42
0.0476740870733025
 50
245.0293849661897
  0
VERTEX
  5
5DF
  8
0
 10
115.6612181923964
 20
74.490483705093823
 30
0.0
 42
0.0476740870732675
 50
90.0
  0
SEQEND
  5
5E0
  8
0
  0
LINE
  5
5E1
  8
0
 10
116.03621819240109
 20
74.25209514102329
 30
0.0
 11
116.03621819240109
 21
71.957903848250112
 31
0.0
  0
POLYLINE
  5
5E2
  8
0
 66
     1
 10
0.0
 20
0.0
 30
0.0
  0
VERTEX
  5
5E3
  8
0
 10
116.03621819240109
 20
77.317396044021592
 30
0.0
 42
0.1488470320745859
 50
90.0
  0
VERTEX
  5
5E4
  8
0
 10
115.90344050461481
 20
77.27697333157812
 30
0.0
 42
0.1070939314374275
 50
90.0
  0
VERTEX
  5
5E5
  8
0
 10
115.77105314945619
 20
77.139450289362316
 30
0.0
 42
0.0758177480846394
 70
     2
 50
238.31552115822251
  0
VERTEX
  5
5E6
  8
0
 10
115.691787550054
 20
76.952829932535963
 30
0.0
 42
0.0626584555913342
 50
238.31552115822251
  0
VERTEX
  5
5E7
  8
0
 10
115.66121819240119
 20
76.709851235097176
 30
0.0
 42
0.0626584555913199
 50
90.0
  0
SEQEND
  5
5E8
  8
0
  0
POLYLINE
  5
5E9
  8
0
 66
     1
 10
0.0
 20
0.0
 30
0.0
  0
VERTEX
  5
5EA
  8
0
 10
115.66121819240119
 20
76.709851235097176
 30
0.0
 42
0.0162328826952284
 50
90.0
  0
VERTEX
  5
5EB
  8
0
 10
115.8161557957969
 20
76.71488272881038
 30
0.0
 42
0.0226962008047463
 50
90.0
  0
VERTEX
  5
5EC
  8
0
 10
115.92638323534609
 20
76.727091526677611
 30
0.0
 42
0.0516790455059756
 70
     2
 50
8.9206691496988508
  0
VERTEX
  5
5ED
  8
0
 10
116.0286392491935
 20
76.754180127750089
 30
0.0
 50
8.9206691496988508
  0
VERTEX
  5
5EE
  8
0
 10
116.03621819240109
 20
76.768713272430347
 30
0.0
 50
90.0
  0
SEQEND
  5
5EF
  8
0
  0
LINE
  5
5F0
  8
0
 10
116.03621819240109
 20
76.768713272430347
 30
0.0
 11
116.03621819240109
 21
75.295751791624753
 31
0.0
  0
POLYLINE
  5
5F1
  8
0
 66
     1
 10
0.0
 20
0.0
 30
0.0
  0
VERTEX
  5
5F2
  8
0
 10
115.66121819240119
 20
77.474593167984665
 30
0.0
 42
0.092572595455409
 50
90.0
  0
VERTEX
  5
5F3
  8
0
 10
115.8058913452207
 20
77.50161023424215
 30
0.0
 42
0.0958395211622397
 50
90.0
  0
VERTEX
  5
5F4
  8
0
 10
115.92638323534609
 20
77.577208545144629
 30
0.0
 42
0.1008530118927434
 70
     2
 50
43.053698806586652
  0
VERTEX
  5
5F5
  8
0
 10
116.0148805569592
 20
77.701606005828395
 30
0.0
 42
0.1236287328816281
 50
43.053698806586652
  0
VERTEX
  5
5F6
  8
0
 10
116.0362181923965
 20
77.824943980392277
 30
0.0
 42
0.1047089114758273
 50
90.0
  0
SEQEND
  5
5F7
  8
0
  0
POLYLINE
  5
5F8
  8
0
 66
     1
 10
0.0
 20
0.0
 30
0.0
  0
VERTEX
  5
5F9
  8
0
 10
126.16121819240099
 20
76.709851235097176
 30
0.0
 42
-0.0162328826952284
 50
90.0
  0
VERTEX
  5
5FA
  8
0
 10
126.0062805890053
 20
76.71488272881038
 30
0.0
 42
-0.0226962008047463
 50
90.0
  0
VERTEX
  5
5FB
  8
0
 10
125.89605314945609
 20
76.727091526677611
 30
0.0
 42
-0.0516790455059756
 70
     2
 50
171.07933085030109
  0
VERTEX
  5
5FC
  8
0
 10
125.7937971356087
 20
76.754180127750089
 30
0.0
 50
90.0
  0
VERTEX
  5
5FD
  8
0
 10
125.78621819240109
 20
76.768713272430347
 30
0.0
 50
90.0
  0
SEQEND
  5
5FE
  8
0
  0
POLYLINE
  5
5FF
  8
0
 66
     1
 10
0.0
 20
0.0
 30
0.0
  0
VERTEX
  5
600
  8
0
 10
125.78621819240109
 20
77.317396044021592
 30
0.0
 42
-0.1488470320745859
 50
90.0
  0
VERTEX
  5
601
  8
0
 10
125.9189958801874
 20
77.27697333157812
 30
0.0
 42
-0.1070939314374275
 50
90.0
  0
VERTEX
  5
602
  8
0
 10
126.05138323534599
 20
77.139450289362316
 30
0.0
 42
-0.0758177480846394
 70
     2
 50
301.68447884177749
  0
VERTEX
  5
603
  8
0
 10
126.1306488347482
 20
76.952829932535963
 30
0.0
 42
-0.0626584555913342
 50
90.0
  0
VERTEX
  5
604
  8
0
 10
126.16121819240099
 20
76.709851235097176
 30
0.0
 42
-0.0626584555913199
 50
90.0
  0
SEQEND
  5
605
  8
0
  0
POLYLINE
  5
606
  8
0
 66
     1
 10
0.0
 20
0.0
 30
0.0
  0
VERTEX
  5
607
  8
0
 10
125.78621819240109
 20
75.295751791624753
 30
0.0
 42
-0.1837701506072527
 50
90.0
  0
VERTEX
  5
608
  8
0
 10
125.9112353555924
 20
75.248196948948674
 30
0.0
 42
-0.1023570990015804
 50
90.0
  0
VERTEX
  5
609
  8
0
 10
126.05138323534941
 20
75.059894229752956
 30
0.0
 42
-0.06139380527182
 70
     2
 50
294.9706150338103
  0
VERTEX
  5
60A
  8
0
 10
126.13000261884299
 20
74.817124739450321
 30
0.0
 42
-0.0476740870733025
 50
90.0
  0
VERTEX
  5
60B
  8
0
 10
126.1612181924058
 20
74.490483705093823
 30
0.0
 42
-0.0476740870732675
 50
90.0
  0
SEQEND
  5
60C
  8
0
  0
POLYLINE
  5
60D
  8
0
 66
     1
 10
0.0
 20
0.0
 30
0.0
  0
VERTEX
  5
60E
  8
0
 10
126.16121819240099
 20
74.490483705093823
 30
0.0
 42
-0.1453834159301123
 50
90.0
  0
VERTEX
  5
60F
  8
0
 10
126.13600106310339
 20
74.405590488832502
 30
0.0
 42
-0.1071699662217274
 50
90.0
  0
VERTEX
  5
610
  8
0
 10
126.05138323534599
 20
74.321917534882232
 30
0.0
 42
-0.077350332773411
 70
     2
 50
212.444236112091
  0
VERTEX
  5
611
  8
0
 10
125.9229186798179
 20
74.265797676627926
 30
0.0
 42
-0.0789475685392101
 50
90.0
  0
VERTEX
  5
612
  8
0
 10
125.78621819240109
 20
74.252095141024938
 30
0.0
 42
-0.0644571111103437
 50
90.0
  0
SEQEND
  5
613
  8
0
  0
POLYLINE
  5
614
  8
0
 66
     1
 10
0.0
 20
0.0
 30
0.0
  0
VERTEX
  5
615
  8
0
 10
125.78621819240109
 20
62.737380541460652
 30
0.0
 42
-0.1963710675046226
 50
90.0
  0
VERTEX
  5
616
  8
0
 10
125.90843931452081
 20
62.687453906272729
 30
0.0
 42
-0.0992025570696904
 50
90.0
  0
VERTEX
  5
617
  8
0
 10
126.05138323534599
 20
62.477353640021278
 30
0.0
 42
-0.0566743414169369
 70
     2
 50
292.89911996387622
  0
VERTEX
  5
618
  8
0
 10
126.12984250607521
 20
62.210972042647313
 30
0.0
 42
-0.0433295665536664
 50
90.0
  0
VERTEX
  5
619
  8
0
 10
126.16121819240099
 20
61.849593167984551
 30
0.0
 42
-0.0433295665536456
 50
90.0
  0
SEQEND
  5
61A
  8
0
  0
POLYLINE
  5
61B
  8
0
 66
     1
 10
0.0
 20
0.0
 30
0.0
  0
VERTEX
  5
61C
  8
0
 10
126.16121819240099
 20
61.849593167984551
 30
0.0
 42
-0.0433295665536456
 50
90.0
  0
VERTEX
  5
61D
  8
0
 10
126.12984250607521
 20
61.48821429332191
 30
0.0
 42
-0.0566743414169658
 50
90.0
  0
VERTEX
  5
61E
  8
0
 10
126.05138323534599
 20
61.221832695947789
 30
0.0
 42
-0.0992025570697266
 70
     2
 50
247.10088003611941
  0
VERTEX
  5
61F
  8
0
 10
125.90097034139789
 20
61.000754465522277
 30
0.0
 42
-0.2280338981645266
 50
90.0
  0
VERTEX
  5
620
  8
0
 10
125.78621819240109
 20
60.961805794525837
 30
0.0
 42
-0.1963710675046459
 50
90.0
  0
SEQEND
  5
621
  8
0
  0
POLYLINE
  5
622
  8
0
 66
     1
 10
0.0
 20
0.0
 30
0.0
  0
VERTEX
  5
623
  8
0
 10
125.78621819240109
 20
67.630584026749204
 30
0.0
 42
-0.2055316714992537
 50
90.0
  0
VERTEX
  5
624
  8
0
 10
125.9064151779119
 20
67.578996214279641
 30
0.0
 42
-0.0965313913509376
 50
90.0
  0
VERTEX
  5
625
  8
0
 10
126.05138323534619
 20
67.351573852296696
 30
0.0
 42
-0.0533986296957384
 70
     2
 50
291.4875419756076
  0
VERTEX
  5
626
  8
0
 10
126.1297430337361
 20
67.066591477404515
 30
0.0
 42
-0.0404311354471943
 50
90.0
  0
VERTEX
  5
627
  8
0
 10
126.16121819240129
 20
66.677983705093368
 30
0.0
 42
-0.0404311354471791
 50
90.0
  0
SEQEND
  5
628
  8
0
  0
POLYLINE
  5
629
  8
0
 66
     1
 10
0.0
 20
0.0
 30
0.0
  0
VERTEX
  5
62A
  8
0
 10
126.16121819240099
 20
66.677983705093368
 30
0.0
 42
-0.0520405140106174
 50
90.0
  0
VERTEX
  5
62B
  8
0
 10
126.1301763474461
 20
66.380544512280949
 30
0.0
 42
-0.0658985238271168
 50
90.0
  0
VERTEX
  5
62C
  8
0
 10
126.05138323534599
 20
66.157502477090475
 30
0.0
 42
-0.1046205348859841
 70
     2
 50
243.00291803298089
  0
VERTEX
  5
62D
  8
0
 10
125.9058460861232
 20
65.977408257368012
 30
0.0
 42
-0.1996909920929194
 50
90.0
  0
VERTEX
  5
62E
  8
0
 10
125.78621819240109
 20
65.941912093491084
 30
0.0
 42
-0.172337143622725
 50
90.0
  0
SEQEND
  5
62F
  8
0
  0
POLYLINE
  5
630
  8
0
 66
     1
 10
0.0
 20
0.0
 30
0.0
  0
VERTEX
  5
631
  8
0
 10
126.16121819240099
 20
71.033737735054984
 30
0.0
 42
-0.0737304435607645
 50
90.0
  0
VERTEX
  5
632
  8
0
 10
126.13120986496421
 20
70.831343748414213
 30
0.0
 42
-0.0845717212532976
 50
90.0
  0
VERTEX
  5
633
  8
0
 10
126.05138323534599
 20
70.671484080088874
 30
0.0
 42
-0.1063921108588694
 70
     2
 50
233.79634935297011
  0
VERTEX
  5
634
  8
0
 10
125.91410613677451
 20
70.549387650103995
 30
0.0
 42
-0.1510088585334486
 50
90.0
  0
VERTEX
  5
635
  8
0
 10
125.78621819240109
 20
70.521433703179497
 30
0.0
 42
-0.1294534172461018
 50
90.0
  0
SEQEND
  5
636
  8
0
  0
POLYLINE
  5
637
  8
0
 66
     1
 10
0.0
 20
0.0
 30
0.0
  0
VERTEX
  5
638
  8
0
 10
125.78621819240109
 20
71.957903848250112
 30
0.0
 42
-0.2015894264067176
 50
90.0
  0
VERTEX
  5
639
  8
0
 10
125.9072852126676
 20
71.907024537366894
 30
0.0
 42
-0.0977170379735125
 50
90.0
  0
VERTEX
  5
63A
  8
0
 10
126.05138323534599
 20
71.687221860638061
 30
0.0
 42
-0.0547927573384048
 70
     2
 50
292.08589776082619
  0
VERTEX
  5
63B
  8
0
 10
126.1297842692184
 20
71.410405280611428
 30
0.0
 42
-0.0416539519670256
 50
90.0
  0
VERTEX
  5
63C
  8
0
 10
126.16121819240099
 20
71.033737735054956
 30
0.0
 42
-0.0416539519669881
 50
90.0
  0
SEQEND
  5
63D
  8
0
  0
POLYLINE
  5
63E
  8
0
 66
     1
 10
0.0
 20
0.0
 30
0.0
  0
VERTEX
  5
63F
  8
0
 10
125.78621819240109
 20
77.824943980392277
 30
0.0
 42
0.0068051090718327
 50
90.0
  0
VERTEX
  5
640
  8
0
 10
125.94147890061301
 20
77.827057210362824
 30
0.0
 42
0.0096044777403865
 50
90.0
  0
VERTEX
  5
641
  8
0
 10
126.05138323534599
 20
77.832163560287313
 30
0.0
 42
0.0229390352869734
 70
     2
 50
3.7607085175068882
  0
VERTEX
  5
642
  8
0
 10
126.15799815822029
 20
77.844101364504695
 30
0.0
 50
3.7607085175068882
  0
VERTEX
  5
643
  8
0
 10
126.16121819240099
 20
77.849593167984551
 30
0.0
 50
90.0
  0
SEQEND
  5
644
  8
0
  0
POLYLINE
  5
645
  8
0
 66
     1
 10
0.0
 20
0.0
 30
0.0
  0
VERTEX
  5
646
  8
0
 10
125.78621819240109
 20
45.87424235557679
 30
0.0
 42
-0.0068051090718327
 50
90.0
  0
VERTEX
  5
647
  8
0
 10
125.94147890061301
 20
45.87212912560625
 30
0.0
 42
-0.0096044777403865
 50
90.0
  0
VERTEX
  5
648
  8
0
 10
126.05138323534599
 20
45.867022775681761
 30
0.0
 42
-0.0229390352869734
 70
     2
 50
356.23929148249317
  0
VERTEX
  5
649
  8
0
 10
126.15799815822029
 20
45.855084971464372
 30
0.0
 50
90.0
  0
VERTEX
  5
64A
  8
0
 10
126.16121819240099
 20
45.849593167984523
 30
0.0
 50
90.0
  0
SEQEND
  5
64B
  8
0
  0
POLYLINE
  5
64C
  8
0
 66
     1
 10
0.0
 20
0.0
 30
0.0
  0
VERTEX
  5
64D
  8
0
 10
125.78621819240109
 20
51.741282487718962
 30
0.0
 42
0.2015894264067176
 50
90.0
  0
VERTEX
  5
64E
  8
0
 10
125.9072852126676
 20
51.792161798602159
 30
0.0
 42
0.0977170379735125
 50
90.0
  0
VERTEX
  5
64F
  8
0
 10
126.05138323534599
 20
52.011964475331013
 30
0.0
 42
0.0547927573384048
 70
     2
 50
67.914102239173715
  0
VERTEX
  5
650
  8
0
 10
126.1297842692184
 20
52.288781055357639
 30
0.0
 42
0.0416539519670256
 50
90.0
  0
VERTEX
  5
651
  8
0
 10
126.16121819240099
 20
52.665448600914111
 30
0.0
 42
0.0416539519669881
 50
90.0
  0
SEQEND
  5
652
  8
0
  0
POLYLINE
  5
653
  8
0
 66
     1
 10
0.0
 20
0.0
 30
0.0
  0
VERTEX
  5
654
  8
0
 10
126.16121819240099
 20
52.66544860091409
 30
0.0
 42
0.0737304435607645
 50
90.0
  0
VERTEX
  5
655
  8
0
 10
126.13120986496421
 20
52.867842587554861
 30
0.0
 42
0.0845717212532976
 50
90.0
  0
VERTEX
  5
656
  8
0
 10
126.05138323534599
 20
53.0277022558802
 30
0.0
 42
0.1063921108588694
 70
     2
 50
126.2036506470299
  0
VERTEX
  5
657
  8
0
 10
125.91410613677451
 20
53.149798685865079
 30
0.0
 42
0.1510088585334486
 50
90.0
  0
VERTEX
  5
658
  8
0
 10
125.78621819240109
 20
53.17775263278957
 30
0.0
 42
0.1294534172461018
 50
90.0
  0
SEQEND
  5
659
  8
0
  0
POLYLINE
  5
65A
  8
0
 66
     1
 10
0.0
 20
0.0
 30
0.0
  0
VERTEX
  5
65B
  8
0
 10
126.16121819240099
 20
57.021202630875727
 30
0.0
 42
0.0520405140106174
 50
90.0
  0
VERTEX
  5
65C
  8
0
 10
126.1301763474461
 20
57.318641823688132
 30
0.0
 42
0.0658985238271168
 50
90.0
  0
VERTEX
  5
65D
  8
0
 10
126.05138323534599
 20
57.541683858878599
 30
0.0
 42
0.1046205348859841
 70
     2
 50
116.9970819670191
  0
VERTEX
  5
65E
  8
0
 10
125.9058460861232
 20
57.721778078601062
 30
0.0
 42
0.1996909920929194
 50
90.0
  0
VERTEX
  5
65F
  8
0
 10
125.78621819240109
 20
57.75727424247799
 30
0.0
 42
0.172337143622725
 50
90.0
  0
SEQEND
  5
660
  8
0
  0
POLYLINE
  5
661
  8
0
 66
     1
 10
0.0
 20
0.0
 30
0.0
  0
VERTEX
  5
662
  8
0
 10
125.78621819240109
 20
56.068602309219898
 30
0.0
 42
0.2055316714992537
 50
90.0
  0
VERTEX
  5
663
  8
0
 10
125.9064151779119
 20
56.120190121689461
 30
0.0
 42
0.0965313913509376
 50
90.0
  0
VERTEX
  5
664
  8
0
 10
126.05138323534619
 20
56.347612483672378
 30
0.0
 42
0.0533986296957384
 70
     2
 50
68.512458024392416
  0
VERTEX
  5
665
  8
0
 10
126.1297430337361
 20
56.632594858564538
 30
0.0
 42
0.0404311354471943
 50
90.0
  0
VERTEX
  5
666
  8
0
 10
126.16121819240129
 20
57.021202630875727
 30
0.0
 42
0.0404311354471791
 50
90.0
  0
SEQEND
  5
667
  8
0
  0
POLYLINE
  5
668
  8
0
 66
     1
 10
0.0
 20
0.0
 30
0.0
  0
VERTEX
  5
669
  8
0
 10
126.16121819240099
 20
49.208702630875251
 30
0.0
 42
0.1453834159301123
 50
90.0
  0
VERTEX
  5
66A
  8
0
 10
126.13600106310339
 20
49.293595847136572
 30
0.0
 42
0.1071699662217274
 50
90.0
  0
VERTEX
  5
66B
  8
0
 10
126.05138323534599
 20
49.377268801086842
 30
0.0
 42
0.077350332773411
 70
     2
 50
147.555763887909
  0
VERTEX
  5
66C
  8
0
 10
125.9229186798179
 20
49.433388659341148
 30
0.0
 42
0.0789475685392101
 50
90.0
  0
VERTEX
  5
66D
  8
0
 10
125.78621819240109
 20
49.447091194944129
 30
0.0
 42
0.0644571111103437
 50
90.0
  0
SEQEND
  5
66E
  8
0
  0
POLYLINE
  5
66F
  8
0
 66
     1
 10
0.0
 20
0.0
 30
0.0
  0
VERTEX
  5
670
  8
0
 10
125.78621819240109
 20
48.403434544344321
 30
0.0
 42
0.1837701506072527
 50
90.0
  0
VERTEX
  5
671
  8
0
 10
125.9112353555924
 20
48.4509893870204
 30
0.0
 42
0.1023570990015804
 50
90.0
  0
VERTEX
  5
672
  8
0
 10
126.05138323534941
 20
48.639292106216118
 30
0.0
 42
0.06139380527182
 70
     2
 50
65.029384966189681
  0
VERTEX
  5
673
  8
0
 10
126.13000261884299
 20
48.882061596518753
 30
0.0
 42
0.0476740870733025
 50
90.0
  0
VERTEX
  5
674
  8
0
 10
126.1612181924058
 20
49.208702630875251
 30
0.0
 42
0.0476740870732675
 50
90.0
  0
SEQEND
  5
675
  8
0
  0
POLYLINE
  5
676
  8
0
 66
     1
 10
0.0
 20
0.0
 30
0.0
  0
VERTEX
  5
677
  8
0
 10
125.78621819240109
 20
46.381790291947482
 30
0.0
 42
0.1488470320745859
 50
90.0
  0
VERTEX
  5
678
  8
0
 10
125.9189958801874
 20
46.422213004390947
 30
0.0
 42
0.1070939314374275
 50
90.0
  0
VERTEX
  5
679
  8
0
 10
126.05138323534599
 20
46.559736046606751
 30
0.0
 42
0.0758177480846394
 70
     2
 50
58.315521158222467
  0
VERTEX
  5
67A
  8
0
 10
126.1306488347482
 20
46.746356403433111
 30
0.0
 42
0.0626584555913342
 50
90.0
  0
VERTEX
  5
67B
  8
0
 10
126.16121819240099
 20
46.989335100871891
 30
0.0
 42
0.0626584555913199
 50
90.0
  0
SEQEND
  5
67C
  8
0
  0
POLYLINE
  5
67D
  8
0
 66
     1
 10
0.0
 20
0.0
 30
0.0
  0
VERTEX
  5
67E
  8
0
 10
126.16121819240099
 20
46.989335100871891
 30
0.0
 42
0.0162328826952284
 50
90.0
  0
VERTEX
  5
67F
  8
0
 10
126.0062805890053
 20
46.984303607158687
 30
0.0
 42
0.0226962008047463
 50
90.0
  0
VERTEX
  5
680
  8
0
 10
125.89605314945609
 20
46.972094809291463
 30
0.0
 42
0.0516790455059756
 70
     2
 50
188.92066914969891
  0
VERTEX
  5
681
  8
0
 10
125.7937971356087
 20
46.945006208218977
 30
0.0
 50
90.0
  0
VERTEX
  5
682
  8
0
 10
125.78621819240109
 20
46.93047306353872
 30
0.0
 50
90.0
  0
SEQEND
  5
683
  8
0
  0
POLYLINE
  5
684
  8
0
 66
     1
 10
0.0
 20
0.0
 30
0.0
  0
VERTEX
  5
685
  8
0
 10
115.66121819240119
 20
46.224593167984402
 30
0.0
 42
-0.092572595455409
 50
90.0
  0
VERTEX
  5
686
  8
0
 10
115.8058913452207
 20
46.197576101726924
 30
0.0
 42
-0.0958395211622397
 50
90.0
  0
VERTEX
  5
687
  8
0
 10
115.92638323534609
 20
46.121977790824438
 30
0.0
 42
-0.1008530118927434
 70
     2
 50
316.94630119341338
  0
VERTEX
  5
688
  8
0
 10
116.0148805569592
 20
45.997580330140657
 30
0.0
 42
-0.1236287328816281
 50
90.0
  0
VERTEX
  5
689
  8
0
 10
116.0362181923965
 20
45.87424235557679
 30
0.0
 42
-0.1047089114758273
 50
90.0
  0
SEQEND
  5
68A
  8
0
  0
LINE
  5
68B
  8
0
 10
116.03621819240109
 20
46.93047306353872
 30
0.0
 11
116.03621819240109
 21
48.403434544344321
 31
0.0
  0
POLYLINE
  5
68C
  8
0
 66
     1
 10
0.0
 20
0.0
 30
0.0
  0
VERTEX
  5
68D
  8
0
 10
115.66121819240119
 20
46.989335100871891
 30
0.0
 42
-0.0162328826952284
 50
90.0
  0
VERTEX
  5
68E
  8
0
 10
115.8161557957969
 20
46.984303607158687
 30
0.0
 42
-0.0226962008047463
 50
90.0
  0
VERTEX
  5
68F
  8
0
 10
115.92638323534609
 20
46.972094809291463
 30
0.0
 42
-0.0516790455059756
 70
     2
 50
351.07933085030118
  0
VERTEX
  5
690
  8
0
 10
116.0286392491935
 20
46.945006208218977
 30
0.0
 50
90.0
  0
VERTEX
  5
691
  8
0
 10
116.03621819240109
 20
46.93047306353872
 30
0.0
 50
90.0
  0
SEQEND
  5
692
  8
0
  0
POLYLINE
  5
693
  8
0
 66
     1
 10
0.0
 20
0.0
 30
0.0
  0
VERTEX
  5
694
  8
0
 10
116.03621819240109
 20
46.381790291947482
 30
0.0
 42
-0.1488470320745859
 50
90.0
  0
VERTEX
  5
695
  8
0
 10
115.90344050461481
 20
46.422213004390947
 30
0.0
 42
-0.1070939314374275
 50
90.0
  0
VERTEX
  5
696
  8
0
 10
115.77105314945619
 20
46.559736046606751
 30
0.0
 42
-0.0758177480846394
 70
     2
 50
121.6844788417775
  0
VERTEX
  5
697
  8
0
 10
115.691787550054
 20
46.746356403433111
 30
0.0
 42
-0.0626584555913342
 50
90.0
  0
VERTEX
  5
698
  8
0
 10
115.66121819240119
 20
46.989335100871891
 30
0.0
 42
-0.0626584555913199
 50
90.0
  0
SEQEND
  5
699
  8
0
  0
LINE
  5
69A
  8
0
 10
116.03621819240109
 20
49.447091194945791
 30
0.0
 11
116.03621819240109
 21
51.741282487718962
 31
0.0
  0
POLYLINE
  5
69B
  8
0
 66
     1
 10
0.0
 20
0.0
 30
0.0
  0
VERTEX
  5
69C
  8
0
 10
116.03621819240109
 20
48.403434544344321
 30
0.0
 42
-0.1837701506072527
 50
90.0
  0
VERTEX
  5
69D
  8
0
 10
115.91120102920991
 20
48.4509893870204
 30
0.0
 42
-0.1023570990015804
 50
90.0
  0
VERTEX
  5
69E
  8
0
 10
115.7710531494529
 20
48.639292106216118
 30
0.0
 42
-0.06139380527182
 70
     2
 50
114.9706150338103
  0
VERTEX
  5
69F
  8
0
 10
115.69243376595919
 20
48.882061596518753
 30
0.0
 42
-0.0476740870733025
 50
90.0
  0
VERTEX
  5
6A0
  8
0
 10
115.6612181923964
 20
49.208702630875251
 30
0.0
 42
-0.0476740870732675
 50
90.0
  0
SEQEND
  5
6A1
  8
0
  0
POLYLINE
  5
6A2
  8
0
 66
     1
 10
0.0
 20
0.0
 30
0.0
  0
VERTEX
  5
6A3
  8
0
 10
115.66121819240119
 20
49.208702630875251
 30
0.0
 42
-0.1453834159301123
 50
90.0
  0
VERTEX
  5
6A4
  8
0
 10
115.6864353216988
 20
49.293595847136572
 30
0.0
 42
-0.1071699662217274
 50
90.0
  0
VERTEX
  5
6A5
  8
0
 10
115.77105314945619
 20
49.377268801086842
 30
0.0
 42
-0.077350332773411
 70
     2
 50
32.444236112090998
  0
VERTEX
  5
6A6
  8
0
 10
115.89951770498431
 20
49.433388659341148
 30
0.0
 42
-0.0789475685392101
 50
90.0
  0
VERTEX
  5
6A7
  8
0
 10
116.03621819240109
 20
49.447091194944129
 30
0.0
 42
-0.0644571111103437
 50
90.0
  0
SEQEND
  5
6A8
  8
0
  0
LINE
  5
6A9
  8
0
 10
116.03621819240109
 20
57.757274242477962
 30
0.0
 11
116.03621819240109
 21
60.961805794508422
 31
0.0
  0
LINE
  5
6AA
  8
0
 10
116.03621819240109
 20
53.177752632786422
 30
0.0
 11
116.03621819240109
 21
56.06860230921987
 31
0.0
  0
POLYLINE
  5
6AB
  8
0
 66
     1
 10
0.0
 20
0.0
 30
0.0
  0
VERTEX
  5
6AC
  8
0
 10
116.03621819240109
 20
56.068602309219898
 30
0.0
 42
-0.2055316714992537
 50
90.0
  0
VERTEX
  5
6AD
  8
0
 10
115.91602120689031
 20
56.120190121689461
 30
0.0
 42
-0.0965313913509376
 50
90.0
  0
VERTEX
  5
6AE
  8
0
 10
115.77105314945599
 20
56.347612483672378
 30
0.0
 42
-0.0533986296957384
 70
     2
 50
111.4875419756076
  0
VERTEX
  5
6AF
  8
0
 10
115.6926933510662
 20
56.632594858564538
 30
0.0
 42
-0.0404311354471943
 50
90.0
  0
VERTEX
  5
6B0
  8
0
 10
115.6612181924009
 20
57.021202630875727
 30
0.0
 42
-0.0404311354471791
 50
90.0
  0
SEQEND
  5
6B1
  8
0
  0
POLYLINE
  5
6B2
  8
0
 66
     1
 10
0.0
 20
0.0
 30
0.0
  0
VERTEX
  5
6B3
  8
0
 10
115.66121819240119
 20
57.021202630875727
 30
0.0
 42
-0.0520405140106174
 50
90.0
  0
VERTEX
  5
6B4
  8
0
 10
115.69226003735611
 20
57.318641823688132
 30
0.0
 42
-0.0658985238271168
 50
90.0
  0
VERTEX
  5
6B5
  8
0
 10
115.77105314945619
 20
57.541683858878599
 30
0.0
 42
-0.1046205348859841
 70
     2
 50
63.002918032980951
  0
VERTEX
  5
6B6
  8
0
 10
115.916590298679
 20
57.721778078601062
 30
0.0
 42
-0.1996909920929194
 50
90.0
  0
VERTEX
  5
6B7
  8
0
 10
116.03621819240109
 20
57.75727424247799
 30
0.0
 42
-0.172337143622725
 50
90.0
  0
SEQEND
  5
6B8
  8
0
  0
POLYLINE
  5
6B9
  8
0
 66
     1
 10
0.0
 20
0.0
 30
0.0
  0
VERTEX
  5
6BA
  8
0
 10
115.66121819240119
 20
52.66544860091409
 30
0.0
 42
-0.0737304435607645
 50
90.0
  0
VERTEX
  5
6BB
  8
0
 10
115.691226519838
 20
52.867842587554861
 30
0.0
 42
-0.0845717212532976
 50
90.0
  0
VERTEX
  5
6BC
  8
0
 10
115.77105314945619
 20
53.0277022558802
 30
0.0
 42
-0.1063921108588694
 70
     2
 50
53.796349352970111
  0
VERTEX
  5
6BD
  8
0
 10
115.9083302480277
 20
53.149798685865079
 30
0.0
 42
-0.1510088585334486
 50
90.0
  0
VERTEX
  5
6BE
  8
0
 10
116.03621819240109
 20
53.17775263278957
 30
0.0
 42
-0.1294534172461018
 50
90.0
  0
SEQEND
  5
6BF
  8
0
  0
POLYLINE
  5
6C0
  8
0
 66
     1
 10
0.0
 20
0.0
 30
0.0
  0
VERTEX
  5
6C1
  8
0
 10
116.03621819240109
 20
51.741282487718962
 30
0.0
 42
-0.2015894264067176
 50
90.0
  0
VERTEX
  5
6C2
  8
0
 10
115.9151511721347
 20
51.792161798602159
 30
0.0
 42
-0.0977170379735125
 50
90.0
  0
VERTEX
  5
6C3
  8
0
 10
115.77105314945619
 20
52.011964475331013
 30
0.0
 42
-0.0547927573384048
 70
     2
 50
112.0858977608263
  0
VERTEX
  5
6C4
  8
0
 10
115.6926521155838
 20
52.288781055357639
 30
0.0
 42
-0.0416539519670256
 50
90.0
  0
VERTEX
  5
6C5
  8
0
 10
115.66121819240119
 20
52.665448600914111
 30
0.0
 42
-0.0416539519669881
 50
90.0
  0
SEQEND
  5
6C6
  8
0
  0
LINE
  5
6C7
  8
0
 10
116.03621819240109
 20
45.87424235557679
 30
0.0
 11
125.78621819240109
 21
45.87424235557679
 31
0.0
  0
LINE
  5
6C8
  8
0
 10
116.03621819240109
 20
45.87424235557679
 30
0.0
 11
116.03621819240109
 21
46.381790291947482
 31
0.0
  0
LINE
  5
6C9
  8
0
 10
116.03621819240109
 20
46.381790291947453
 30
0.0
 11
125.78621819240109
 21
46.381790291947453
 31
0.0
  0
LINE
  5
6CA
  8
0
 10
116.03621819240109
 20
46.930473063538699
 30
0.0
 11
125.78621819240109
 21
46.930473063538699
 31
0.0
  0
LINE
  5
6CB
  8
0
 10
116.03621819240109
 20
48.403434544344321
 30
0.0
 11
125.7862191460754
 21
48.403434544344321
 31
0.0
  0
LINE
  5
6CC
  8
0
 10
116.03621819240109
 20
49.447091194945791
 30
0.0
 11
125.8366770652179
 21
49.447091194945791
 31
0.0
  0
LINE
  5
6CD
  8
0
 10
116.03621819240109
 20
51.741282487718962
 30
0.0
 11
125.7862203248817
 21
51.741282487718962
 31
0.0
  0
LINE
  5
6CE
  8
0
 10
116.03621819240109
 20
53.177752632786422
 30
0.0
 11
125.8236594755339
 21
53.177752632786422
 31
0.0
  0
LINE
  5
6CF
  8
0
 10
116.03621819240109
 20
56.068602309219898
 30
0.0
 11
125.7862191460754
 21
56.068602309219898
 31
0.0
  0
LINE
  5
6D0
  8
0
 10
116.03621819240109
 20
57.75727424247799
 30
0.0
 11
125.8205124888572
 21
57.75727424247799
 31
0.0
  0
LINE
  5
6D1
  8
0
 10
116.03621819240109
 20
60.96180579450845
 30
0.0
 11
125.78621819240109
 21
60.96180579450845
 31
0.0
  0
LINE
  5
6D2
  8
0
 10
126.16121819240099
 20
45.849593167984523
 30
0.0
 11
127.03621819240109
 21
45.849593167984523
 31
0.0
  0
LINE
  5
6D3
  8
0
 10
115.6612181924113
 20
46.224593167974341
 30
0.0
 11
115.03621819240109
 21
46.849593167984523
 31
0.0
  0
LINE
  5
6D4
  8
1
 10
142.03621819240109
 20
171.84959316798449
 30
0.0
 11
110.03621819240109
 21
171.84959316798449
 31
0.0
  0
LINE
  5
6D5
  8
0
 10
128.03621819240109
 20
163.34959316798449
 30
0.0
 11
135.7362181924012
 21
163.34959316798449
 31
0.0
  0
LINE
  5
6D6
  8
0
 10
127.03621819240109
 20
155.84959316798449
 30
0.0
 11
128.03621819240121
 21
156.84959316798449
 31
0.0
  0
LINE
  5
6D7
  8
0
 10
135.7362181924012
 20
163.34959316798449
 30
0.0
 11
136.73621819240111
 21
164.34959316798449
 31
0.0
  0
LINE
  5
6D8
  8
0
 10
135.7362181924012
 20
180.34959316798449
 30
0.0
 11
136.73621819240111
 21
179.34959316798449
 31
0.0
  0
LINE
  5
6D9
  8
0
 10
127.03621819240109
 20
187.84959316798449
 30
0.0
 11
128.03621819240121
 21
186.84959316798449
 31
0.0
  0
LINE
  5
6DA
  8
0
 10
115.6612181924113
 20
187.4745931679947
 30
0.0
 11
115.03621819240109
 21
186.84959316798449
 31
0.0
  0
LINE
  5
6DB
  8
0
 10
136.73621819240111
 20
177.84959316798449
 30
0.0
 11
137.03621819240109
 21
177.84959316798449
 31
0.0
  0
LINE
  5
6DC
  8
0
 10
136.73621819240111
 20
179.34959316798449
 30
0.0
 11
136.73621819240111
 21
164.34959316798449
 31
0.0
  0
LINE
  5
6DD
  8
0
 10
128.03621819240121
 20
180.34959316798449
 30
0.0
 11
135.7362181924012
 21
180.34959316798449
 31
0.0
  0
LINE
  5
6DE
  8
0
 10
128.03621819240121
 20
186.84959316798449
 30
0.0
 11
128.03621819240121
 21
156.84959316798449
 31
0.0
  0
LINE
  5
6DF
  8
0
 10
126.16121819240099
 20
187.84959316798449
 30
0.0
 11
127.03621819240109
 21
187.84959316798449
 31
0.0
  0
LINE
  5
6E0
  8
0
 10
135.7362181924012
 20
180.34959316798449
 30
0.0
 11
135.7362181924012
 21
163.34959316798449
 31
0.0
  0
LINE
  5
6E1
  8
0
 10
127.03621819240109
 20
187.84959316798449
 30
0.0
 11
127.03621819240109
 21
155.84959316798449
 31
0.0
  0
LINE
  5
6E2
  8
0
 10
137.03621819240109
 20
165.84959316798449
 30
0.0
 11
136.73621819240111
 21
165.84959316798449
 31
0.0
  0
LINE
  5
6E3
  8
2
 10
120.4362181924011
 20
182.34959316798449
 30
0.0
 11
120.4362181924011
 21
161.34959316798449
 31
0.0
  0
LINE
  5
6E4
  8
2
 10
120.4362181924011
 20
161.34959316798449
 30
0.0
 11
119.9362181924011
 21
161.34959316798449
 31
0.0
  0
LINE
  5
6E5
  8
2
 10
119.9362181924011
 20
161.34959316798449
 30
0.0
 11
119.9362181924011
 21
182.34959316798449
 31
0.0
  0
LINE
  5
6E6
  8
2
 10
115.03621819240109
 20
158.34959316798449
 30
0.0
 11
119.9362181924011
 21
161.34959316798449
 31
0.0
  0
LINE
  5
6E7
  8
0
 10
115.03621819240109
 20
156.84959316798449
 30
0.0
 11
115.03621819240109
 21
186.84959316798449
 31
0.0
  0
LINE
  5
6E8
  8
0
 10
137.03621819240109
 20
165.84959316798449
 30
0.0
 11
137.03621819240109
 21
177.84959316798449
 31
0.0
  0
LINE
  5
6E9
  8
0
 10
116.03621819240119
 20
172.7373805414606
 30
0.0
 11
125.78621819240109
 21
172.7373805414606
 31
0.0
  0
LINE
  5
6EA
  8
0
 10
116.03621819240109
 20
175.94191209349111
 30
0.0
 11
125.8205124888572
 21
175.94191209349111
 31
0.0
  0
LINE
  5
6EB
  8
0
 10
116.03621819240109
 20
177.6305840267492
 30
0.0
 11
125.7862191460754
 21
177.6305840267492
 31
0.0
  0
LINE
  5
6EC
  8
0
 10
116.03621819240109
 20
180.52143370318259
 30
0.0
 11
125.8236594755339
 21
180.52143370318259
 31
0.0
  0
LINE
  5
6ED
  8
0
 10
116.03621819240109
 20
181.95790384825011
 30
0.0
 11
125.7862203248817
 21
181.95790384825011
 31
0.0
  0
LINE
  5
6EE
  8
0
 10
116.03621819240119
 20
184.25209514102329
 30
0.0
 11
125.8366770652179
 21
184.25209514102329
 31
0.0
  0
LINE
  5
6EF
  8
0
 10
116.03621819240109
 20
185.2957517916247
 30
0.0
 11
125.7862191460754
 21
185.2957517916247
 31
0.0
  0
LINE
  5
6F0
  8
0
 10
116.03621819240109
 20
186.7687132724304
 30
0.0
 11
125.78621819240109
 21
186.7687132724304
 31
0.0
  0
LINE
  5
6F1
  8
0
 10
116.03621819240119
 20
187.31739604402159
 30
0.0
 11
125.78621819240109
 21
187.31739604402159
 31
0.0
  0
LINE
  5
6F2
  8
2
 10
115.03621819240109
 20
185.34959316798449
 30
0.0
 11
119.9362181924011
 21
182.34959316798449
 31
0.0
  0
LINE
  5
6F3
  8
2
 10
120.4362181924011
 20
182.34959316798449
 30
0.0
 11
119.9362181924011
 21
182.34959316798449
 31
0.0
  0
LINE
  5
6F4
  8
0
 10
116.03621819240109
 20
187.82494398039231
 30
0.0
 11
116.03621819240119
 21
187.31739604402159
 31
0.0
  0
LINE
  5
6F5
  8
0
 10
116.03621819240109
 20
187.82494398039231
 30
0.0
 11
125.78621819240109
 21
187.82494398039231
 31
0.0
  0
POLYLINE
  5
6F6
  8
0
 66
     1
 10
0.0
 20
0.0
 30
0.0
  0
VERTEX
  5
6F7
  8
0
 10
116.03621819240109
 20
181.95790384825011
 30
0.0
 42
0.2015894264067176
 50
90.0
  0
VERTEX
  5
6F8
  8
0
 10
115.9151511721347
 20
181.90702453736691
 30
0.0
 42
0.0977170379735125
 50
90.0
  0
VERTEX
  5
6F9
  8
0
 10
115.77105314945631
 20
181.687221860638
 30
0.0
 42
0.0547927573384048
 70
     2
 50
247.9141022391737
  0
VERTEX
  5
6FA
  8
0
 10
115.6926521155838
 20
181.4104052806114
 30
0.0
 42
0.0416539519670256
 50
247.9141022391737
  0
VERTEX
  5
6FB
  8
0
 10
115.66121819240119
 20
181.0337377350549
 30
0.0
 42
0.0416539519669881
 50
90.0
  0
SEQEND
  5
6FC
  8
0
  0
POLYLINE
  5
6FD
  8
0
 66
     1
 10
0.0
 20
0.0
 30
0.0
  0
VERTEX
  5
6FE
  8
0
 10
115.66121819240119
 20
181.0337377350549
 30
0.0
 42
0.0737304435607645
 50
90.0
  0
VERTEX
  5
6FF
  8
0
 10
115.691226519838
 20
180.83134374841421
 30
0.0
 42
0.0845717212532976
 50
90.0
  0
VERTEX
  5
700
  8
0
 10
115.77105314945619
 20
180.6714840800889
 30
0.0
 42
0.1063921108588694
 70
     2
 50
306.20365064702992
  0
VERTEX
  5
701
  8
0
 10
115.9083302480278
 20
180.54938765010399
 30
0.0
 42
0.1510088585334486
 50
306.20365064702992
  0
VERTEX
  5
702
  8
0
 10
116.03621819240109
 20
180.5214337031795
 30
0.0
 42
0.1294534172461018
 50
90.0
  0
SEQEND
  5
703
  8
0
  0
POLYLINE
  5
704
  8
0
 66
     1
 10
0.0
 20
0.0
 30
0.0
  0
VERTEX
  5
705
  8
0
 10
115.66121819240119
 20
176.67798370509331
 30
0.0
 42
0.0520405140106174
 50
90.0
  0
VERTEX
  5
706
  8
0
 10
115.69226003735611
 20
176.38054451228089
 30
0.0
 42
0.0658985238271168
 50
90.0
  0
VERTEX
  5
707
  8
0
 10
115.77105314945631
 20
176.15750247709039
 30
0.0
 42
0.1046205348859841
 70
     2
 50
296.99708196701908
  0
VERTEX
  5
708
  8
0
 10
115.916590298679
 20
175.97740825736801
 30
0.0
 42
0.1996909920929194
 50
296.99708196701908
  0
VERTEX
  5
709
  8
0
 10
116.03621819240109
 20
175.94191209349111
 30
0.0
 42
0.172337143622725
 50
90.0
  0
SEQEND
  5
70A
  8
0
  0
POLYLINE
  5
70B
  8
0
 66
     1
 10
0.0
 20
0.0
 30
0.0
  0
VERTEX
  5
70C
  8
0
 10
116.03621819240109
 20
177.6305840267492
 30
0.0
 42
0.2055316714992537
 50
90.0
  0
VERTEX
  5
70D
  8
0
 10
115.91602120689031
 20
177.57899621427961
 30
0.0
 42
0.0965313913509376
 50
90.0
  0
VERTEX
  5
70E
  8
0
 10
115.77105314945609
 20
177.35157385229661
 30
0.0
 42
0.0533986296957384
 70
     2
 50
248.5124580243924
  0
VERTEX
  5
70F
  8
0
 10
115.6926933510662
 20
177.0665914774045
 30
0.0
 42
0.0404311354471943
 50
248.5124580243924
  0
VERTEX
  5
710
  8
0
 10
115.6612181924009
 20
176.67798370509331
 30
0.0
 42
0.0404311354471791
 50
90.0
  0
SEQEND
  5
711
  8
0
  0
POLYLINE
  5
712
  8
0
 66
     1
 10
0.0
 20
0.0
 30
0.0
  0
VERTEX
  5
713
  8
0
 10
115.66121819240119
 20
171.84959316798449
 30
0.0
 42
0.0433295665536456
 50
90.0
  0
VERTEX
  5
714
  8
0
 10
115.6925938787271
 20
171.4882142933219
 30
0.0
 42
0.0566743414169658
 50
90.0
  0
VERTEX
  5
715
  8
0
 10
115.77105314945631
 20
171.2218326959478
 30
0.0
 42
0.0992025570697266
 70
     2
 50
292.89911996388048
  0
VERTEX
  5
716
  8
0
 10
115.92146604340429
 20
171.00075446552231
 30
0.0
 42
0.2280338981645266
 50
292.89911996388048
  0
VERTEX
  5
717
  8
0
 10
116.03621819240109
 20
170.96180579452579
 30
0.0
 42
0.1963710675046459
 50
90.0
  0
SEQEND
  5
718
  8
0
  0
POLYLINE
  5
719
  8
0
 66
     1
 10
0.0
 20
0.0
 30
0.0
  0
VERTEX
  5
71A
  8
0
 10
116.03621819240109
 20
172.7373805414606
 30
0.0
 42
0.1963710675046226
 50
90.0
  0
VERTEX
  5
71B
  8
0
 10
115.9139970702814
 20
172.68745390627271
 30
0.0
 42
0.0992025570696904
 50
90.0
  0
VERTEX
  5
71C
  8
0
 10
115.77105314945619
 20
172.47735364002131
 30
0.0
 42
0.0566743414169369
 70
     2
 50
247.10088003612381
  0
VERTEX
  5
71D
  8
0
 10
115.6925938787271
 20
172.21097204264731
 30
0.0
 42
0.0433295665536664
 50
247.10088003612381
  0
VERTEX
  5
71E
  8
0
 10
115.66121819240119
 20
171.84959316798449
 30
0.0
 42
0.0433295665536456
 50
90.0
  0
SEQEND
  5
71F
  8
0
  0
LINE
  5
720
  8
0
 10
116.03621819240109
 20
180.52143370318259
 30
0.0
 11
116.03621819240109
 21
177.6305840267492
 31
0.0
  0
LINE
  5
721
  8
0
 10
116.03621819240109
 20
175.94191209349111
 30
0.0
 11
116.03621819240109
 21
172.7373805414606
 31
0.0
  0
POLYLINE
  5
722
  8
0
 66
     1
 10
0.0
 20
0.0
 30
0.0
  0
VERTEX
  5
723
  8
0
 10
115.66121819240119
 20
184.49048370509379
 30
0.0
 42
0.1453834159301123
 50
90.0
  0
VERTEX
  5
724
  8
0
 10
115.6864353216988
 20
184.4055904888325
 30
0.0
 42
0.1071699662217274
 50
90.0
  0
VERTEX
  5
725
  8
0
 10
115.77105314945631
 20
184.3219175348822
 30
0.0
 42
0.077350332773411
 70
     2
 50
327.55576388790911
  0
VERTEX
  5
726
  8
0
 10
115.89951770498431
 20
184.2657976766279
 30
0.0
 42
0.0789475685392101
 50
327.55576388790911
  0
VERTEX
  5
727
  8
0
 10
116.03621819240119
 20
184.25209514102491
 30
0.0
 42
0.0644571111103437
 50
90.0
  0
SEQEND
  5
728
  8
0
  0
POLYLINE
  5
729
  8
0
 66
     1
 10
0.0
 20
0.0
 30
0.0
  0
VERTEX
  5
72A
  8
0
 10
116.03621819240109
 20
185.2957517916247
 30
0.0
 42
0.1837701506072527
 50
90.0
  0
VERTEX
  5
72B
  8
0
 10
115.91120102920991
 20
185.24819694894859
 30
0.0
 42
0.1023570990015804
 50
90.0
  0
VERTEX
  5
72C
  8
0
 10
115.7710531494529
 20
185.0598942297529
 30
0.0
 42
0.06139380527182
 70
     2
 50
245.0293849661897
  0
VERTEX
  5
72D
  8
0
 10
115.69243376595919
 20
184.81712473945029
 30
0.0
 42
0.0476740870733025
 50
245.0293849661897
  0
VERTEX
  5
72E
  8
0
 10
115.6612181923964
 20
184.49048370509379
 30
0.0
 42
0.0476740870732675
 50
90.0
  0
SEQEND
  5
72F
  8
0
  0
LINE
  5
730
  8
0
 10
116.03621819240109
 20
184.25209514102329
 30
0.0
 11
116.03621819240109
 21
181.95790384825011
 31
0.0
  0
POLYLINE
  5
731
  8
0
 66
     1
 10
0.0
 20
0.0
 30
0.0
  0
VERTEX
  5
732
  8
0
 10
116.03621819240109
 20
187.31739604402159
 30
0.0
 42
0.1488470320745859
 50
90.0
  0
VERTEX
  5
733
  8
0
 10
115.90344050461481
 20
187.27697333157809
 30
0.0
 42
0.1070939314374275
 50
90.0
  0
VERTEX
  5
734
  8
0
 10
115.77105314945631
 20
187.13945028936229
 30
0.0
 42
0.0758177480846394
 70
     2
 50
238.31552115822251
  0
VERTEX
  5
735
  8
0
 10
115.691787550054
 20
186.95282993253591
 30
0.0
 42
0.0626584555913342
 50
238.31552115822251
  0
VERTEX
  5
736
  8
0
 10
115.66121819240119
 20
186.70985123509709
 30
0.0
 42
0.0626584555913199
 50
90.0
  0
SEQEND
  5
737
  8
0
  0
POLYLINE
  5
738
  8
0
 66
     1
 10
0.0
 20
0.0
 30
0.0
  0
VERTEX
  5
739
  8
0
 10
115.66121819240119
 20
186.70985123509709
 30
0.0
 42
0.0162328826952284
 50
90.0
  0
VERTEX
  5
73A
  8
0
 10
115.8161557957969
 20
186.71488272881041
 30
0.0
 42
0.0226962008047463
 50
90.0
  0
VERTEX
  5
73B
  8
0
 10
115.92638323534609
 20
186.72709152667761
 30
0.0
 42
0.0516790455059756
 70
     2
 50
8.9206691496988508
  0
VERTEX
  5
73C
  8
0
 10
116.0286392491935
 20
186.75418012775009
 30
0.0
 50
8.9206691496988508
  0
VERTEX
  5
73D
  8
0
 10
116.03621819240119
 20
186.76871327243029
 30
0.0
 50
90.0
  0
SEQEND
  5
73E
  8
0
  0
LINE
  5
73F
  8
0
 10
116.03621819240109
 20
186.76871327243029
 30
0.0
 11
116.03621819240109
 21
185.2957517916247
 31
0.0
  0
POLYLINE
  5
740
  8
0
 66
     1
 10
0.0
 20
0.0
 30
0.0
  0
VERTEX
  5
741
  8
0
 10
115.66121819240119
 20
187.47459316798461
 30
0.0
 42
0.092572595455409
 50
90.0
  0
VERTEX
  5
742
  8
0
 10
115.8058913452207
 20
187.50161023424209
 30
0.0
 42
0.0958395211622397
 50
90.0
  0
VERTEX
  5
743
  8
0
 10
115.92638323534609
 20
187.5772085451446
 30
0.0
 42
0.1008530118927434
 70
     2
 50
43.053698806586652
  0
VERTEX
  5
744
  8
0
 10
116.0148805569592
 20
187.70160600582841
 30
0.0
 42
0.1236287328816281
 50
43.053698806586652
  0
VERTEX
  5
745
  8
0
 10
116.0362181923965
 20
187.82494398039231
 30
0.0
 42
0.1047089114758273
 50
90.0
  0
SEQEND
  5
746
  8
0
  0
POLYLINE
  5
747
  8
0
 66
     1
 10
0.0
 20
0.0
 30
0.0
  0
VERTEX
  5
748
  8
0
 10
126.16121819240099
 20
186.70985123509709
 30
0.0
 42
-0.0162328826952284
 50
90.0
  0
VERTEX
  5
749
  8
0
 10
126.0062805890053
 20
186.71488272881041
 30
0.0
 42
-0.0226962008047463
 50
90.0
  0
VERTEX
  5
74A
  8
0
 10
125.89605314945609
 20
186.72709152667761
 30
0.0
 42
-0.0516790455059756
 70
     2
 50
171.07933085030109
  0
VERTEX
  5
74B
  8
0
 10
125.7937971356088
 20
186.75418012775009
 30
0.0
 50
90.0
  0
VERTEX
  5
74C
  8
0
 10
125.78621819240109
 20
186.76871327243029
 30
0.0
 50
90.0
  0
SEQEND
  5
74D
  8
0
  0
POLYLINE
  5
74E
  8
0
 66
     1
 10
0.0
 20
0.0
 30
0.0
  0
VERTEX
  5
74F
  8
0
 10
125.78621819240109
 20
187.31739604402159
 30
0.0
 42
-0.1488470320745859
 50
90.0
  0
VERTEX
  5
750
  8
0
 10
125.9189958801874
 20
187.27697333157809
 30
0.0
 42
-0.1070939314374275
 50
90.0
  0
VERTEX
  5
751
  8
0
 10
126.05138323534599
 20
187.13945028936229
 30
0.0
 42
-0.0758177480846394
 70
     2
 50
301.68447884177749
  0
VERTEX
  5
752
  8
0
 10
126.1306488347482
 20
186.95282993253591
 30
0.0
 42
-0.0626584555913342
 50
90.0
  0
VERTEX
  5
753
  8
0
 10
126.16121819240099
 20
186.70985123509709
 30
0.0
 42
-0.0626584555913199
 50
90.0
  0
SEQEND
  5
754
  8
0
  0
POLYLINE
  5
755
  8
0
 66
     1
 10
0.0
 20
0.0
 30
0.0
  0
VERTEX
  5
756
  8
0
 10
125.78621819240109
 20
185.2957517916247
 30
0.0
 42
-0.1837701506072527
 50
90.0
  0
VERTEX
  5
757
  8
0
 10
125.9112353555924
 20
185.24819694894859
 30
0.0
 42
-0.1023570990015804
 50
90.0
  0
VERTEX
  5
758
  8
0
 10
126.05138323534941
 20
185.0598942297529
 30
0.0
 42
-0.06139380527182
 70
     2
 50
294.9706150338103
  0
VERTEX
  5
759
  8
0
 10
126.13000261884299
 20
184.81712473945029
 30
0.0
 42
-0.0476740870733025
 50
90.0
  0
VERTEX
  5
75A
  8
0
 10
126.1612181924058
 20
184.49048370509379
 30
0.0
 42
-0.0476740870732675
 50
90.0
  0
SEQEND
  5
75B
  8
0
  0
POLYLINE
  5
75C
  8
0
 66
     1
 10
0.0
 20
0.0
 30
0.0
  0
VERTEX
  5
75D
  8
0
 10
126.16121819240099
 20
184.49048370509379
 30
0.0
 42
-0.1453834159301123
 50
90.0
  0
VERTEX
  5
75E
  8
0
 10
126.13600106310339
 20
184.4055904888325
 30
0.0
 42
-0.1071699662217274
 50
90.0
  0
VERTEX
  5
75F
  8
0
 10
126.05138323534599
 20
184.3219175348822
 30
0.0
 42
-0.077350332773411
 70
     2
 50
212.444236112091
  0
VERTEX
  5
760
  8
0
 10
125.9229186798179
 20
184.2657976766279
 30
0.0
 42
-0.0789475685392101
 50
90.0
  0
VERTEX
  5
761
  8
0
 10
125.78621819240109
 20
184.25209514102491
 30
0.0
 42
-0.0644571111103437
 50
90.0
  0
SEQEND
  5
762
  8
0
  0
POLYLINE
  5
763
  8
0
 66
     1
 10
0.0
 20
0.0
 30
0.0
  0
VERTEX
  5
764
  8
0
 10
125.78621819240109
 20
172.7373805414606
 30
0.0
 42
-0.1963710675046226
 50
90.0
  0
VERTEX
  5
765
  8
0
 10
125.90843931452081
 20
172.68745390627271
 30
0.0
 42
-0.0992025570696904
 50
90.0
  0
VERTEX
  5
766
  8
0
 10
126.05138323534599
 20
172.47735364002131
 30
0.0
 42
-0.0566743414169369
 70
     2
 50
292.89911996387622
  0
VERTEX
  5
767
  8
0
 10
126.12984250607521
 20
172.21097204264731
 30
0.0
 42
-0.0433295665536664
 50
90.0
  0
VERTEX
  5
768
  8
0
 10
126.16121819240099
 20
171.84959316798449
 30
0.0
 42
-0.0433295665536456
 50
90.0
  0
SEQEND
  5
769
  8
0
  0
POLYLINE
  5
76A
  8
0
 66
     1
 10
0.0
 20
0.0
 30
0.0
  0
VERTEX
  5
76B
  8
0
 10
126.16121819240099
 20
171.84959316798449
 30
0.0
 42
-0.0433295665536456
 50
90.0
  0
VERTEX
  5
76C
  8
0
 10
126.12984250607521
 20
171.4882142933219
 30
0.0
 42
-0.0566743414169658
 50
90.0
  0
VERTEX
  5
76D
  8
0
 10
126.05138323534599
 20
171.2218326959478
 30
0.0
 42
-0.0992025570697266
 70
     2
 50
247.10088003611941
  0
VERTEX
  5
76E
  8
0
 10
125.90097034139789
 20
171.00075446552231
 30
0.0
 42
-0.2280338981645266
 50
90.0
  0
VERTEX
  5
76F
  8
0
 10
125.78621819240109
 20
170.96180579452579
 30
0.0
 42
-0.1963710675046459
 50
90.0
  0
SEQEND
  5
770
  8
0
  0
POLYLINE
  5
771
  8
0
 66
     1
 10
0.0
 20
0.0
 30
0.0
  0
VERTEX
  5
772
  8
0
 10
125.78621819240109
 20
177.6305840267492
 30
0.0
 42
-0.2055316714992537
 50
90.0
  0
VERTEX
  5
773
  8
0
 10
125.9064151779119
 20
177.57899621427961
 30
0.0
 42
-0.0965313913509376
 50
90.0
  0
VERTEX
  5
774
  8
0
 10
126.05138323534619
 20
177.35157385229661
 30
0.0
 42
-0.0533986296957384
 70
     2
 50
291.4875419756076
  0
VERTEX
  5
775
  8
0
 10
126.1297430337361
 20
177.0665914774045
 30
0.0
 42
-0.0404311354471943
 50
90.0
  0
VERTEX
  5
776
  8
0
 10
126.16121819240129
 20
176.67798370509331
 30
0.0
 42
-0.0404311354471791
 50
90.0
  0
SEQEND
  5
777
  8
0
  0
POLYLINE
  5
778
  8
0
 66
     1
 10
0.0
 20
0.0
 30
0.0
  0
VERTEX
  5
779
  8
0
 10
126.16121819240099
 20
176.67798370509331
 30
0.0
 42
-0.0520405140106174
 50
90.0
  0
VERTEX
  5
77A
  8
0
 10
126.1301763474461
 20
176.38054451228089
 30
0.0
 42
-0.0658985238271168
 50
90.0
  0
VERTEX
  5
77B
  8
0
 10
126.05138323534599
 20
176.15750247709039
 30
0.0
 42
-0.1046205348859841
 70
     2
 50
243.00291803298089
  0
VERTEX
  5
77C
  8
0
 10
125.9058460861233
 20
175.97740825736801
 30
0.0
 42
-0.1996909920929194
 50
90.0
  0
VERTEX
  5
77D
  8
0
 10
125.78621819240109
 20
175.94191209349111
 30
0.0
 42
-0.172337143622725
 50
90.0
  0
SEQEND
  5
77E
  8
0
  0
POLYLINE
  5
77F
  8
0
 66
     1
 10
0.0
 20
0.0
 30
0.0
  0
VERTEX
  5
780
  8
0
 10
126.16121819240099
 20
181.0337377350549
 30
0.0
 42
-0.0737304435607645
 50
90.0
  0
VERTEX
  5
781
  8
0
 10
126.1312098649643
 20
180.83134374841421
 30
0.0
 42
-0.0845717212532976
 50
90.0
  0
VERTEX
  5
782
  8
0
 10
126.05138323534599
 20
180.6714840800889
 30
0.0
 42
-0.1063921108588694
 70
     2
 50
233.79634935297011
  0
VERTEX
  5
783
  8
0
 10
125.91410613677451
 20
180.54938765010399
 30
0.0
 42
-0.1510088585334486
 50
90.0
  0
VERTEX
  5
784
  8
0
 10
125.78621819240109
 20
180.5214337031795
 30
0.0
 42
-0.1294534172461018
 50
90.0
  0
SEQEND
  5
785
  8
0
  0
POLYLINE
  5
786
  8
0
 66
     1
 10
0.0
 20
0.0
 30
0.0
  0
VERTEX
  5
787
  8
0
 10
125.78621819240109
 20
181.95790384825011
 30
0.0
 42
-0.2015894264067176
 50
90.0
  0
VERTEX
  5
788
  8
0
 10
125.9072852126676
 20
181.90702453736691
 30
0.0
 42
-0.0977170379735125
 50
90.0
  0
VERTEX
  5
789
  8
0
 10
126.05138323534599
 20
181.687221860638
 30
0.0
 42
-0.0547927573384048
 70
     2
 50
292.08589776082619
  0
VERTEX
  5
78A
  8
0
 10
126.1297842692184
 20
181.4104052806114
 30
0.0
 42
-0.0416539519670256
 50
90.0
  0
VERTEX
  5
78B
  8
0
 10
126.16121819240099
 20
181.0337377350549
 30
0.0
 42
-0.0416539519669881
 50
90.0
  0
SEQEND
  5
78C
  8
0
  0
POLYLINE
  5
78D
  8
0
 66
     1
 10
0.0
 20
0.0
 30
0.0
  0
VERTEX
  5
78E
  8
0
 10
125.78621819240109
 20
187.82494398039231
 30
0.0
 42
0.0068051090718327
 50
90.0
  0
VERTEX
  5
78F
  8
0
 10
125.94147890061301
 20
187.8270572103628
 30
0.0
 42
0.0096044777403865
 50
90.0
  0
VERTEX
  5
790
  8
0
 10
126.05138323534599
 20
187.83216356028731
 30
0.0
 42
0.0229390352869734
 70
     2
 50
3.7607085175068882
  0
VERTEX
  5
791
  8
0
 10
126.15799815822029
 20
187.8441013645047
 30
0.0
 50
3.7607085175068882
  0
VERTEX
  5
792
  8
0
 10
126.16121819240099
 20
187.84959316798449
 30
0.0
 50
90.0
  0
SEQEND
  5
793
  8
0
  0
POLYLINE
  5
794
  8
0
 66
     1
 10
0.0
 20
0.0
 30
0.0
  0
VERTEX
  5
795
  8
0
 10
125.78621819240109
 20
155.8742423555768
 30
0.0
 42
-0.0068051090718327
 50
90.0
  0
VERTEX
  5
796
  8
0
 10
125.94147890061301
 20
155.87212912560619
 30
0.0
 42
-0.0096044777403865
 50
90.0
  0
VERTEX
  5
797
  8
0
 10
126.05138323534599
 20
155.8670227756817
 30
0.0
 42
-0.0229390352869734
 70
     2
 50
356.23929148249317
  0
VERTEX
  5
798
  8
0
 10
126.15799815822029
 20
155.85508497146441
 30
0.0
 50
90.0
  0
VERTEX
  5
799
  8
0
 10
126.16121819240099
 20
155.84959316798449
 30
0.0
 50
90.0
  0
SEQEND
  5
79A
  8
0
  0
POLYLINE
  5
79B
  8
0
 66
     1
 10
0.0
 20
0.0
 30
0.0
  0
VERTEX
  5
79C
  8
0
 10
125.78621819240109
 20
161.74128248771891
 30
0.0
 42
0.2015894264067176
 50
90.0
  0
VERTEX
  5
79D
  8
0
 10
125.9072852126676
 20
161.79216179860211
 30
0.0
 42
0.0977170379735125
 50
90.0
  0
VERTEX
  5
79E
  8
0
 10
126.05138323534599
 20
162.01196447533101
 30
0.0
 42
0.0547927573384048
 70
     2
 50
67.914102239173715
  0
VERTEX
  5
79F
  8
0
 10
126.1297842692184
 20
162.28878105535759
 30
0.0
 42
0.0416539519670256
 50
90.0
  0
VERTEX
  5
7A0
  8
0
 10
126.16121819240099
 20
162.66544860091409
 30
0.0
 42
0.0416539519669881
 50
90.0
  0
SEQEND
  5
7A1
  8
0
  0
POLYLINE
  5
7A2
  8
0
 66
     1
 10
0.0
 20
0.0
 30
0.0
  0
VERTEX
  5
7A3
  8
0
 10
126.16121819240099
 20
162.66544860091409
 30
0.0
 42
0.0737304435607645
 50
90.0
  0
VERTEX
  5
7A4
  8
0
 10
126.1312098649643
 20
162.8678425875548
 30
0.0
 42
0.0845717212532976
 50
90.0
  0
VERTEX
  5
7A5
  8
0
 10
126.05138323534599
 20
163.0277022558802
 30
0.0
 42
0.1063921108588694
 70
     2
 50
126.2036506470299
  0
VERTEX
  5
7A6
  8
0
 10
125.91410613677451
 20
163.14979868586511
 30
0.0
 42
0.1510088585334486
 50
90.0
  0
VERTEX
  5
7A7
  8
0
 10
125.78621819240109
 20
163.17775263278949
 30
0.0
 42
0.1294534172461018
 50
90.0
  0
SEQEND
  5
7A8
  8
0
  0
POLYLINE
  5
7A9
  8
0
 66
     1
 10
0.0
 20
0.0
 30
0.0
  0
VERTEX
  5
7AA
  8
0
 10
126.16121819240099
 20
167.02120263087571
 30
0.0
 42
0.0520405140106174
 50
90.0
  0
VERTEX
  5
7AB
  8
0
 10
126.1301763474461
 20
167.3186418236881
 30
0.0
 42
0.0658985238271168
 50
90.0
  0
VERTEX
  5
7AC
  8
0
 10
126.05138323534599
 20
167.5416838588786
 30
0.0
 42
0.1046205348859841
 70
     2
 50
116.9970819670191
  0
VERTEX
  5
7AD
  8
0
 10
125.9058460861233
 20
167.72177807860101
 30
0.0
 42
0.1996909920929194
 50
90.0
  0
VERTEX
  5
7AE
  8
0
 10
125.78621819240109
 20
167.75727424247799
 30
0.0
 42
0.172337143622725
 50
90.0
  0
SEQEND
  5
7AF
  8
0
  0
POLYLINE
  5
7B0
  8
0
 66
     1
 10
0.0
 20
0.0
 30
0.0
  0
VERTEX
  5
7B1
  8
0
 10
125.78621819240109
 20
166.0686023092199
 30
0.0
 42
0.2055316714992537
 50
90.0
  0
VERTEX
  5
7B2
  8
0
 10
125.9064151779119
 20
166.1201901216894
 30
0.0
 42
0.0965313913509376
 50
90.0
  0
VERTEX
  5
7B3
  8
0
 10
126.05138323534619
 20
166.34761248367241
 30
0.0
 42
0.0533986296957384
 70
     2
 50
68.512458024392416
  0
VERTEX
  5
7B4
  8
0
 10
126.1297430337361
 20
166.63259485856449
 30
0.0
 42
0.0404311354471943
 50
90.0
  0
VERTEX
  5
7B5
  8
0
 10
126.16121819240129
 20
167.02120263087571
 30
0.0
 42
0.0404311354471791
 50
90.0
  0
SEQEND
  5
7B6
  8
0
  0
POLYLINE
  5
7B7
  8
0
 66
     1
 10
0.0
 20
0.0
 30
0.0
  0
VERTEX
  5
7B8
  8
0
 10
126.16121819240099
 20
159.20870263087519
 30
0.0
 42
0.1453834159301123
 50
90.0
  0
VERTEX
  5
7B9
  8
0
 10
126.13600106310339
 20
159.2935958471366
 30
0.0
 42
0.1071699662217274
 50
90.0
  0
VERTEX
  5
7BA
  8
0
 10
126.05138323534599
 20
159.37726880108681
 30
0.0
 42
0.077350332773411
 70
     2
 50
147.555763887909
  0
VERTEX
  5
7BB
  8
0
 10
125.9229186798179
 20
159.43338865934109
 30
0.0
 42
0.0789475685392101
 50
90.0
  0
VERTEX
  5
7BC
  8
0
 10
125.78621819240109
 20
159.44709119494411
 30
0.0
 42
0.0644571111103437
 50
90.0
  0
SEQEND
  5
7BD
  8
0
  0
POLYLINE
  5
7BE
  8
0
 66
     1
 10
0.0
 20
0.0
 30
0.0
  0
VERTEX
  5
7BF
  8
0
 10
125.78621819240109
 20
158.40343454434429
 30
0.0
 42
0.1837701506072527
 50
90.0
  0
VERTEX
  5
7C0
  8
0
 10
125.9112353555924
 20
158.4509893870204
 30
0.0
 42
0.1023570990015804
 50
90.0
  0
VERTEX
  5
7C1
  8
0
 10
126.05138323534941
 20
158.63929210621609
 30
0.0
 42
0.06139380527182
 70
     2
 50
65.029384966189681
  0
VERTEX
  5
7C2
  8
0
 10
126.13000261884299
 20
158.8820615965187
 30
0.0
 42
0.0476740870733025
 50
90.0
  0
VERTEX
  5
7C3
  8
0
 10
126.1612181924058
 20
159.20870263087519
 30
0.0
 42
0.0476740870732675
 50
90.0
  0
SEQEND
  5
7C4
  8
0
  0
POLYLINE
  5
7C5
  8
0
 66
     1
 10
0.0
 20
0.0
 30
0.0
  0
VERTEX
  5
7C6
  8
0
 10
125.78621819240109
 20
156.3817902919474
 30
0.0
 42
0.1488470320745859
 50
90.0
  0
VERTEX
  5
7C7
  8
0
 10
125.9189958801874
 20
156.4222130043909
 30
0.0
 42
0.1070939314374275
 50
90.0
  0
VERTEX
  5
7C8
  8
0
 10
126.05138323534599
 20
156.5597360466067
 30
0.0
 42
0.0758177480846394
 70
     2
 50
58.315521158222467
  0
VERTEX
  5
7C9
  8
0
 10
126.1306488347482
 20
156.74635640343311
 30
0.0
 42
0.0626584555913342
 50
90.0
  0
VERTEX
  5
7CA
  8
0
 10
126.16121819240099
 20
156.9893351008719
 30
0.0
 42
0.0626584555913199
 50
90.0
  0
SEQEND
  5
7CB
  8
0
  0
POLYLINE
  5
7CC
  8
0
 66
     1
 10
0.0
 20
0.0
 30
0.0
  0
VERTEX
  5
7CD
  8
0
 10
126.16121819240099
 20
156.9893351008719
 30
0.0
 42
0.0162328826952284
 50
90.0
  0
VERTEX
  5
7CE
  8
0
 10
126.0062805890053
 20
156.98430360715869
 30
0.0
 42
0.0226962008047463
 50
90.0
  0
VERTEX
  5
7CF
  8
0
 10
125.89605314945609
 20
156.97209480929141
 30
0.0
 42
0.0516790455059756
 70
     2
 50
188.92066914969891
  0
VERTEX
  5
7D0
  8
0
 10
125.7937971356088
 20
156.94500620821901
 30
0.0
 50
90.0
  0
VERTEX
  5
7D1
  8
0
 10
125.78621819240109
 20
156.9304730635387
 30
0.0
 50
90.0
  0
SEQEND
  5
7D2
  8
0
  0
POLYLINE
  5
7D3
  8
0
 66
     1
 10
0.0
 20
0.0
 30
0.0
  0
VERTEX
  5
7D4
  8
0
 10
115.66121819240119
 20
156.22459316798441
 30
0.0
 42
-0.092572595455409
 50
90.0
  0
VERTEX
  5
7D5
  8
0
 10
115.8058913452207
 20
156.1975761017269
 30
0.0
 42
-0.0958395211622397
 50
90.0
  0
VERTEX
  5
7D6
  8
0
 10
115.92638323534609
 20
156.12197779082439
 30
0.0
 42
-0.1008530118927434
 70
     2
 50
316.94630119341338
  0
VERTEX
  5
7D7
  8
0
 10
116.0148805569592
 20
155.99758033014061
 30
0.0
 42
-0.1236287328816281
 50
90.0
  0
VERTEX
  5
7D8
  8
0
 10
116.0362181923965
 20
155.8742423555768
 30
0.0
 42
-0.1047089114758273
 50
90.0
  0
SEQEND
  5
7D9
  8
0
  0
LINE
  5
7DA
  8
0
 10
116.03621819240109
 20
156.9304730635387
 30
0.0
 11
116.03621819240109
 21
158.40343454434429
 31
0.0
  0
POLYLINE
  5
7DB
  8
0
 66
     1
 10
0.0
 20
0.0
 30
0.0
  0
VERTEX
  5
7DC
  8
0
 10
115.66121819240119
 20
156.9893351008719
 30
0.0
 42
-0.0162328826952284
 50
90.0
  0
VERTEX
  5
7DD
  8
0
 10
115.8161557957969
 20
156.98430360715869
 30
0.0
 42
-0.0226962008047463
 50
90.0
  0
VERTEX
  5
7DE
  8
0
 10
115.92638323534609
 20
156.97209480929141
 30
0.0
 42
-0.0516790455059756
 70
     2
 50
351.07933085030118
  0
VERTEX
  5
7DF
  8
0
 10
116.0286392491935
 20
156.94500620821901
 30
0.0
 50
90.0
  0
VERTEX
  5
7E0
  8
0
 10
116.03621819240119
 20
156.9304730635387
 30
0.0
 50
90.0
  0
SEQEND
  5
7E1
  8
0
  0
POLYLINE
  5
7E2
  8
0
 66
     1
 10
0.0
 20
0.0
 30
0.0
  0
VERTEX
  5
7E3
  8
0
 10
116.03621819240109
 20
156.3817902919474
 30
0.0
 42
-0.1488470320745859
 50
90.0
  0
VERTEX
  5
7E4
  8
0
 10
115.90344050461481
 20
156.4222130043909
 30
0.0
 42
-0.1070939314374275
 50
90.0
  0
VERTEX
  5
7E5
  8
0
 10
115.77105314945631
 20
156.5597360466067
 30
0.0
 42
-0.0758177480846394
 70
     2
 50
121.6844788417775
  0
VERTEX
  5
7E6
  8
0
 10
115.691787550054
 20
156.74635640343311
 30
0.0
 42
-0.0626584555913342
 50
90.0
  0
VERTEX
  5
7E7
  8
0
 10
115.66121819240119
 20
156.9893351008719
 30
0.0
 42
-0.0626584555913199
 50
90.0
  0
SEQEND
  5
7E8
  8
0
  0
LINE
  5
7E9
  8
0
 10
116.03621819240109
 20
159.44709119494581
 30
0.0
 11
116.03621819240109
 21
161.74128248771891
 31
0.0
  0
POLYLINE
  5
7EA
  8
0
 66
     1
 10
0.0
 20
0.0
 30
0.0
  0
VERTEX
  5
7EB
  8
0
 10
116.03621819240109
 20
158.40343454434429
 30
0.0
 42
-0.1837701506072527
 50
90.0
  0
VERTEX
  5
7EC
  8
0
 10
115.91120102920991
 20
158.4509893870204
 30
0.0
 42
-0.1023570990015804
 50
90.0
  0
VERTEX
  5
7ED
  8
0
 10
115.7710531494529
 20
158.63929210621609
 30
0.0
 42
-0.06139380527182
 70
     2
 50
114.9706150338103
  0
VERTEX
  5
7EE
  8
0
 10
115.69243376595919
 20
158.8820615965187
 30
0.0
 42
-0.0476740870733025
 50
90.0
  0
VERTEX
  5
7EF
  8
0
 10
115.6612181923964
 20
159.20870263087519
 30
0.0
 42
-0.0476740870732675
 50
90.0
  0
SEQEND
  5
7F0
  8
0
  0
POLYLINE
  5
7F1
  8
0
 66
     1
 10
0.0
 20
0.0
 30
0.0
  0
VERTEX
  5
7F2
  8
0
 10
115.66121819240119
 20
159.20870263087519
 30
0.0
 42
-0.1453834159301123
 50
90.0
  0
VERTEX
  5
7F3
  8
0
 10
115.6864353216988
 20
159.2935958471366
 30
0.0
 42
-0.1071699662217274
 50
90.0
  0
VERTEX
  5
7F4
  8
0
 10
115.77105314945631
 20
159.37726880108681
 30
0.0
 42
-0.077350332773411
 70
     2
 50
32.444236112090998
  0
VERTEX
  5
7F5
  8
0
 10
115.89951770498431
 20
159.43338865934109
 30
0.0
 42
-0.0789475685392101
 50
90.0
  0
VERTEX
  5
7F6
  8
0
 10
116.03621819240119
 20
159.44709119494411
 30
0.0
 42
-0.0644571111103437
 50
90.0
  0
SEQEND
  5
7F7
  8
0
  0
LINE
  5
7F8
  8
0
 10
116.03621819240109
 20
167.75727424247791
 30
0.0
 11
116.03621819240109
 21
170.96180579450839
 31
0.0
  0
LINE
  5
7F9
  8
0
 10
116.03621819240109
 20
163.17775263278639
 30
0.0
 11
116.03621819240109
 21
166.06860230921981
 31
0.0
  0
POLYLINE
  5
7FA
  8
0
 66
     1
 10
0.0
 20
0.0
 30
0.0
  0
VERTEX
  5
7FB
  8
0
 10
116.03621819240109
 20
166.0686023092199
 30
0.0
 42
-0.2055316714992537
 50
90.0
  0
VERTEX
  5
7FC
  8
0
 10
115.91602120689031
 20
166.1201901216894
 30
0.0
 42
-0.0965313913509376
 50
90.0
  0
VERTEX
  5
7FD
  8
0
 10
115.77105314945609
 20
166.34761248367241
 30
0.0
 42
-0.0533986296957384
 70
     2
 50
111.4875419756076
  0
VERTEX
  5
7FE
  8
0
 10
115.6926933510662
 20
166.63259485856449
 30
0.0
 42
-0.0404311354471943
 50
90.0
  0
VERTEX
  5
7FF
  8
0
 10
115.6612181924009
 20
167.02120263087571
 30
0.0
 42
-0.0404311354471791
 50
90.0
  0
SEQEND
  5
800
  8
0
  0
POLYLINE
  5
801
  8
0
 66
     1
 10
0.0
 20
0.0
 30
0.0
  0
VERTEX
  5
802
  8
0
 10
115.66121819240119
 20
167.02120263087571
 30
0.0
 42
-0.0520405140106174
 50
90.0
  0
VERTEX
  5
803
  8
0
 10
115.69226003735611
 20
167.3186418236881
 30
0.0
 42
-0.0658985238271168
 50
90.0
  0
VERTEX
  5
804
  8
0
 10
115.77105314945631
 20
167.5416838588786
 30
0.0
 42
-0.1046205348859841
 70
     2
 50
63.002918032980951
  0
VERTEX
  5
805
  8
0
 10
115.916590298679
 20
167.72177807860101
 30
0.0
 42
-0.1996909920929194
 50
90.0
  0
VERTEX
  5
806
  8
0
 10
116.03621819240109
 20
167.75727424247799
 30
0.0
 42
-0.172337143622725
 50
90.0
  0
SEQEND
  5
807
  8
0
  0
POLYLINE
  5
808
  8
0
 66
     1
 10
0.0
 20
0.0
 30
0.0
  0
VERTEX
  5
809
  8
0
 10
115.66121819240119
 20
162.66544860091409
 30
0.0
 42
-0.0737304435607645
 50
90.0
  0
VERTEX
  5
80A
  8
0
 10
115.691226519838
 20
162.8678425875548
 30
0.0
 42
-0.0845717212532976
 50
90.0
  0
VERTEX
  5
80B
  8
0
 10
115.77105314945619
 20
163.0277022558802
 30
0.0
 42
-0.1063921108588694
 70
     2
 50
53.796349352970111
  0
VERTEX
  5
80C
  8
0
 10
115.9083302480278
 20
163.14979868586511
 30
0.0
 42
-0.1510088585334486
 50
90.0
  0
VERTEX
  5
80D
  8
0
 10
116.03621819240109
 20
163.17775263278949
 30
0.0
 42
-0.1294534172461018
 50
90.0
  0
SEQEND
  5
80E
  8
0
  0
POLYLINE
  5
80F
  8
0
 66
     1
 10
0.0
 20
0.0
 30
0.0
  0
VERTEX
  5
810
  8
0
 10
116.03621819240109
 20
161.74128248771891
 30
0.0
 42
-0.2015894264067176
 50
90.0
  0
VERTEX
  5
811
  8
0
 10
115.9151511721347
 20
161.79216179860211
 30
0.0
 42
-0.0977170379735125
 50
90.0
  0
VERTEX
  5
812
  8
0
 10
115.77105314945631
 20
162.01196447533101
 30
0.0
 42
-0.0547927573384048
 70
     2
 50
112.0858977608263
  0
VERTEX
  5
813
  8
0
 10
115.6926521155838
 20
162.28878105535759
 30
0.0
 42
-0.0416539519670256
 50
90.0
  0
VERTEX
  5
814
  8
0
 10
115.66121819240119
 20
162.66544860091409
 30
0.0
 42
-0.0416539519669881
 50
90.0
  0
SEQEND
  5
815
  8
0
  0
LINE
  5
816
  8
0
 10
116.03621819240109
 20
155.8742423555768
 30
0.0
 11
125.78621819240109
 21
155.8742423555768
 31
0.0
  0
LINE
  5
817
  8
0
 10
116.03621819240109
 20
155.8742423555768
 30
0.0
 11
116.03621819240119
 21
156.3817902919474
 31
0.0
  0
LINE
  5
818
  8
0
 10
116.03621819240119
 20
156.3817902919474
 30
0.0
 11
125.78621819240109
 21
156.3817902919474
 31
0.0
  0
LINE
  5
819
  8
0
 10
116.03621819240109
 20
156.9304730635387
 30
0.0
 11
125.78621819240109
 21
156.9304730635387
 31
0.0
  0
LINE
  5
81A
  8
0
 10
116.03621819240109
 20
158.40343454434429
 30
0.0
 11
125.7862191460754
 21
158.40343454434429
 31
0.0
  0
LINE
  5
81B
  8
0
 10
116.03621819240119
 20
159.44709119494581
 30
0.0
 11
125.8366770652179
 21
159.44709119494581
 31
0.0
  0
LINE
  5
81C
  8
0
 10
116.03621819240109
 20
161.74128248771891
 30
0.0
 11
125.7862203248817
 21
161.74128248771891
 31
0.0
  0
LINE
  5
81D
  8
0
 10
116.03621819240109
 20
163.17775263278639
 30
0.0
 11
125.8236594755339
 21
163.17775263278639
 31
0.0
  0
LINE
  5
81E
  8
0
 10
116.03621819240109
 20
166.0686023092199
 30
0.0
 11
125.7862191460754
 21
166.0686023092199
 31
0.0
  0
LINE
  5
81F
  8
0
 10
116.03621819240109
 20
167.75727424247799
 30
0.0
 11
125.8205124888572
 21
167.75727424247799
 31
0.0
  0
LINE
  5
820
  8
0
 10
116.03621819240119
 20
170.96180579450839
 30
0.0
 11
125.78621819240109
 21
170.96180579450839
 31
0.0
  0
LINE
  5
821
  8
0
 10
126.16121819240099
 20
155.84959316798449
 30
0.0
 11
127.03621819240109
 21
155.84959316798449
 31
0.0
  0
LINE
  5
822
  8
0
 10
115.6612181924113
 20
156.22459316797429
 30
0.0
 11
115.03621819240109
 21
156.84959316798449
 31
0.0
  0
LINE
  5
823
  8
0
 10
115.6612181924113
 20
101.22459316797431
 30
0.0
 11
115.03621819240109
 21
101.84959316798449
 31
0.0
  0
LINE
  5
824
  8
0
 10
126.16121819240099
 20
100.84959316798449
 30
0.0
 11
127.03621819240109
 21
100.84959316798449
 31
0.0
  0
LINE
  5
825
  8
0
 10
116.03621819240109
 20
115.96180579450839
 30
0.0
 11
125.78621819240109
 21
115.96180579450839
 31
0.0
  0
LINE
  5
826
  8
0
 10
116.03621819240109
 20
112.757274242478
 30
0.0
 11
125.8205124888572
 21
112.757274242478
 31
0.0
  0
LINE
  5
827
  8
0
 10
116.03621819240109
 20
111.0686023092199
 30
0.0
 11
125.7862191460754
 21
111.0686023092199
 31
0.0
  0
LINE
  5
828
  8
0
 10
116.03621819240109
 20
108.17775263278639
 30
0.0
 11
125.8236594755339
 21
108.17775263278639
 31
0.0
  0
LINE
  5
829
  8
0
 10
116.03621819240109
 20
106.74128248771891
 30
0.0
 11
125.7862203248817
 21
106.74128248771891
 31
0.0
  0
LINE
  5
82A
  8
0
 10
116.03621819240109
 20
104.4470911949458
 30
0.0
 11
125.8366770652179
 21
104.4470911949458
 31
0.0
  0
LINE
  5
82B
  8
0
 10
116.03621819240109
 20
103.40343454434429
 30
0.0
 11
125.7862191460754
 21
103.40343454434429
 31
0.0
  0
LINE
  5
82C
  8
0
 10
116.03621819240109
 20
101.9304730635387
 30
0.0
 11
125.78621819240109
 21
101.9304730635387
 31
0.0
  0
LINE
  5
82D
  8
0
 10
116.03621819240109
 20
101.3817902919474
 30
0.0
 11
125.78621819240109
 21
101.3817902919474
 31
0.0
  0
LINE
  5
82E
  8
0
 10
116.03621819240109
 20
100.8742423555768
 30
0.0
 11
116.03621819240109
 21
101.3817902919475
 31
0.0
  0
LINE
  5
82F
  8
0
 10
116.03621819240109
 20
100.8742423555768
 30
0.0
 11
125.78621819240109
 21
100.8742423555768
 31
0.0
  0
POLYLINE
  5
830
  8
0
 66
     1
 10
0.0
 20
0.0
 30
0.0
  0
VERTEX
  5
831
  8
0
 10
116.03621819240109
 20
106.74128248771891
 30
0.0
 42
-0.2015894264067176
 50
90.0
  0
VERTEX
  5
832
  8
0
 10
115.9151511721347
 20
106.79216179860209
 30
0.0
 42
-0.0977170379735125
 50
90.0
  0
VERTEX
  5
833
  8
0
 10
115.77105314945619
 20
107.011964475331
 30
0.0
 42
-0.0547927573384048
 70
     2
 50
112.0858977608263
  0
VERTEX
  5
834
  8
0
 10
115.6926521155838
 20
107.2887810553576
 30
0.0
 42
-0.0416539519670256
 50
90.0
  0
VERTEX
  5
835
  8
0
 10
115.66121819240119
 20
107.6654486009141
 30
0.0
 42
-0.0416539519669881
 50
90.0
  0
SEQEND
  5
836
  8
0
  0
POLYLINE
  5
837
  8
0
 66
     1
 10
0.0
 20
0.0
 30
0.0
  0
VERTEX
  5
838
  8
0
 10
115.66121819240119
 20
107.6654486009141
 30
0.0
 42
-0.0737304435607645
 50
90.0
  0
VERTEX
  5
839
  8
0
 10
115.691226519838
 20
107.8678425875548
 30
0.0
 42
-0.0845717212532976
 50
90.0
  0
VERTEX
  5
83A
  8
0
 10
115.77105314945619
 20
108.0277022558802
 30
0.0
 42
-0.1063921108588694
 70
     2
 50
53.796349352970111
  0
VERTEX
  5
83B
  8
0
 10
115.9083302480277
 20
108.14979868586499
 30
0.0
 42
-0.1510088585334486
 50
90.0
  0
VERTEX
  5
83C
  8
0
 10
116.03621819240109
 20
108.17775263278951
 30
0.0
 42
-0.1294534172461018
 50
90.0
  0
SEQEND
  5
83D
  8
0
  0
POLYLINE
  5
83E
  8
0
 66
     1
 10
0.0
 20
0.0
 30
0.0
  0
VERTEX
  5
83F
  8
0
 10
115.66121819240119
 20
112.02120263087571
 30
0.0
 42
-0.0520405140106174
 50
90.0
  0
VERTEX
  5
840
  8
0
 10
115.69226003735611
 20
112.3186418236881
 30
0.0
 42
-0.0658985238271168
 50
90.0
  0
VERTEX
  5
841
  8
0
 10
115.77105314945619
 20
112.5416838588786
 30
0.0
 42
-0.1046205348859841
 70
     2
 50
63.002918032980951
  0
VERTEX
  5
842
  8
0
 10
115.916590298679
 20
112.7217780786011
 30
0.0
 42
-0.1996909920929194
 50
90.0
  0
VERTEX
  5
843
  8
0
 10
116.03621819240109
 20
112.757274242478
 30
0.0
 42
-0.172337143622725
 50
90.0
  0
SEQEND
  5
844
  8
0
  0
POLYLINE
  5
845
  8
0
 66
     1
 10
0.0
 20
0.0
 30
0.0
  0
VERTEX
  5
846
  8
0
 10
116.03621819240109
 20
111.0686023092199
 30
0.0
 42
-0.2055316714992537
 50
90.0
  0
VERTEX
  5
847
  8
0
 10
115.91602120689031
 20
111.1201901216894
 30
0.0
 42
-0.0965313913509376
 50
90.0
  0
VERTEX
  5
848
  8
0
 10
115.77105314945599
 20
111.34761248367241
 30
0.0
 42
-0.0533986296957384
 70
     2
 50
111.4875419756076
  0
VERTEX
  5
849
  8
0
 10
115.6926933510662
 20
111.6325948585645
 30
0.0
 42
-0.0404311354471943
 50
90.0
  0
VERTEX
  5
84A
  8
0
 10
115.6612181924009
 20
112.02120263087571
 30
0.0
 42
-0.0404311354471791
 50
90.0
  0
SEQEND
  5
84B
  8
0
  0
LINE
  5
84C
  8
0
 10
116.03621819240109
 20
108.17775263278639
 30
0.0
 11
116.03621819240109
 21
111.0686023092198
 31
0.0
  0
LINE
  5
84D
  8
0
 10
116.03621819240109
 20
112.75727424247791
 30
0.0
 11
116.03621819240109
 21
115.96180579450839
 31
0.0
  0
POLYLINE
  5
84E
  8
0
 66
     1
 10
0.0
 20
0.0
 30
0.0
  0
VERTEX
  5
84F
  8
0
 10
115.66121819240119
 20
104.20870263087519
 30
0.0
 42
-0.1453834159301123
 50
90.0
  0
VERTEX
  5
850
  8
0
 10
115.6864353216988
 20
104.2935958471365
 30
0.0
 42
-0.1071699662217274
 50
90.0
  0
VERTEX
  5
851
  8
0
 10
115.77105314945619
 20
104.3772688010868
 30
0.0
 42
-0.077350332773411
 70
     2
 50
32.444236112090998
  0
VERTEX
  5
852
  8
0
 10
115.89951770498431
 20
104.43338865934111
 30
0.0
 42
-0.0789475685392101
 50
90.0
  0
VERTEX
  5
853
  8
0
 10
116.03621819240109
 20
104.44709119494409
 30
0.0
 42
-0.0644571111103437
 50
90.0
  0
SEQEND
  5
854
  8
0
  0
POLYLINE
  5
855
  8
0
 66
     1
 10
0.0
 20
0.0
 30
0.0
  0
VERTEX
  5
856
  8
0
 10
116.03621819240109
 20
103.40343454434429
 30
0.0
 42
-0.1837701506072527
 50
90.0
  0
VERTEX
  5
857
  8
0
 10
115.91120102920991
 20
103.4509893870204
 30
0.0
 42
-0.1023570990015804
 50
90.0
  0
VERTEX
  5
858
  8
0
 10
115.7710531494529
 20
103.6392921062161
 30
0.0
 42
-0.06139380527182
 70
     2
 50
114.9706150338103
  0
VERTEX
  5
859
  8
0
 10
115.69243376595919
 20
103.8820615965187
 30
0.0
 42
-0.0476740870733025
 50
90.0
  0
VERTEX
  5
85A
  8
0
 10
115.6612181923964
 20
104.20870263087519
 30
0.0
 42
-0.0476740870732675
 50
90.0
  0
SEQEND
  5
85B
  8
0
  0
LINE
  5
85C
  8
0
 10
116.03621819240109
 20
104.4470911949458
 30
0.0
 11
116.03621819240109
 21
106.74128248771891
 31
0.0
  0
POLYLINE
  5
85D
  8
0
 66
     1
 10
0.0
 20
0.0
 30
0.0
  0
VERTEX
  5
85E
  8
0
 10
116.03621819240109
 20
101.3817902919475
 30
0.0
 42
-0.1488470320745859
 50
90.0
  0
VERTEX
  5
85F
  8
0
 10
115.90344050461481
 20
101.4222130043909
 30
0.0
 42
-0.1070939314374275
 50
90.0
  0
VERTEX
  5
860
  8
0
 10
115.77105314945619
 20
101.5597360466067
 30
0.0
 42
-0.0758177480846394
 70
     2
 50
121.6844788417775
  0
VERTEX
  5
861
  8
0
 10
115.691787550054
 20
101.7463564034331
 30
0.0
 42
-0.0626584555913342
 50
90.0
  0
VERTEX
  5
862
  8
0
 10
115.66121819240119
 20
101.9893351008719
 30
0.0
 42
-0.0626584555913199
 50
90.0
  0
SEQEND
  5
863
  8
0
  0
POLYLINE
  5
864
  8
0
 66
     1
 10
0.0
 20
0.0
 30
0.0
  0
VERTEX
  5
865
  8
0
 10
115.66121819240119
 20
101.9893351008719
 30
0.0
 42
-0.0162328826952284
 50
90.0
  0
VERTEX
  5
866
  8
0
 10
115.8161557957969
 20
101.98430360715869
 30
0.0
 42
-0.0226962008047463
 50
90.0
  0
VERTEX
  5
867
  8
0
 10
115.92638323534609
 20
101.97209480929141
 30
0.0
 42
-0.0516790455059756
 70
     2
 50
351.07933085030118
  0
VERTEX
  5
868
  8
0
 10
116.0286392491935
 20
101.945006208219
 30
0.0
 50
90.0
  0
VERTEX
  5
869
  8
0
 10
116.03621819240109
 20
101.9304730635387
 30
0.0
 50
90.0
  0
SEQEND
  5
86A
  8
0
  0
LINE
  5
86B
  8
0
 10
116.03621819240109
 20
101.9304730635387
 30
0.0
 11
116.03621819240109
 21
103.40343454434429
 31
0.0
  0
POLYLINE
  5
86C
  8
0
 66
     1
 10
0.0
 20
0.0
 30
0.0
  0
VERTEX
  5
86D
  8
0
 10
115.66121819240119
 20
101.22459316798439
 30
0.0
 42
-0.092572595455409
 50
90.0
  0
VERTEX
  5
86E
  8
0
 10
115.8058913452207
 20
101.1975761017269
 30
0.0
 42
-0.0958395211622397
 50
90.0
  0
VERTEX
  5
86F
  8
0
 10
115.92638323534609
 20
101.1219777908244
 30
0.0
 42
-0.1008530118927434
 70
     2
 50
316.94630119341338
  0
VERTEX
  5
870
  8
0
 10
116.0148805569592
 20
100.99758033014059
 30
0.0
 42
-0.1236287328816281
 50
90.0
  0
VERTEX
  5
871
  8
0
 10
116.0362181923965
 20
100.8742423555768
 30
0.0
 42
-0.1047089114758273
 50
90.0
  0
SEQEND
  5
872
  8
0
  0
POLYLINE
  5
873
  8
0
 66
     1
 10
0.0
 20
0.0
 30
0.0
  0
VERTEX
  5
874
  8
0
 10
126.16121819240099
 20
101.9893351008719
 30
0.0
 42
0.0162328826952284
 50
90.0
  0
VERTEX
  5
875
  8
0
 10
126.0062805890053
 20
101.98430360715869
 30
0.0
 42
0.0226962008047463
 50
90.0
  0
VERTEX
  5
876
  8
0
 10
125.89605314945609
 20
101.97209480929141
 30
0.0
 42
0.0516790455059756
 70
     2
 50
188.92066914969891
  0
VERTEX
  5
877
  8
0
 10
125.7937971356087
 20
101.945006208219
 30
0.0
 50
90.0
  0
VERTEX
  5
878
  8
0
 10
125.78621819240109
 20
101.9304730635387
 30
0.0
 50
90.0
  0
SEQEND
  5
879
  8
0
  0
POLYLINE
  5
87A
  8
0
 66
     1
 10
0.0
 20
0.0
 30
0.0
  0
VERTEX
  5
87B
  8
0
 10
125.78621819240109
 20
101.3817902919475
 30
0.0
 42
0.1488470320745859
 50
90.0
  0
VERTEX
  5
87C
  8
0
 10
125.9189958801874
 20
101.4222130043909
 30
0.0
 42
0.1070939314374275
 50
90.0
  0
VERTEX
  5
87D
  8
0
 10
126.05138323534599
 20
101.5597360466067
 30
0.0
 42
0.0758177480846394
 70
     2
 50
58.315521158222467
  0
VERTEX
  5
87E
  8
0
 10
126.1306488347482
 20
101.7463564034331
 30
0.0
 42
0.0626584555913342
 50
90.0
  0
VERTEX
  5
87F
  8
0
 10
126.16121819240099
 20
101.9893351008719
 30
0.0
 42
0.0626584555913199
 50
90.0
  0
SEQEND
  5
880
  8
0
  0
POLYLINE
  5
881
  8
0
 66
     1
 10
0.0
 20
0.0
 30
0.0
  0
VERTEX
  5
882
  8
0
 10
125.78621819240109
 20
103.40343454434429
 30
0.0
 42
0.1837701506072527
 50
90.0
  0
VERTEX
  5
883
  8
0
 10
125.9112353555924
 20
103.4509893870204
 30
0.0
 42
0.1023570990015804
 50
90.0
  0
VERTEX
  5
884
  8
0
 10
126.05138323534941
 20
103.6392921062161
 30
0.0
 42
0.06139380527182
 70
     2
 50
65.029384966189681
  0
VERTEX
  5
885
  8
0
 10
126.13000261884299
 20
103.8820615965187
 30
0.0
 42
0.0476740870733025
 50
90.0
  0
VERTEX
  5
886
  8
0
 10
126.1612181924058
 20
104.20870263087519
 30
0.0
 42
0.0476740870732675
 50
90.0
  0
SEQEND
  5
887
  8
0
  0
POLYLINE
  5
888
  8
0
 66
     1
 10
0.0
 20
0.0
 30
0.0
  0
VERTEX
  5
889
  8
0
 10
126.16121819240099
 20
104.20870263087519
 30
0.0
 42
0.1453834159301123
 50
90.0
  0
VERTEX
  5
88A
  8
0
 10
126.13600106310339
 20
104.2935958471365
 30
0.0
 42
0.1071699662217274
 50
90.0
  0
VERTEX
  5
88B
  8
0
 10
126.05138323534599
 20
104.3772688010868
 30
0.0
 42
0.077350332773411
 70
     2
 50
147.555763887909
  0
VERTEX
  5
88C
  8
0
 10
125.9229186798179
 20
104.43338865934111
 30
0.0
 42
0.0789475685392101
 50
90.0
  0
VERTEX
  5
88D
  8
0
 10
125.78621819240109
 20
104.44709119494409
 30
0.0
 42
0.0644571111103437
 50
90.0
  0
SEQEND
  5
88E
  8
0
  0
POLYLINE
  5
88F
  8
0
 66
     1
 10
0.0
 20
0.0
 30
0.0
  0
VERTEX
  5
890
  8
0
 10
125.78621819240109
 20
111.0686023092199
 30
0.0
 42
0.2055316714992537
 50
90.0
  0
VERTEX
  5
891
  8
0
 10
125.9064151779119
 20
111.1201901216894
 30
0.0
 42
0.0965313913509376
 50
90.0
  0
VERTEX
  5
892
  8
0
 10
126.05138323534619
 20
111.34761248367241
 30
0.0
 42
0.0533986296957384
 70
     2
 50
68.512458024392416
  0
VERTEX
  5
893
  8
0
 10
126.1297430337361
 20
111.6325948585645
 30
0.0
 42
0.0404311354471943
 50
90.0
  0
VERTEX
  5
894
  8
0
 10
126.16121819240129
 20
112.02120263087571
 30
0.0
 42
0.0404311354471791
 50
90.0
  0
SEQEND
  5
895
  8
0
  0
POLYLINE
  5
896
  8
0
 66
     1
 10
0.0
 20
0.0
 30
0.0
  0
VERTEX
  5
897
  8
0
 10
126.16121819240099
 20
112.02120263087571
 30
0.0
 42
0.0520405140106174
 50
90.0
  0
VERTEX
  5
898
  8
0
 10
126.1301763474461
 20
112.3186418236881
 30
0.0
 42
0.0658985238271168
 50
90.0
  0
VERTEX
  5
899
  8
0
 10
126.05138323534599
 20
112.5416838588786
 30
0.0
 42
0.1046205348859841
 70
     2
 50
116.9970819670191
  0
VERTEX
  5
89A
  8
0
 10
125.9058460861232
 20
112.7217780786011
 30
0.0
 42
0.1996909920929194
 50
90.0
  0
VERTEX
  5
89B
  8
0
 10
125.78621819240109
 20
112.757274242478
 30
0.0
 42
0.172337143622725
 50
90.0
  0
SEQEND
  5
89C
  8
0
  0
POLYLINE
  5
89D
  8
0
 66
     1
 10
0.0
 20
0.0
 30
0.0
  0
VERTEX
  5
89E
  8
0
 10
126.16121819240099
 20
107.6654486009141
 30
0.0
 42
0.0737304435607645
 50
90.0
  0
VERTEX
  5
89F
  8
0
 10
126.13120986496421
 20
107.8678425875548
 30
0.0
 42
0.0845717212532976
 50
90.0
  0
VERTEX
  5
8A0
  8
0
 10
126.05138323534599
 20
108.0277022558802
 30
0.0
 42
0.1063921108588694
 70
     2
 50
126.2036506470299
  0
VERTEX
  5
8A1
  8
0
 10
125.91410613677451
 20
108.14979868586499
 30
0.0
 42
0.1510088585334486
 50
90.0
  0
VERTEX
  5
8A2
  8
0
 10
125.78621819240109
 20
108.17775263278951
 30
0.0
 42
0.1294534172461018
 50
90.0
  0
SEQEND
  5
8A3
  8
0
  0
POLYLINE
  5
8A4
  8
0
 66
     1
 10
0.0
 20
0.0
 30
0.0
  0
VERTEX
  5
8A5
  8
0
 10
125.78621819240109
 20
106.74128248771891
 30
0.0
 42
0.2015894264067176
 50
90.0
  0
VERTEX
  5
8A6
  8
0
 10
125.9072852126676
 20
106.79216179860209
 30
0.0
 42
0.0977170379735125
 50
90.0
  0
VERTEX
  5
8A7
  8
0
 10
126.05138323534599
 20
107.011964475331
 30
0.0
 42
0.0547927573384048
 70
     2
 50
67.914102239173715
  0
VERTEX
  5
8A8
  8
0
 10
126.1297842692184
 20
107.2887810553576
 30
0.0
 42
0.0416539519670256
 50
90.0
  0
VERTEX
  5
8A9
  8
0
 10
126.16121819240099
 20
107.6654486009141
 30
0.0
 42
0.0416539519669881
 50
90.0
  0
SEQEND
  5
8AA
  8
0
  0
POLYLINE
  5
8AB
  8
0
 66
     1
 10
0.0
 20
0.0
 30
0.0
  0
VERTEX
  5
8AC
  8
0
 10
125.78621819240109
 20
100.8742423555768
 30
0.0
 42
-0.0068051090718327
 50
90.0
  0
VERTEX
  5
8AD
  8
0
 10
125.94147890061301
 20
100.87212912560619
 30
0.0
 42
-0.0096044777403865
 50
90.0
  0
VERTEX
  5
8AE
  8
0
 10
126.05138323534599
 20
100.8670227756817
 30
0.0
 42
-0.0229390352869734
 70
     2
 50
356.23929148249317
  0
VERTEX
  5
8AF
  8
0
 10
126.15799815822029
 20
100.85508497146439
 30
0.0
 50
90.0
  0
VERTEX
  5
8B0
  8
0
 10
126.16121819240099
 20
100.84959316798449
 30
0.0
 50
90.0
  0
SEQEND
  5
8B1
  8
0
  0
POLYLINE
  5
8B2
  8
0
 66
     1
 10
0.0
 20
0.0
 30
0.0
  0
VERTEX
  5
8B3
  8
0
 10
125.78621819240109
 20
132.82494398039231
 30
0.0
 42
0.0068051090718327
 50
90.0
  0
VERTEX
  5
8B4
  8
0
 10
125.94147890061301
 20
132.8270572103628
 30
0.0
 42
0.0096044777403865
 50
90.0
  0
VERTEX
  5
8B5
  8
0
 10
126.05138323534599
 20
132.83216356028731
 30
0.0
 42
0.0229390352869734
 70
     2
 50
3.7607085175068882
  0
VERTEX
  5
8B6
  8
0
 10
126.15799815822029
 20
132.8441013645047
 30
0.0
 50
3.7607085175068882
  0
VERTEX
  5
8B7
  8
0
 10
126.16121819240099
 20
132.84959316798449
 30
0.0
 50
90.0
  0
SEQEND
  5
8B8
  8
0
  0
POLYLINE
  5
8B9
  8
0
 66
     1
 10
0.0
 20
0.0
 30
0.0
  0
VERTEX
  5
8BA
  8
0
 10
125.78621819240109
 20
126.9579038482501
 30
0.0
 42
-0.2015894264067176
 50
90.0
  0
VERTEX
  5
8BB
  8
0
 10
125.9072852126676
 20
126.90702453736689
 30
0.0
 42
-0.0977170379735125
 50
90.0
  0
VERTEX
  5
8BC
  8
0
 10
126.05138323534599
 20
126.687221860638
 30
0.0
 42
-0.0547927573384048
 70
     2
 50
292.08589776082619
  0
VERTEX
  5
8BD
  8
0
 10
126.1297842692184
 20
126.4104052806114
 30
0.0
 42
-0.0416539519670256
 50
90.0
  0
VERTEX
  5
8BE
  8
0
 10
126.16121819240099
 20
126.0337377350549
 30
0.0
 42
-0.0416539519669881
 50
90.0
  0
SEQEND
  5
8BF
  8
0
  0
POLYLINE
  5
8C0
  8
0
 66
     1
 10
0.0
 20
0.0
 30
0.0
  0
VERTEX
  5
8C1
  8
0
 10
126.16121819240099
 20
126.033737735055
 30
0.0
 42
-0.0737304435607645
 50
90.0
  0
VERTEX
  5
8C2
  8
0
 10
126.13120986496421
 20
125.8313437484142
 30
0.0
 42
-0.0845717212532976
 50
90.0
  0
VERTEX
  5
8C3
  8
0
 10
126.05138323534599
 20
125.6714840800889
 30
0.0
 42
-0.1063921108588694
 70
     2
 50
233.79634935297011
  0
VERTEX
  5
8C4
  8
0
 10
125.91410613677451
 20
125.54938765010399
 30
0.0
 42
-0.1510088585334486
 50
90.0
  0
VERTEX
  5
8C5
  8
0
 10
125.78621819240109
 20
125.5214337031795
 30
0.0
 42
-0.1294534172461018
 50
90.0
  0
SEQEND
  5
8C6
  8
0
  0
POLYLINE
  5
8C7
  8
0
 66
     1
 10
0.0
 20
0.0
 30
0.0
  0
VERTEX
  5
8C8
  8
0
 10
126.16121819240099
 20
121.6779837050933
 30
0.0
 42
-0.0520405140106174
 50
90.0
  0
VERTEX
  5
8C9
  8
0
 10
126.1301763474461
 20
121.38054451228091
 30
0.0
 42
-0.0658985238271168
 50
90.0
  0
VERTEX
  5
8CA
  8
0
 10
126.05138323534599
 20
121.1575024770904
 30
0.0
 42
-0.1046205348859841
 70
     2
 50
243.00291803298089
  0
VERTEX
  5
8CB
  8
0
 10
125.9058460861232
 20
120.977408257368
 30
0.0
 42
-0.1996909920929194
 50
90.0
  0
VERTEX
  5
8CC
  8
0
 10
125.78621819240109
 20
120.941912093491
 30
0.0
 42
-0.172337143622725
 50
90.0
  0
SEQEND
  5
8CD
  8
0
  0
POLYLINE
  5
8CE
  8
0
 66
     1
 10
0.0
 20
0.0
 30
0.0
  0
VERTEX
  5
8CF
  8
0
 10
125.78621819240109
 20
122.6305840267492
 30
0.0
 42
-0.2055316714992537
 50
90.0
  0
VERTEX
  5
8D0
  8
0
 10
125.9064151779119
 20
122.5789962142796
 30
0.0
 42
-0.0965313913509376
 50
90.0
  0
VERTEX
  5
8D1
  8
0
 10
126.05138323534619
 20
122.3515738522967
 30
0.0
 42
-0.0533986296957384
 70
     2
 50
291.4875419756076
  0
VERTEX
  5
8D2
  8
0
 10
126.1297430337361
 20
122.0665914774045
 30
0.0
 42
-0.0404311354471943
 50
90.0
  0
VERTEX
  5
8D3
  8
0
 10
126.16121819240129
 20
121.6779837050933
 30
0.0
 42
-0.0404311354471791
 50
90.0
  0
SEQEND
  5
8D4
  8
0
  0
POLYLINE
  5
8D5
  8
0
 66
     1
 10
0.0
 20
0.0
 30
0.0
  0
VERTEX
  5
8D6
  8
0
 10
126.16121819240099
 20
116.84959316798449
 30
0.0
 42
-0.0433295665536456
 50
90.0
  0
VERTEX
  5
8D7
  8
0
 10
126.12984250607521
 20
116.4882142933219
 30
0.0
 42
-0.0566743414169658
 50
90.0
  0
VERTEX
  5
8D8
  8
0
 10
126.05138323534599
 20
116.2218326959478
 30
0.0
 42
-0.0992025570697266
 70
     2
 50
247.10088003611941
  0
VERTEX
  5
8D9
  8
0
 10
125.90097034139789
 20
116.00075446552221
 30
0.0
 42
-0.2280338981645266
 50
90.0
  0
VERTEX
  5
8DA
  8
0
 10
125.78621819240109
 20
115.9618057945258
 30
0.0
 42
-0.1963710675046459
 50
90.0
  0
SEQEND
  5
8DB
  8
0
  0
POLYLINE
  5
8DC
  8
0
 66
     1
 10
0.0
 20
0.0
 30
0.0
  0
VERTEX
  5
8DD
  8
0
 10
125.78621819240109
 20
117.7373805414606
 30
0.0
 42
-0.1963710675046226
 50
90.0
  0
VERTEX
  5
8DE
  8
0
 10
125.90843931452081
 20
117.68745390627269
 30
0.0
 42
-0.0992025570696904
 50
90.0
  0
VERTEX
  5
8DF
  8
0
 10
126.05138323534599
 20
117.47735364002121
 30
0.0
 42
-0.0566743414169369
 70
     2
 50
292.89911996387622
  0
VERTEX
  5
8E0
  8
0
 10
126.12984250607521
 20
117.2109720426473
 30
0.0
 42
-0.0433295665536664
 50
90.0
  0
VERTEX
  5
8E1
  8
0
 10
126.16121819240099
 20
116.84959316798449
 30
0.0
 42
-0.0433295665536456
 50
90.0
  0
SEQEND
  5
8E2
  8
0
  0
POLYLINE
  5
8E3
  8
0
 66
     1
 10
0.0
 20
0.0
 30
0.0
  0
VERTEX
  5
8E4
  8
0
 10
126.16121819240099
 20
129.49048370509379
 30
0.0
 42
-0.1453834159301123
 50
90.0
  0
VERTEX
  5
8E5
  8
0
 10
126.13600106310339
 20
129.4055904888325
 30
0.0
 42
-0.1071699662217274
 50
90.0
  0
VERTEX
  5
8E6
  8
0
 10
126.05138323534599
 20
129.3219175348822
 30
0.0
 42
-0.077350332773411
 70
     2
 50
212.444236112091
  0
VERTEX
  5
8E7
  8
0
 10
125.9229186798179
 20
129.2657976766279
 30
0.0
 42
-0.0789475685392101
 50
90.0
  0
VERTEX
  5
8E8
  8
0
 10
125.78621819240109
 20
129.25209514102491
 30
0.0
 42
-0.0644571111103437
 50
90.0
  0
SEQEND
  5
8E9
  8
0
  0
POLYLINE
  5
8EA
  8
0
 66
     1
 10
0.0
 20
0.0
 30
0.0
  0
VERTEX
  5
8EB
  8
0
 10
125.78621819240109
 20
130.2957517916247
 30
0.0
 42
-0.1837701506072527
 50
90.0
  0
VERTEX
  5
8EC
  8
0
 10
125.9112353555924
 20
130.24819694894859
 30
0.0
 42
-0.1023570990015804
 50
90.0
  0
VERTEX
  5
8ED
  8
0
 10
126.05138323534941
 20
130.0598942297529
 30
0.0
 42
-0.06139380527182
 70
     2
 50
294.9706150338103
  0
VERTEX
  5
8EE
  8
0
 10
126.13000261884299
 20
129.81712473945029
 30
0.0
 42
-0.0476740870733025
 50
90.0
  0
VERTEX
  5
8EF
  8
0
 10
126.1612181924058
 20
129.49048370509379
 30
0.0
 42
-0.0476740870732675
 50
90.0
  0
SEQEND
  5
8F0
  8
0
  0
POLYLINE
  5
8F1
  8
0
 66
     1
 10
0.0
 20
0.0
 30
0.0
  0
VERTEX
  5
8F2
  8
0
 10
125.78621819240109
 20
132.31739604402159
 30
0.0
 42
-0.1488470320745859
 50
90.0
  0
VERTEX
  5
8F3
  8
0
 10
125.9189958801874
 20
132.27697333157809
 30
0.0
 42
-0.1070939314374275
 50
90.0
  0
VERTEX
  5
8F4
  8
0
 10
126.05138323534599
 20
132.13945028936229
 30
0.0
 42
-0.0758177480846394
 70
     2
 50
301.68447884177749
  0
VERTEX
  5
8F5
  8
0
 10
126.1306488347482
 20
131.95282993253591
 30
0.0
 42
-0.0626584555913342
 50
90.0
  0
VERTEX
  5
8F6
  8
0
 10
126.16121819240099
 20
131.70985123509709
 30
0.0
 42
-0.0626584555913199
 50
90.0
  0
SEQEND
  5
8F7
  8
0
  0
POLYLINE
  5
8F8
  8
0
 66
     1
 10
0.0
 20
0.0
 30
0.0
  0
VERTEX
  5
8F9
  8
0
 10
126.16121819240099
 20
131.70985123509709
 30
0.0
 42
-0.0162328826952284
 50
90.0
  0
VERTEX
  5
8FA
  8
0
 10
126.0062805890053
 20
131.71488272881041
 30
0.0
 42
-0.0226962008047463
 50
90.0
  0
VERTEX
  5
8FB
  8
0
 10
125.89605314945609
 20
131.72709152667761
 30
0.0
 42
-0.0516790455059756
 70
     2
 50
171.07933085030109
  0
VERTEX
  5
8FC
  8
0
 10
125.7937971356087
 20
131.75418012775009
 30
0.0
 50
90.0
  0
VERTEX
  5
8FD
  8
0
 10
125.78621819240109
 20
131.76871327243029
 30
0.0
 50
90.0
  0
SEQEND
  5
8FE
  8
0
  0
POLYLINE
  5
8FF
  8
0
 66
     1
 10
0.0
 20
0.0
 30
0.0
  0
VERTEX
  5
900
  8
0
 10
115.66121819240119
 20
132.47459316798461
 30
0.0
 42
0.092572595455409
 50
90.0
  0
VERTEX
  5
901
  8
0
 10
115.8058913452207
 20
132.50161023424209
 30
0.0
 42
0.0958395211622397
 50
90.0
  0
VERTEX
  5
902
  8
0
 10
115.92638323534609
 20
132.5772085451446
 30
0.0
 42
0.1008530118927434
 70
     2
 50
43.053698806586652
  0
VERTEX
  5
903
  8
0
 10
116.0148805569592
 20
132.70160600582841
 30
0.0
 42
0.1236287328816281
 50
43.053698806586652
  0
VERTEX
  5
904
  8
0
 10
116.0362181923965
 20
132.82494398039231
 30
0.0
 42
0.1047089114758273
 50
90.0
  0
SEQEND
  5
905
  8
0
  0
LINE
  5
906
  8
0
 10
116.03621819240109
 20
131.76871327243029
 30
0.0
 11
116.03621819240109
 21
130.2957517916247
 31
0.0
  0
POLYLINE
  5
907
  8
0
 66
     1
 10
0.0
 20
0.0
 30
0.0
  0
VERTEX
  5
908
  8
0
 10
115.66121819240119
 20
131.70985123509709
 30
0.0
 42
0.0162328826952284
 50
90.0
  0
VERTEX
  5
909
  8
0
 10
115.8161557957969
 20
131.71488272881041
 30
0.0
 42
0.0226962008047463
 50
90.0
  0
VERTEX
  5
90A
  8
0
 10
115.92638323534609
 20
131.72709152667761
 30
0.0
 42
0.0516790455059756
 70
     2
 50
8.9206691496988508
  0
VERTEX
  5
90B
  8
0
 10
116.0286392491935
 20
131.75418012775009
 30
0.0
 50
8.9206691496988508
  0
VERTEX
  5
90C
  8
0
 10
116.03621819240109
 20
131.76871327243029
 30
0.0
 50
90.0
  0
SEQEND
  5
90D
  8
0
  0
POLYLINE
  5
90E
  8
0
 66
     1
 10
0.0
 20
0.0
 30
0.0
  0
VERTEX
  5
90F
  8
0
 10
116.03621819240109
 20
132.31739604402159
 30
0.0
 42
0.1488470320745859
 50
90.0
  0
VERTEX
  5
910
  8
0
 10
115.90344050461481
 20
132.27697333157809
 30
0.0
 42
0.1070939314374275
 50
90.0
  0
VERTEX
  5
911
  8
0
 10
115.77105314945619
 20
132.13945028936229
 30
0.0
 42
0.0758177480846394
 70
     2
 50
238.31552115822251
  0
VERTEX
  5
912
  8
0
 10
115.691787550054
 20
131.95282993253591
 30
0.0
 42
0.0626584555913342
 50
238.31552115822251
  0
VERTEX
  5
913
  8
0
 10
115.66121819240119
 20
131.70985123509709
 30
0.0
 42
0.0626584555913199
 50
90.0
  0
SEQEND
  5
914
  8
0
  0
LINE
  5
915
  8
0
 10
116.03621819240109
 20
129.25209514102329
 30
0.0
 11
116.03621819240109
 21
126.9579038482501
 31
0.0
  0
POLYLINE
  5
916
  8
0
 66
     1
 10
0.0
 20
0.0
 30
0.0
  0
VERTEX
  5
917
  8
0
 10
116.03621819240109
 20
130.2957517916247
 30
0.0
 42
0.1837701506072527
 50
90.0
  0
VERTEX
  5
918
  8
0
 10
115.91120102920991
 20
130.24819694894859
 30
0.0
 42
0.1023570990015804
 50
90.0
  0
VERTEX
  5
919
  8
0
 10
115.7710531494529
 20
130.0598942297529
 30
0.0
 42
0.06139380527182
 70
     2
 50
245.0293849661897
  0
VERTEX
  5
91A
  8
0
 10
115.69243376595919
 20
129.81712473945029
 30
0.0
 42
0.0476740870733025
 50
245.0293849661897
  0
VERTEX
  5
91B
  8
0
 10
115.6612181923964
 20
129.49048370509379
 30
0.0
 42
0.0476740870732675
 50
90.0
  0
SEQEND
  5
91C
  8
0
  0
POLYLINE
  5
91D
  8
0
 66
     1
 10
0.0
 20
0.0
 30
0.0
  0
VERTEX
  5
91E
  8
0
 10
115.66121819240119
 20
129.49048370509379
 30
0.0
 42
0.1453834159301123
 50
90.0
  0
VERTEX
  5
91F
  8
0
 10
115.6864353216988
 20
129.4055904888325
 30
0.0
 42
0.1071699662217274
 50
90.0
  0
VERTEX
  5
920
  8
0
 10
115.77105314945619
 20
129.3219175348822
 30
0.0
 42
0.077350332773411
 70
     2
 50
327.55576388790911
  0
VERTEX
  5
921
  8
0
 10
115.89951770498431
 20
129.2657976766279
 30
0.0
 42
0.0789475685392101
 50
327.55576388790911
  0
VERTEX
  5
922
  8
0
 10
116.03621819240109
 20
129.25209514102491
 30
0.0
 42
0.0644571111103437
 50
90.0
  0
SEQEND
  5
923
  8
0
  0
LINE
  5
924
  8
0
 10
116.03621819240109
 20
120.9419120934911
 30
0.0
 11
116.03621819240109
 21
117.7373805414606
 31
0.0
  0
LINE
  5
925
  8
0
 10
116.03621819240109
 20
125.52143370318259
 30
0.0
 11
116.03621819240109
 21
122.6305840267492
 31
0.0
  0
POLYLINE
  5
926
  8
0
 66
     1
 10
0.0
 20
0.0
 30
0.0
  0
VERTEX
  5
927
  8
0
 10
116.03621819240109
 20
117.7373805414606
 30
0.0
 42
0.1963710675046226
 50
90.0
  0
VERTEX
  5
928
  8
0
 10
115.9139970702814
 20
117.68745390627269
 30
0.0
 42
0.0992025570696904
 50
90.0
  0
VERTEX
  5
929
  8
0
 10
115.77105314945619
 20
117.47735364002121
 30
0.0
 42
0.0566743414169369
 70
     2
 50
247.10088003612381
  0
VERTEX
  5
92A
  8
0
 10
115.6925938787271
 20
117.2109720426473
 30
0.0
 42
0.0433295665536664
 50
247.10088003612381
  0
VERTEX
  5
92B
  8
0
 10
115.66121819240119
 20
116.84959316798449
 30
0.0
 42
0.0433295665536456
 50
90.0
  0
SEQEND
  5
92C
  8
0
  0
POLYLINE
  5
92D
  8
0
 66
     1
 10
0.0
 20
0.0
 30
0.0
  0
VERTEX
  5
92E
  8
0
 10
115.66121819240119
 20
116.84959316798449
 30
0.0
 42
0.0433295665536456
 50
90.0
  0
VERTEX
  5
92F
  8
0
 10
115.6925938787271
 20
116.4882142933219
 30
0.0
 42
0.0566743414169658
 50
90.0
  0
VERTEX
  5
930
  8
0
 10
115.77105314945631
 20
116.2218326959478
 30
0.0
 42
0.0992025570697266
 70
     2
 50
292.89911996388048
  0
VERTEX
  5
931
  8
0
 10
115.92146604340429
 20
116.00075446552221
 30
0.0
 42
0.2280338981645266
 50
292.89911996388048
  0
VERTEX
  5
932
  8
0
 10
116.03621819240109
 20
115.9618057945258
 30
0.0
 42
0.1963710675046459
 50
90.0
  0
SEQEND
  5
933
  8
0
  0
POLYLINE
  5
934
  8
0
 66
     1
 10
0.0
 20
0.0
 30
0.0
  0
VERTEX
  5
935
  8
0
 10
116.03621819240109
 20
122.6305840267492
 30
0.0
 42
0.2055316714992537
 50
90.0
  0
VERTEX
  5
936
  8
0
 10
115.91602120689031
 20
122.5789962142796
 30
0.0
 42
0.0965313913509376
 50
90.0
  0
VERTEX
  5
937
  8
0
 10
115.77105314945599
 20
122.3515738522967
 30
0.0
 42
0.0533986296957384
 70
     2
 50
248.5124580243924
  0
VERTEX
  5
938
  8
0
 10
115.6926933510662
 20
122.0665914774045
 30
0.0
 42
0.0404311354471943
 50
248.5124580243924
  0
VERTEX
  5
939
  8
0
 10
115.6612181924009
 20
121.6779837050933
 30
0.0
 42
0.0404311354471791
 50
90.0
  0
SEQEND
  5
93A
  8
0
  0
POLYLINE
  5
93B
  8
0
 66
     1
 10
0.0
 20
0.0
 30
0.0
  0
VERTEX
  5
93C
  8
0
 10
115.66121819240119
 20
121.6779837050933
 30
0.0
 42
0.0520405140106174
 50
90.0
  0
VERTEX
  5
93D
  8
0
 10
115.69226003735611
 20
121.38054451228091
 30
0.0
 42
0.0658985238271168
 50
90.0
  0
VERTEX
  5
93E
  8
0
 10
115.77105314945619
 20
121.1575024770904
 30
0.0
 42
0.1046205348859841
 70
     2
 50
296.99708196701908
  0
VERTEX
  5
93F
  8
0
 10
115.916590298679
 20
120.977408257368
 30
0.0
 42
0.1996909920929194
 50
296.99708196701908
  0
VERTEX
  5
940
  8
0
 10
116.03621819240109
 20
120.941912093491
 30
0.0
 42
0.172337143622725
 50
90.0
  0
SEQEND
  5
941
  8
0
  0
POLYLINE
  5
942
  8
0
 66
     1
 10
0.0
 20
0.0
 30
0.0
  0
VERTEX
  5
943
  8
0
 10
115.66121819240119
 20
126.033737735055
 30
0.0
 42
0.0737304435607645
 50
90.0
  0
VERTEX
  5
944
  8
0
 10
115.691226519838
 20
125.8313437484142
 30
0.0
 42
0.0845717212532976
 50
90.0
  0
VERTEX
  5
945
  8
0
 10
115.77105314945619
 20
125.6714840800889
 30
0.0
 42
0.1063921108588694
 70
     2
 50
306.20365064702992
  0
VERTEX
  5
946
  8
0
 10
115.9083302480277
 20
125.54938765010399
 30
0.0
 42
0.1510088585334486
 50
306.20365064702992
  0
VERTEX
  5
947
  8
0
 10
116.03621819240109
 20
125.5214337031795
 30
0.0
 42
0.1294534172461018
 50
90.0
  0
SEQEND
  5
948
  8
0
  0
POLYLINE
  5
949
  8
0
 66
     1
 10
0.0
 20
0.0
 30
0.0
  0
VERTEX
  5
94A
  8
0
 10
116.03621819240109
 20
126.9579038482501
 30
0.0
 42
0.2015894264067176
 50
90.0
  0
VERTEX
  5
94B
  8
0
 10
115.9151511721347
 20
126.90702453736689
 30
0.0
 42
0.0977170379735125
 50
90.0
  0
VERTEX
  5
94C
  8
0
 10
115.77105314945619
 20
126.687221860638
 30
0.0
 42
0.0547927573384048
 70
     2
 50
247.9141022391737
  0
VERTEX
  5
94D
  8
0
 10
115.6926521155838
 20
126.4104052806114
 30
0.0
 42
0.0416539519670256
 50
247.9141022391737
  0
VERTEX
  5
94E
  8
0
 10
115.66121819240119
 20
126.0337377350549
 30
0.0
 42
0.0416539519669881
 50
90.0
  0
SEQEND
  5
94F
  8
0
  0
LINE
  5
950
  8
0
 10
116.03621819240109
 20
132.82494398039231
 30
0.0
 11
125.78621819240109
 21
132.82494398039231
 31
0.0
  0
LINE
  5
951
  8
0
 10
116.03621819240109
 20
132.82494398039231
 30
0.0
 11
116.03621819240109
 21
132.31739604402159
 31
0.0
  0
LINE
  5
952
  8
2
 10
120.4362181924011
 20
127.34959316798449
 30
0.0
 11
119.9362181924011
 21
127.34959316798449
 31
0.0
  0
LINE
  5
953
  8
2
 10
115.03621819240109
 20
130.34959316798449
 30
0.0
 11
119.9362181924011
 21
127.34959316798449
 31
0.0
  0
LINE
  5
954
  8
0
 10
116.03621819240109
 20
132.31739604402159
 30
0.0
 11
125.78621819240109
 21
132.31739604402159
 31
0.0
  0
LINE
  5
955
  8
0
 10
116.03621819240109
 20
131.7687132724304
 30
0.0
 11
125.78621819240109
 21
131.7687132724304
 31
0.0
  0
LINE
  5
956
  8
0
 10
116.03621819240109
 20
130.2957517916247
 30
0.0
 11
125.7862191460754
 21
130.2957517916247
 31
0.0
  0
LINE
  5
957
  8
0
 10
116.03621819240109
 20
129.25209514102329
 30
0.0
 11
125.8366770652179
 21
129.25209514102329
 31
0.0
  0
LINE
  5
958
  8
0
 10
116.03621819240109
 20
126.9579038482501
 30
0.0
 11
125.7862203248817
 21
126.9579038482501
 31
0.0
  0
LINE
  5
959
  8
0
 10
116.03621819240109
 20
125.52143370318259
 30
0.0
 11
125.8236594755339
 21
125.52143370318259
 31
0.0
  0
LINE
  5
95A
  8
0
 10
116.03621819240109
 20
122.6305840267492
 30
0.0
 11
125.7862191460754
 21
122.6305840267492
 31
0.0
  0
LINE
  5
95B
  8
0
 10
116.03621819240109
 20
120.941912093491
 30
0.0
 11
125.8205124888572
 21
120.941912093491
 31
0.0
  0
LINE
  5
95C
  8
0
 10
116.03621819240109
 20
117.7373805414606
 30
0.0
 11
125.78621819240109
 21
117.7373805414606
 31
0.0
  0
LINE
  5
95D
  8
0
 10
137.03621819240109
 20
110.84959316798449
 30
0.0
 11
137.03621819240109
 21
122.84959316798449
 31
0.0
  0
LINE
  5
95E
  8
0
 10
115.03621819240109
 20
101.84959316798449
 30
0.0
 11
115.03621819240109
 21
131.84959316798449
 31
0.0
  0
LINE
  5
95F
  8
2
 10
115.03621819240109
 20
103.34959316798449
 30
0.0
 11
119.9362181924011
 21
106.34959316798449
 31
0.0
  0
LINE
  5
960
  8
2
 10
119.9362181924011
 20
106.34959316798449
 30
0.0
 11
119.9362181924011
 21
127.34959316798449
 31
0.0
  0
LINE
  5
961
  8
2
 10
120.4362181924011
 20
106.34959316798449
 30
0.0
 11
119.9362181924011
 21
106.34959316798449
 31
0.0
  0
LINE
  5
962
  8
2
 10
120.4362181924011
 20
127.34959316798449
 30
0.0
 11
120.4362181924011
 21
106.34959316798449
 31
0.0
  0
LINE
  5
963
  8
0
 10
137.03621819240109
 20
110.84959316798449
 30
0.0
 11
136.73621819240111
 21
110.84959316798449
 31
0.0
  0
LINE
  5
964
  8
0
 10
127.03621819240109
 20
132.84959316798449
 30
0.0
 11
127.03621819240109
 21
100.84959316798449
 31
0.0
  0
LINE
  5
965
  8
0
 10
135.7362181924012
 20
125.34959316798449
 30
0.0
 11
135.7362181924012
 21
108.34959316798449
 31
0.0
  0
LINE
  5
966
  8
0
 10
126.16121819240099
 20
132.84959316798449
 30
0.0
 11
127.03621819240109
 21
132.84959316798449
 31
0.0
  0
LINE
  5
967
  8
0
 10
128.03621819240109
 20
131.84959316798449
 30
0.0
 11
128.03621819240109
 21
101.84959316798449
 31
0.0
  0
LINE
  5
968
  8
0
 10
128.03621819240109
 20
125.34959316798449
 30
0.0
 11
135.73621819240111
 21
125.34959316798449
 31
0.0
  0
LINE
  5
969
  8
0
 10
136.73621819240111
 20
124.34959316798449
 30
0.0
 11
136.73621819240111
 21
109.34959316798449
 31
0.0
  0
LINE
  5
96A
  8
0
 10
136.73621819240111
 20
122.84959316798449
 30
0.0
 11
137.03621819240109
 21
122.84959316798449
 31
0.0
  0
LINE
  5
96B
  8
0
 10
115.6612181924113
 20
132.4745931679947
 30
0.0
 11
115.03621819240109
 21
131.84959316798449
 31
0.0
  0
LINE
  5
96C
  8
0
 10
127.03621819240109
 20
132.84959316798449
 30
0.0
 11
128.03621819240109
 21
131.84959316798449
 31
0.0
  0
LINE
  5
96D
  8
0
 10
135.73621819240111
 20
125.34959316798449
 30
0.0
 11
136.73621819240111
 21
124.34959316798449
 31
0.0
  0
LINE
  5
96E
  8
0
 10
135.73621819240111
 20
108.34959316798449
 30
0.0
 11
136.73621819240111
 21
109.34959316798449
 31
0.0
  0
LINE
  5
96F
  8
0
 10
127.03621819240109
 20
100.84959316798449
 30
0.0
 11
128.03621819240109
 21
101.84959316798449
 31
0.0
  0
LINE
  5
970
  8
0
 10
128.03621819240109
 20
108.34959316798449
 30
0.0
 11
135.73621819240111
 21
108.34959316798449
 31
0.0
  0
ARC
  5
971
  8
0
 10
55.743905146822392
 20
100.7529616296882
 30
0.0
 40
1.3
 50
28.928274776697879
 51
115.0717252233021
  0
ARC
  5
972
  8
0
 10
51.02575238156799
 20
103.1569805381878
 30
0.0
 40
1.3
 50
10.928274776697981
 51
97.071725223302096
  0
ARC
  5
973
  8
0
 10
47.281405146821918
 20
106.9013277729339
 30
0.0
 40
1.3
 50
352.92827477669789
 51
79.071725223302096
  0
ARC
  5
974
  8
0
 10
44.877386238322337
 20
111.6194805381882
 30
0.0
 40
1.3
 50
334.928274776698
 51
61.071725223302089
  0
ARC
  5
975
  8
0
 10
44.049017776617738
 20
116.84959316798459
 30
0.0
 40
1.3
 50
316.92827477669789
 51
43.071725223302089
  0
ARC
  5
976
  8
0
 10
44.877386238322337
 20
122.0797057977808
 30
0.0
 40
1.3
 50
298.928274776698
 51
25.071725223302089
  0
ARC
  5
977
  8
0
 10
47.281405146821953
 20
126.79785856303521
 30
0.0
 40
1.3
 50
280.92827477669789
 51
7.0717252233020931
  0
ARC
  5
978
  8
0
 10
51.025752381568019
 20
130.54220579778121
 30
0.0
 40
1.3
 50
262.92827477669789
 51
349.07172522330211
  0
ARC
  5
979
  8
0
 10
55.743905146822406
 20
132.9462247062809
 30
0.0
 40
1.3
 50
244.928274776698
 51
331.07172522330211
  0
ARC
  5
97A
  8
0
 10
60.974017776618659
 20
133.77459316798539
 30
0.0
 40
1.3
 50
226.92827477669789
 51
313.07172522330211
  0
ARC
  5
97B
  8
0
 10
66.204130406414933
 20
132.9462247062809
 30
0.0
 40
1.3
 50
208.928274776698
 51
295.07172522330211
  0
ARC
  5
97C
  8
0
 10
70.922283171669307
 20
130.54220579778121
 30
0.0
 40
1.3
 50
190.92827477669789
 51
277.07172522330211
  0
ARC
  5
97D
  8
0
 10
74.666630406415379
 20
126.79785856303511
 30
0.0
 40
1.3
 50
172.928274776698
 51
259.07172522330211
  0
ARC
  5
97E
  8
0
 10
77.070649314914931
 20
122.0797057977808
 30
0.0
 40
1.3
 50
154.92827477669789
 51
241.07172522330211
  0
ARC
  5
97F
  8
0
 10
77.899017776619544
 20
116.84959316798449
 30
0.0
 40
1.3
 50
136.928274776698
 51
223.07172522330211
  0
ARC
  5
980
  8
0
 10
77.070649314914974
 20
111.6194805381882
 30
0.0
 40
1.3
 50
118.9282747766979
 51
205.071725223302
  0
ARC
  5
981
  8
0
 10
74.666630406415351
 20
106.9013277729339
 30
0.0
 40
1.3
 50
100.9282747766979
 51
187.07172522330211
  0
ARC
  5
982
  8
0
 10
70.922283171669264
 20
103.1569805381878
 30
0.0
 40
1.3
 50
82.928274776697876
 51
169.07172522330211
  0
ARC
  5
983
  8
0
 10
66.20413040641489
 20
100.7529616296882
 30
0.0
 40
1.3
 50
64.928274776697975
 51
151.07172522330211
  0
ARC
  5
984
  8
0
 10
60.974017776618638
 20
99.924593167983673
 30
0.0
 40
1.3
 50
46.928274776697869
 51
133.07172522330211
  0
CIRCLE
  5
985
  8
0
 10
60.974017776618659
 20
116.84959316798449
 30
0.0
 40
10.5
  0
CIRCLE
  5
986
  8
0
 10
60.974017776618659
 20
116.84959316798449
 30
0.0
 40
13.5
  0
CIRCLE
  5
987
  8
0
 10
60.974017776618659
 20
116.84959316798449
 30
0.0
 40
15.0
  0
CIRCLE
  5
988
  8
0
 10
60.974017776618659
 20
116.84959316798449
 30
0.0
 40
16.0
  0
LINE
  5
989
  8
1
 10
60.974017776618609
 20
95.849593167984551
 30
0.0
 11
60.974017776618659
 21
137.84959316798449
 31
0.0
  0
LINE
  5
98A
  8
1
 10
81.974017776618666
 20
116.84959316798449
 30
0.0
 11
39.974017776618673
 21
116.84959316798459
 31
0.0
  0
LINE
  5
98B
  8
1
 10
142.03621819240109
 20
116.84959316798449
 30
0.0
 11
110.03621819240109
 21
116.84959316798449
 31
0.0
  0
TEXT
  5
A41
  8
0
 62
     3
 10
0.0
 20
0.0
 30
0.0
 40
10.0
  1
FTK32TA
  7
STANDARD1
  0
ENDSEC
  0
EOF
