  0
SECTION
  2
HEADER
  9
$ACADVER
  1
AC1009
  9
$INSBASE
 10
0.0
 20
0.0
 30
0.0
  9
$EXTMIN
 10
0.0
 20
-2.960436562073669
 30
0.0
  9
$EXTMAX
 10
261.1938701868591
 20
229.3191241781453
 30
0.0
  9
$LIMMIN
 10
0.0
 20
0.0
  9
$LIMMAX
 10
187.5
 20
135.0
  9
$ORTHOMODE
 70
     0
  9
$REGENMODE
 70
     1
  9
$FILLMODE
 70
     1
  9
$QTEXTMODE
 70
     0
  9
$MIRRTEXT
 70
     0
  9
$DRAGMODE
 70
     2
  9
$LTSCALE
 40
5.0
  9
$OSMODE
 70
    55
  9
$ATTMODE
 70
     1
  9
$TEXTSIZE
 40
5.0
  9
$TRACEWID
 40
0.05
  9
$TEXTSTYLE
  7
STANDARD
  9
$CLAYER
  8
0
  9
$CELTYPE
  6
BYLAYER
  9
$CECOLOR
 62
   256
  9
$DIMSCALE
 40
0.5
  9
$DIMASZ
 40
3.0
  9
$DIMEXO
 40
2.0
  9
$DIMDLI
 40
0.38
  9
$DIMRND
 40
0.0
  9
$DIMDLE
 40
0.0
  9
$DIMEXE
 40
2.0
  9
$DIMTP
 40
0.0
  9
$DIMTM
 40
0.0
  9
$DIMTXT
 40
3.0
  9
$DIMCEN
 40
0.09
  9
$DIMTSZ
 40
0.0
  9
$DIMTOL
 70
     0
  9
$DIMLIM
 70
     0
  9
$DIMTIH
 70
     0
  9
$DIMTOH
 70
     0
  9
$DIMSE1
 70
     0
  9
$DIMSE2
 70
     0
  9
$DIMTAD
 70
     1
  9
$DIMZIN
 70
     0
  9
$DIMBLK
  1

  9
$DIMASO
 70
     0
  9
$DIMSHO
 70
     0
  9
$DIMPOST
  1

  9
$DIMAPOST
  1

  9
$DIMALT
 70
     0
  9
$DIMALTD
 70
     2
  9
$DIMALTF
 40
25.399999999999999
  9
$DIMLFAC
 40
1.0
  9
$DIMTOFL
 70
     0
  9
$DIMTVP
 40
1.6000000000000001
  9
$DIMTIX
 70
     1
  9
$DIMSOXD
 70
     0
  9
$DIMSAH
 70
     0
  9
$DIMBLK1
  1

  9
$DIMBLK2
  1

  9
$DIMSTYLE
  2
STANDARD
  9
$DIMCLRD
 70
     0
  9
$DIMCLRE
 70
     0
  9
$DIMCLRT
 70
     0
  9
$DIMTFAC
 40
1.0
  9
$DIMGAP
 40
0.09
  9
$LUNITS
 70
     2
  9
$LUPREC
 70
     4
  9
$SKETCHINC
 40
0.1
  9
$FILLETRAD
 40
0.3
  9
$AUNITS
 70
     0
  9
$AUPREC
 70
     0
  9
$MENU
  1
E:\r13\win\SUPPORT\ACAD
  9
$ELEVATION
 40
0.0
  9
$PELEVATION
 40
0.0
  9
$THICKNESS
 40
0.0
  9
$LIMCHECK
 70
     0
  9
$BLIPMODE
 70
     0
  9
$CHAMFERA
 40
0.0
  9
$CHAMFERB
 40
0.0
  9
$SKPOLY
 70
     0
  9
$TDCREATE
 40
2449839.7836226849
  9
$TDUPDATE
 40
2456598.6784044909
  9
$TDINDWG
 40
0.0256426852
  9
$TDUSRTIMER
 40
0.0256426852
  9
$USRTIMER
 70
     1
  9
$ANGBASE
 50
0.0
  9
$ANGDIR
 70
     0
  9
$PDMODE
 70
     0
  9
$PDSIZE
 40
0.0
  9
$PLINEWID
 40
0.0
  9
$COORDS
 70
     1
  9
$SPLFRAME
 70
     0
  9
$SPLINETYPE
 70
     6
  9
$SPLINESEGS
 70
     8
  9
$ATTDIA
 70
     0
  9
$ATTREQ
 70
     1
  9
$HANDLING
 70
     1
  9
$HANDSEED
  5
1920
  9
$SURFTAB1
 70
     6
  9
$SURFTAB2
 70
     6
  9
$SURFTYPE
 70
     6
  9
$SURFU
 70
     6
  9
$SURFV
 70
     6
  9
$UCSNAME
  2

  9
$UCSORG
 10
0.0
 20
0.0
 30
0.0
  9
$UCSXDIR
 10
1.0
 20
0.0
 30
0.0
  9
$UCSYDIR
 10
0.0
 20
1.0
 30
0.0
  9
$PUCSNAME
  2

  9
$PUCSORG
 10
0.0
 20
0.0
 30
0.0
  9
$PUCSXDIR
 10
1.0
 20
0.0
 30
0.0
  9
$PUCSYDIR
 10
0.0
 20
1.0
 30
0.0
  9
$USERI1
 70
     0
  9
$USERI2
 70
     1
  9
$USERI3
 70
     1
  9
$USERI4
 70
     0
  9
$USERI5
 70
     0
  9
$USERR1
 40
0.0
  9
$USERR2
 40
0.0
  9
$USERR3
 40
0.0
  9
$USERR4
 40
0.0
  9
$USERR5
 40
0.0
  9
$WORLDVIEW
 70
     1
  9
$SHADEDGE
 70
     3
  9
$SHADEDIF
 70
    70
  9
$TILEMODE
 70
     1
  9
$MAXACTVP
 70
    16
  9
$PLIMCHECK
 70
     0
  9
$PEXTMIN
 10
1.0000000000000000E+020
 20
1.0000000000000000E+020
 30
1.0000000000000000E+020
  9
$PEXTMAX
 10
-1.0000000000000000E+020
 20
-1.0000000000000000E+020
 30
-1.0000000000000000E+020
  9
$PLIMMIN
 10
0.0
 20
0.0
  9
$PLIMMAX
 10
12.0
 20
9.0
  9
$UNITMODE
 70
     0
  9
$VISRETAIN
 70
     0
  9
$PLINEGEN
 70
     0
  9
$PSLTSCALE
 70
     0
  0
ENDSEC
  0
SECTION
  2
TABLES
  0
TABLE
  2
VPORT
 70
     1
  0
VPORT
  2
*ACTIVE
 70
     0
 10
0.0
 20
0.0
 11
1.0
 21
1.0
 12
130.59693570156901
 22
148.4142856577306
 13
0.0
 23
0.0
 14
5.0
 24
5.0
 15
5.0
 25
5.0
 16
0.0
 26
0.0
 36
1.0
 17
0.0
 27
0.0
 37
0.0
 40
305.4260988115841
 41
1.7807262569832401
 42
50.0
 43
0.0
 44
0.0
 50
0.0
 51
0.0
 71
     0
 72
   500
 73
     1
 74
     0
 75
     0
 76
     0
 77
     0
 78
     2
  0
ENDTAB
  0
TABLE
  2
LTYPE
 70
     4
  0
LTYPE
  2
CONTINUOUS
 70
     0
  3
Solid Line
 72
    65
 73
     0
 40
0.0
  0
LTYPE
  2
CENTER
 70
     0
  3
____ _ ____ _ ____ _ ____ _ ____ _ ____ _ ____
 72
    65
 73
     4
 40
2.0
 49
1.25
 49
-0.25
 49
0.25
 49
-0.25
  0
LTYPE
  2
HIDDEN
 70
     0
  3
_ _ _ _ _ _ _ _ _ _ _ _ _ _ _ _ _ _ _ _ _ _ _
 72
    65
 73
     2
 40
0.375
 49
0.25
 49
-0.125
  0
LTYPE
  2
PHANTOM2
 70
     0
  3
___ _ _ ___ _ _ ___ _ _ ___ _ _
 72
    65
 73
     6
 40
1.25
 49
0.625
 49
-0.125
 49
0.125
 49
-0.125
 49
0.125
 49
-0.125
  0
ENDTAB
  0
TABLE
  2
LAYER
 70
     4
  0
LAYER
  2
0
 70
     0
 62
     7
  6
CONTINUOUS
  0
LAYER
  2
1
 70
     0
 62
     1
  6
CENTER
  0
LAYER
  2
3
 70
     0
 62
     3
  6
CONTINUOUS
  0
LAYER
  2
2
 70
     0
 62
     2
  6
HIDDEN
  0
ENDTAB
  0
TABLE
  2
STYLE
 70
     2
  0
STYLE
  2
STANDARD
 70
     0
 40
0.0
 41
1.0
 50
0.0
 71
     0
 42
5.0
  3
TXT
  4
BIGFONT
  0
STYLE
  2
STANDARD1
 70
     0
 40
0.0
 41
1.0
 50
0.0
 71
     0
 42
3.0
  3
txt
  4

  0
ENDTAB
  0
TABLE
  2
VIEW
 70
     1
  0
VIEW
  2
ALL
 70
     0
 40
135.0
 10
110.4957983193277
 20
67.5
 41
0.0
 11
0.0
 21
0.0
 31
1.0
 12
0.0
 22
0.0
 32
0.0
 42
0.0
 43
0.0
 44
0.0
 50
0.0
 71
     0
  0
ENDTAB
  0
TABLE
  2
UCS
 70
     0
  0
ENDTAB
  0
TABLE
  2
APPID
 70
     8
  0
APPID
  2
ACAD
 70
     0
  0
APPID
  2
GENIUS_GENODEF_13
 70
     0
  0
APPID
  2
GENIUS_GENOBJ-N-FIL_13
 70
     0
  0
APPID
  2
GENIUS_GENFIL_13
 70
     0
  0
APPID
  2
GENIUS_GENOBJ-N-CHA_13
 70
     0
  0
APPID
  2
GENIUS_GENOREF_13
 70
     0
  0
APPID
  2
ACAD_MLEADERVER
 70
     0
  0
APPID
  2
ACAD_NAV_VCDISPLAY
 70
     0
  0
ENDTAB
  0
TABLE
  2
DIMSTYLE
 70
     1
  0
DIMSTYLE
  2
STANDARD
 70
     0
  3

  4

  5

  6

  7

 40
1.0
 41
0.18
 42
0.0625
 43
0.38
 44
0.18
 45
0.0
 46
0.0
 47
0.0
 48
0.0
140
0.18
141
0.09
142
0.0
143
25.399999999999999
144
1.0
145
0.0
146
1.0
147
0.09
 71
     0
 72
     0
 73
     1
 74
     1
 75
     0
 76
     0
 77
     0
 78
     0
170
     0
171
     2
172
     0
173
     0
174
     0
175
     0
176
     0
177
     0
178
     0
  0
ENDTAB
  0
ENDSEC
  0
SECTION
  2
BLOCKS
  0
BLOCK
  8
0
  2
$MODEL_SPACE
 70
     0
 10
0.0
 20
0.0
 30
0.0
  3
$MODEL_SPACE
  1

  0
ENDBLK
  5
4CD
  8
0
  0
BLOCK
 67
     1
  8
0
  2
$PAPER_SPACE
 70
     0
 10
0.0
 20
0.0
 30
0.0
  3
$PAPER_SPACE
  1

  0
ENDBLK
  5
4CB
 67
     1
  8
0
  0
ENDSEC
  0
SECTION
  2
ENTITIES
  0
LINE
  5
A4F
  8
2
 10
154.47187019668439
 20
69.319124178145273
 30
0.0
 11
154.47187019668439
 21
56.819124178145273
 31
0.0
  0
LINE
  5
A50
  8
0
 10
149.19387020248999
 20
87.819124178145145
 30
0.0
 11
149.1938702024901
 21
50.819124178145273
 31
0.0
  0
LINE
  5
A51
  8
0
 10
163.1938701868593
 20
88.319124178144818
 30
0.0
 11
163.19387018685879
 21
50.31912417814528
 31
0.0
  0
LINE
  5
A52
  8
0
 10
162.19387018685879
 20
49.319124178145259
 30
0.0
 11
162.19387018685879
 21
89.319124178145231
 31
0.0
  0
LINE
  5
A53
  8
0
 10
150.77685902761991
 20
56.987321074911222
 30
0.0
 11
150.77685902761951
 21
59.801131869193512
 31
0.0
  0
LINE
  5
A54
  8
0
 10
160.53536934021849
 20
49.407429201213908
 30
0.0
 11
150.8501198220041
 21
49.595612111551127
 31
0.0
  0
LINE
  5
A55
  8
0
 10
160.50726485992351
 20
56.987321074911222
 30
0.0
 11
150.77685902761991
 21
56.987321074911222
 31
0.0
  0
LINE
  5
A56
  8
0
 10
160.50726485992351
 20
52.953319014651861
 30
0.0
 11
150.77685902761809
 21
52.953319014651861
 31
0.0
  0
LINE
  5
A57
  8
0
 10
160.50726485992351
 20
55.146315111969379
 30
0.0
 11
150.77685902761991
 21
55.146315111968931
 31
0.0
  0
LINE
  5
A58
  8
0
 10
160.50726485992351
 20
51.636317983461772
 30
0.0
 11
150.77685902760859
 21
51.636317983461772
 31
0.0
  0
LINE
  5
A59
  8
0
 10
160.69058139075059
 20
50.089455278243058
 30
0.0
 11
150.77685902762039
 21
50.281780010817037
 31
0.0
  0
LINE
  5
A5A
  8
0
 10
161.69857325339771
 20
49.734366894842367
 30
0.0
 11
161.69857325339771
 21
49.733749490509297
 31
0.0
  0
POLYLINE
  5
A5B
  8
0
 10
160.52521638029856
 20
49.407613452091418
 30
0.0
 66
     1
 70
     8
  0
VERTEX
  8
0
  5
CF0
 10
160.525
 20
49.4076
 30
0.000000
  70
    32
  0
VERTEX
  8
0
  5
CF1
 10
160.555
 20
49.4080
 30
0.000000
  70
    32
  0
VERTEX
  8
0
  5
CF2
 10
160.584
 20
49.4086
 30
0.000000
  70
    32
  0
VERTEX
  8
0
  5
CF3
 10
160.613
 20
49.4093
 30
0.000000
  70
    32
  0
VERTEX
  8
0
  5
CF4
 10
160.643
 20
49.4103
 30
0.000000
  70
    32
  0
VERTEX
  8
0
  5
CF5
 10
160.672
 20
49.4115
 30
0.000000
  70
    32
  0
VERTEX
  8
0
  5
CF6
 10
160.701
 20
49.4129
 30
0.000000
  70
    32
  0
VERTEX
  8
0
  5
CF7
 10
160.730
 20
49.4144
 30
0.000000
  70
    32
  0
VERTEX
  8
0
  5
CF8
 10
160.759
 20
49.4162
 30
0.000000
  70
    32
  0
VERTEX
  8
0
  5
CF9
 10
160.787
 20
49.4182
 30
0.000000
  70
    32
  0
VERTEX
  8
0
  5
CFA
 10
160.816
 20
49.4204
 30
0.000000
  70
    32
  0
VERTEX
  8
0
  5
CFB
 10
160.844
 20
49.4227
 30
0.000000
  70
    32
  0
VERTEX
  8
0
  5
CFC
 10
160.872
 20
49.4253
 30
0.000000
  70
    32
  0
VERTEX
  8
0
  5
CFD
 10
160.900
 20
49.4280
 30
0.000000
  70
    32
  0
VERTEX
  8
0
  5
CFE
 10
160.927
 20
49.4310
 30
0.000000
  70
    32
  0
VERTEX
  8
0
  5
CFF
 10
160.955
 20
49.4341
 30
0.000000
  70
    32
  0
VERTEX
  8
0
  5
D00
 10
160.982
 20
49.4374
 30
0.000000
  70
    32
  0
VERTEX
  8
0
  5
D01
 10
161.008
 20
49.4409
 30
0.000000
  70
    32
  0
VERTEX
  8
0
  5
D02
 10
161.035
 20
49.4446
 30
0.000000
  70
    32
  0
VERTEX
  8
0
  5
D03
 10
161.061
 20
49.4484
 30
0.000000
  70
    32
  0
VERTEX
  8
0
  5
D04
 10
161.087
 20
49.4524
 30
0.000000
  70
    32
  0
VERTEX
  8
0
  5
D05
 10
161.112
 20
49.4567
 30
0.000000
  70
    32
  0
VERTEX
  8
0
  5
D06
 10
161.137
 20
49.4610
 30
0.000000
  70
    32
  0
VERTEX
  8
0
  5
D07
 10
161.162
 20
49.4656
 30
0.000000
  70
    32
  0
VERTEX
  8
0
  5
D08
 10
161.186
 20
49.4703
 30
0.000000
  70
    32
  0
VERTEX
  8
0
  5
D09
 10
161.210
 20
49.4752
 30
0.000000
  70
    32
  0
VERTEX
  8
0
  5
D0A
 10
161.233
 20
49.4802
 30
0.000000
  70
    32
  0
VERTEX
  8
0
  5
D0B
 10
161.256
 20
49.4854
 30
0.000000
  70
    32
  0
VERTEX
  8
0
  5
D0C
 10
161.279
 20
49.4908
 30
0.000000
  70
    32
  0
VERTEX
  8
0
  5
D0D
 10
161.301
 20
49.4963
 30
0.000000
  70
    32
  0
VERTEX
  8
0
  5
D0E
 10
161.323
 20
49.5020
 30
0.000000
  70
    32
  0
VERTEX
  8
0
  5
D0F
 10
161.344
 20
49.5078
 30
0.000000
  70
    32
  0
VERTEX
  8
0
  5
D10
 10
161.364
 20
49.5137
 30
0.000000
  70
    32
  0
VERTEX
  8
0
  5
D11
 10
161.384
 20
49.5198
 30
0.000000
  70
    32
  0
VERTEX
  8
0
  5
D12
 10
161.404
 20
49.5261
 30
0.000000
  70
    32
  0
VERTEX
  8
0
  5
D13
 10
161.423
 20
49.5324
 30
0.000000
  70
    32
  0
VERTEX
  8
0
  5
D14
 10
161.441
 20
49.5389
 30
0.000000
  70
    32
  0
VERTEX
  8
0
  5
D15
 10
161.459
 20
49.5455
 30
0.000000
  70
    32
  0
VERTEX
  8
0
  5
D16
 10
161.476
 20
49.5523
 30
0.000000
  70
    32
  0
VERTEX
  8
0
  5
D17
 10
161.493
 20
49.5591
 30
0.000000
  70
    32
  0
VERTEX
  8
0
  5
D18
 10
161.509
 20
49.5661
 30
0.000000
  70
    32
  0
VERTEX
  8
0
  5
D19
 10
161.525
 20
49.5731
 30
0.000000
  70
    32
  0
VERTEX
  8
0
  5
D1A
 10
161.540
 20
49.5803
 30
0.000000
  70
    32
  0
VERTEX
  8
0
  5
D1B
 10
161.554
 20
49.5876
 30
0.000000
  70
    32
  0
VERTEX
  8
0
  5
D1C
 10
161.567
 20
49.5950
 30
0.000000
  70
    32
  0
VERTEX
  8
0
  5
D1D
 10
161.580
 20
49.6024
 30
0.000000
  70
    32
  0
VERTEX
  8
0
  5
D1E
 10
161.593
 20
49.6100
 30
0.000000
  70
    32
  0
VERTEX
  8
0
  5
D1F
 10
161.605
 20
49.6176
 30
0.000000
  70
    32
  0
VERTEX
  8
0
  5
D20
 10
161.616
 20
49.6253
 30
0.000000
  70
    32
  0
VERTEX
  8
0
  5
D21
 10
161.626
 20
49.6331
 30
0.000000
  70
    32
  0
VERTEX
  8
0
  5
D22
 10
161.636
 20
49.6410
 30
0.000000
  70
    32
  0
VERTEX
  8
0
  5
D23
 10
161.645
 20
49.6489
 30
0.000000
  70
    32
  0
VERTEX
  8
0
  5
D24
 10
161.653
 20
49.6568
 30
0.000000
  70
    32
  0
VERTEX
  8
0
  5
D25
 10
161.661
 20
49.6649
 30
0.000000
  70
    32
  0
VERTEX
  8
0
  5
D26
 10
161.668
 20
49.6730
 30
0.000000
  70
    32
  0
VERTEX
  8
0
  5
D27
 10
161.674
 20
49.6811
 30
0.000000
  70
    32
  0
VERTEX
  8
0
  5
D28
 10
161.680
 20
49.6893
 30
0.000000
  70
    32
  0
VERTEX
  8
0
  5
D29
 10
161.684
 20
49.6975
 30
0.000000
  70
    32
  0
VERTEX
  8
0
  5
D2A
 10
161.689
 20
49.7057
 30
0.000000
  70
    32
  0
VERTEX
  8
0
  5
D2B
 10
161.692
 20
49.7139
 30
0.000000
  70
    32
  0
VERTEX
  8
0
  5
D2C
 10
161.695
 20
49.7222
 30
0.000000
  70
    32
  0
VERTEX
  8
0
  5
D2D
 10
161.697
 20
49.7305
 30
0.000000
  70
    32
  0
VERTEX
  8
0
  5
D2E
 10
161.698
 20
49.7388
 30
0.000000
  70
    32
  0
VERTEX
  8
0
  5
D2F
 10
161.699
 20
49.7471
 30
0.000000
  70
    32
  0
VERTEX
  8
0
  5
D30
 10
161.699
 20
49.7555
 30
0.000000
  70
    32
  0
VERTEX
  8
0
  5
D31
 10
161.698
 20
49.7638
 30
0.000000
  70
    32
  0
VERTEX
  8
0
  5
D32
 10
161.696
 20
49.7721
 30
0.000000
  70
    32
  0
VERTEX
  8
0
  5
D33
 10
161.694
 20
49.7804
 30
0.000000
  70
    32
  0
VERTEX
  8
0
  5
D34
 10
161.691
 20
49.7886
 30
0.000000
  70
    32
  0
VERTEX
  8
0
  5
D35
 10
161.687
 20
49.7969
 30
0.000000
  70
    32
  0
VERTEX
  8
0
  5
D36
 10
161.683
 20
49.8051
 30
0.000000
  70
    32
  0
VERTEX
  8
0
  5
D37
 10
161.678
 20
49.8133
 30
0.000000
  70
    32
  0
VERTEX
  8
0
  5
D38
 10
161.672
 20
49.8215
 30
0.000000
  70
    32
  0
VERTEX
  8
0
  5
D39
 10
161.665
 20
49.8296
 30
0.000000
  70
    32
  0
VERTEX
  8
0
  5
D3A
 10
161.658
 20
49.8376
 30
0.000000
  70
    32
  0
VERTEX
  8
0
  5
D3B
 10
161.650
 20
49.8456
 30
0.000000
  70
    32
  0
VERTEX
  8
0
  5
D3C
 10
161.642
 20
49.8536
 30
0.000000
  70
    32
  0
VERTEX
  8
0
  5
D3D
 10
161.632
 20
49.8615
 30
0.000000
  70
    32
  0
VERTEX
  8
0
  5
D3E
 10
161.622
 20
49.8693
 30
0.000000
  70
    32
  0
VERTEX
  8
0
  5
D3F
 10
161.612
 20
49.8771
 30
0.000000
  70
    32
  0
VERTEX
  8
0
  5
D40
 10
161.601
 20
49.8848
 30
0.000000
  70
    32
  0
VERTEX
  8
0
  5
D41
 10
161.589
 20
49.8924
 30
0.000000
  70
    32
  0
VERTEX
  8
0
  5
D42
 10
161.576
 20
49.8999
 30
0.000000
  70
    32
  0
VERTEX
  8
0
  5
D43
 10
161.563
 20
49.9073
 30
0.000000
  70
    32
  0
VERTEX
  8
0
  5
D44
 10
161.549
 20
49.9147
 30
0.000000
  70
    32
  0
VERTEX
  8
0
  5
D45
 10
161.534
 20
49.9219
 30
0.000000
  70
    32
  0
VERTEX
  8
0
  5
D46
 10
161.519
 20
49.9290
 30
0.000000
  70
    32
  0
VERTEX
  8
0
  5
D47
 10
161.504
 20
49.9361
 30
0.000000
  70
    32
  0
VERTEX
  8
0
  5
D48
 10
161.487
 20
49.9430
 30
0.000000
  70
    32
  0
VERTEX
  8
0
  5
D49
 10
161.470
 20
49.9498
 30
0.000000
  70
    32
  0
VERTEX
  8
0
  5
D4A
 10
161.453
 20
49.9565
 30
0.000000
  70
    32
  0
VERTEX
  8
0
  5
D4B
 10
161.435
 20
49.9631
 30
0.000000
  70
    32
  0
VERTEX
  8
0
  5
D4C
 10
161.416
 20
49.9695
 30
0.000000
  70
    32
  0
VERTEX
  8
0
  5
D4D
 10
161.397
 20
49.9758
 30
0.000000
  70
    32
  0
VERTEX
  8
0
  5
D4E
 10
161.377
 20
49.9820
 30
0.000000
  70
    32
  0
VERTEX
  8
0
  5
D4F
 10
161.357
 20
49.9880
 30
0.000000
  70
    32
  0
VERTEX
  8
0
  5
D50
 10
161.336
 20
49.9940
 30
0.000000
  70
    32
  0
VERTEX
  8
0
  5
D51
 10
161.315
 20
49.9997
 30
0.000000
  70
    32
  0
VERTEX
  8
0
  5
D52
 10
161.293
 20
50.0053
 30
0.000000
  70
    32
  0
VERTEX
  8
0
  5
D53
 10
161.271
 20
50.0108
 30
0.000000
  70
    32
  0
VERTEX
  8
0
  5
D54
 10
161.248
 20
50.0161
 30
0.000000
  70
    32
  0
VERTEX
  8
0
  5
D55
 10
161.225
 20
50.0212
 30
0.000000
  70
    32
  0
VERTEX
  8
0
  5
D56
 10
161.202
 20
50.0262
 30
0.000000
  70
    32
  0
VERTEX
  8
0
  5
D57
 10
161.178
 20
50.0311
 30
0.000000
  70
    32
  0
VERTEX
  8
0
  5
D58
 10
161.153
 20
50.0357
 30
0.000000
  70
    32
  0
VERTEX
  8
0
  5
D59
 10
161.128
 20
50.0402
 30
0.000000
  70
    32
  0
VERTEX
  8
0
  5
D5A
 10
161.103
 20
50.0445
 30
0.000000
  70
    32
  0
VERTEX
  8
0
  5
D5B
 10
161.078
 20
50.0487
 30
0.000000
  70
    32
  0
VERTEX
  8
0
  5
D5C
 10
161.052
 20
50.0527
 30
0.000000
  70
    32
  0
VERTEX
  8
0
  5
D5D
 10
161.026
 20
50.0565
 30
0.000000
  70
    32
  0
VERTEX
  8
0
  5
D5E
 10
160.999
 20
50.0601
 30
0.000000
  70
    32
  0
VERTEX
  8
0
  5
D5F
 10
160.972
 20
50.0635
 30
0.000000
  70
    32
  0
VERTEX
  8
0
  5
D60
 10
160.945
 20
50.0667
 30
0.000000
  70
    32
  0
VERTEX
  8
0
  5
D61
 10
160.918
 20
50.0698
 30
0.000000
  70
    32
  0
VERTEX
  8
0
  5
D62
 10
160.890
 20
50.0727
 30
0.000000
  70
    32
  0
VERTEX
  8
0
  5
D63
 10
160.862
 20
50.0753
 30
0.000000
  70
    32
  0
VERTEX
  8
0
  5
D64
 10
160.834
 20
50.0778
 30
0.000000
  70
    32
  0
VERTEX
  8
0
  5
D65
 10
160.806
 20
50.0801
 30
0.000000
  70
    32
  0
VERTEX
  8
0
  5
D66
 10
160.777
 20
50.0822
 30
0.000000
  70
    32
  0
VERTEX
  8
0
  5
D67
 10
160.749
 20
50.0841
 30
0.000000
  70
    32
  0
VERTEX
  8
0
  5
D68
 10
160.720
 20
50.0858
 30
0.000000
  70
    32
  0
VERTEX
  8
0
  5
D69
 10
160.691
 20
50.0873
 30
0.000000
  70
    32
  0
VERTEX
  8
0
  5
D6A
 10
160.662
 20
50.0886
 30
0.000000
  70
    32
  0
VERTEX
  8
0
  5
D6B
 10
160.632
 20
50.0897
 30
0.000000
  70
    32
  0
VERTEX
  8
0
  5
D6C
 10
160.603
 20
50.0907
 30
0.000000
  70
    32
  0
VERTEX
  8
0
  5
D6D
 10
160.574
 20
50.0914
 30
0.000000
  70
    32
  0
VERTEX
  8
0
  5
D6E
 10
160.544
 20
50.0919
 30
0.000000
  70
    32
  0
VERTEX
  8
0
  5
D6F
 10
160.515
 20
50.0922
 30
0.000000
  70
    32
  0
VERTEX
  8
0
  5
D70
 10
160.485
 20
50.0923
 30
0.000000
  70
    32
  0
SEQEND
  8
0
  5
D71
  0
LINE
  5
A5C
  8
0
 10
161.67069192615901
 20
52.295053151934489
 30
0.0
 11
161.67069192615901
 21
52.294584183260611
 31
0.0
  0
POLYLINE
  5
A5D
  8
0
 10
160.45844572447299
 20
55.146315252280885
 30
0.0
 66
     1
 70
     8
  0
VERTEX
  8
0
  5
D72
 10
160.458
 20
55.1463
 30
0.000000
  70
    32
  0
VERTEX
  8
0
  5
D73
 10
160.488
 20
55.1466
 30
0.000000
  70
    32
  0
VERTEX
  8
0
  5
D74
 10
160.518
 20
55.1474
 30
0.000000
  70
    32
  0
VERTEX
  8
0
  5
D75
 10
160.548
 20
55.1488
 30
0.000000
  70
    32
  0
VERTEX
  8
0
  5
D76
 10
160.577
 20
55.1507
 30
0.000000
  70
    32
  0
VERTEX
  8
0
  5
D77
 10
160.607
 20
55.1532
 30
0.000000
  70
    32
  0
VERTEX
  8
0
  5
D78
 10
160.636
 20
55.1563
 30
0.000000
  70
    32
  0
VERTEX
  8
0
  5
D79
 10
160.666
 20
55.1599
 30
0.000000
  70
    32
  0
VERTEX
  8
0
  5
D7A
 10
160.695
 20
55.1640
 30
0.000000
  70
    32
  0
VERTEX
  8
0
  5
D7B
 10
160.724
 20
55.1687
 30
0.000000
  70
    32
  0
VERTEX
  8
0
  5
D7C
 10
160.753
 20
55.1739
 30
0.000000
  70
    32
  0
VERTEX
  8
0
  5
D7D
 10
160.782
 20
55.1797
 30
0.000000
  70
    32
  0
VERTEX
  8
0
  5
D7E
 10
160.811
 20
55.1860
 30
0.000000
  70
    32
  0
VERTEX
  8
0
  5
D7F
 10
160.839
 20
55.1928
 30
0.000000
  70
    32
  0
VERTEX
  8
0
  5
D80
 10
160.867
 20
55.2001
 30
0.000000
  70
    32
  0
VERTEX
  8
0
  5
D81
 10
160.895
 20
55.2080
 30
0.000000
  70
    32
  0
VERTEX
  8
0
  5
D82
 10
160.923
 20
55.2164
 30
0.000000
  70
    32
  0
VERTEX
  8
0
  5
D83
 10
160.950
 20
55.2253
 30
0.000000
  70
    32
  0
VERTEX
  8
0
  5
D84
 10
160.977
 20
55.2347
 30
0.000000
  70
    32
  0
VERTEX
  8
0
  5
D85
 10
161.004
 20
55.2446
 30
0.000000
  70
    32
  0
VERTEX
  8
0
  5
D86
 10
161.030
 20
55.2550
 30
0.000000
  70
    32
  0
VERTEX
  8
0
  5
D87
 10
161.056
 20
55.2659
 30
0.000000
  70
    32
  0
VERTEX
  8
0
  5
D88
 10
161.082
 20
55.2773
 30
0.000000
  70
    32
  0
VERTEX
  8
0
  5
D89
 10
161.107
 20
55.2891
 30
0.000000
  70
    32
  0
VERTEX
  8
0
  5
D8A
 10
161.132
 20
55.3014
 30
0.000000
  70
    32
  0
VERTEX
  8
0
  5
D8B
 10
161.157
 20
55.3142
 30
0.000000
  70
    32
  0
VERTEX
  8
0
  5
D8C
 10
161.181
 20
55.3275
 30
0.000000
  70
    32
  0
VERTEX
  8
0
  5
D8D
 10
161.205
 20
55.3411
 30
0.000000
  70
    32
  0
VERTEX
  8
0
  5
D8E
 10
161.228
 20
55.3553
 30
0.000000
  70
    32
  0
VERTEX
  8
0
  5
D8F
 10
161.251
 20
55.3698
 30
0.000000
  70
    32
  0
VERTEX
  8
0
  5
D90
 10
161.273
 20
55.3848
 30
0.000000
  70
    32
  0
VERTEX
  8
0
  5
D91
 10
161.295
 20
55.4001
 30
0.000000
  70
    32
  0
VERTEX
  8
0
  5
D92
 10
161.316
 20
55.4159
 30
0.000000
  70
    32
  0
VERTEX
  8
0
  5
D93
 10
161.337
 20
55.4321
 30
0.000000
  70
    32
  0
VERTEX
  8
0
  5
D94
 10
161.357
 20
55.4486
 30
0.000000
  70
    32
  0
VERTEX
  8
0
  5
D95
 10
161.377
 20
55.4656
 30
0.000000
  70
    32
  0
VERTEX
  8
0
  5
D96
 10
161.396
 20
55.4829
 30
0.000000
  70
    32
  0
VERTEX
  8
0
  5
D97
 10
161.415
 20
55.5005
 30
0.000000
  70
    32
  0
VERTEX
  8
0
  5
D98
 10
161.433
 20
55.5185
 30
0.000000
  70
    32
  0
VERTEX
  8
0
  5
D99
 10
161.450
 20
55.5368
 30
0.000000
  70
    32
  0
VERTEX
  8
0
  5
D9A
 10
161.467
 20
55.5554
 30
0.000000
  70
    32
  0
VERTEX
  8
0
  5
D9B
 10
161.483
 20
55.5744
 30
0.000000
  70
    32
  0
VERTEX
  8
0
  5
D9C
 10
161.499
 20
55.5936
 30
0.000000
  70
    32
  0
VERTEX
  8
0
  5
D9D
 10
161.514
 20
55.6131
 30
0.000000
  70
    32
  0
VERTEX
  8
0
  5
D9E
 10
161.528
 20
55.6329
 30
0.000000
  70
    32
  0
VERTEX
  8
0
  5
D9F
 10
161.542
 20
55.6529
 30
0.000000
  70
    32
  0
VERTEX
  8
0
  5
DA0
 10
161.555
 20
55.6733
 30
0.000000
  70
    32
  0
VERTEX
  8
0
  5
DA1
 10
161.568
 20
55.6938
 30
0.000000
  70
    32
  0
VERTEX
  8
0
  5
DA2
 10
161.579
 20
55.7146
 30
0.000000
  70
    32
  0
VERTEX
  8
0
  5
DA3
 10
161.590
 20
55.7355
 30
0.000000
  70
    32
  0
VERTEX
  8
0
  5
DA4
 10
161.601
 20
55.7567
 30
0.000000
  70
    32
  0
VERTEX
  8
0
  5
DA5
 10
161.610
 20
55.7781
 30
0.000000
  70
    32
  0
VERTEX
  8
0
  5
DA6
 10
161.619
 20
55.7996
 30
0.000000
  70
    32
  0
VERTEX
  8
0
  5
DA7
 10
161.628
 20
55.8213
 30
0.000000
  70
    32
  0
VERTEX
  8
0
  5
DA8
 10
161.635
 20
55.8432
 30
0.000000
  70
    32
  0
VERTEX
  8
0
  5
DA9
 10
161.642
 20
55.8651
 30
0.000000
  70
    32
  0
VERTEX
  8
0
  5
DAA
 10
161.648
 20
55.8872
 30
0.000000
  70
    32
  0
VERTEX
  8
0
  5
DAB
 10
161.654
 20
55.9094
 30
0.000000
  70
    32
  0
VERTEX
  8
0
  5
DAC
 10
161.658
 20
55.9318
 30
0.000000
  70
    32
  0
VERTEX
  8
0
  5
DAD
 10
161.662
 20
55.9541
 30
0.000000
  70
    32
  0
VERTEX
  8
0
  5
DAE
 10
161.666
 20
55.9766
 30
0.000000
  70
    32
  0
VERTEX
  8
0
  5
DAF
 10
161.668
 20
55.9991
 30
0.000000
  70
    32
  0
VERTEX
  8
0
  5
DB0
 10
161.670
 20
56.0217
 30
0.000000
  70
    32
  0
VERTEX
  8
0
  5
DB1
 10
161.671
 20
56.0442
 30
0.000000
  70
    32
  0
VERTEX
  8
0
  5
DB2
 10
161.672
 20
56.0668
 30
0.000000
  70
    32
  0
VERTEX
  8
0
  5
DB3
 10
161.671
 20
56.0894
 30
0.000000
  70
    32
  0
VERTEX
  8
0
  5
DB4
 10
161.670
 20
56.1120
 30
0.000000
  70
    32
  0
VERTEX
  8
0
  5
DB5
 10
161.668
 20
56.1345
 30
0.000000
  70
    32
  0
VERTEX
  8
0
  5
DB6
 10
161.666
 20
56.1570
 30
0.000000
  70
    32
  0
VERTEX
  8
0
  5
DB7
 10
161.662
 20
56.1795
 30
0.000000
  70
    32
  0
VERTEX
  8
0
  5
DB8
 10
161.658
 20
56.2019
 30
0.000000
  70
    32
  0
VERTEX
  8
0
  5
DB9
 10
161.654
 20
56.2242
 30
0.000000
  70
    32
  0
VERTEX
  8
0
  5
DBA
 10
161.648
 20
56.2464
 30
0.000000
  70
    32
  0
VERTEX
  8
0
  5
DBB
 10
161.642
 20
56.2685
 30
0.000000
  70
    32
  0
VERTEX
  8
0
  5
DBC
 10
161.635
 20
56.2905
 30
0.000000
  70
    32
  0
VERTEX
  8
0
  5
DBD
 10
161.628
 20
56.3123
 30
0.000000
  70
    32
  0
VERTEX
  8
0
  5
DBE
 10
161.619
 20
56.3340
 30
0.000000
  70
    32
  0
VERTEX
  8
0
  5
DBF
 10
161.610
 20
56.3556
 30
0.000000
  70
    32
  0
VERTEX
  8
0
  5
DC0
 10
161.601
 20
56.3769
 30
0.000000
  70
    32
  0
VERTEX
  8
0
  5
DC1
 10
161.590
 20
56.3981
 30
0.000000
  70
    32
  0
VERTEX
  8
0
  5
DC2
 10
161.579
 20
56.4191
 30
0.000000
  70
    32
  0
VERTEX
  8
0
  5
DC3
 10
161.568
 20
56.4398
 30
0.000000
  70
    32
  0
VERTEX
  8
0
  5
DC4
 10
161.555
 20
56.4604
 30
0.000000
  70
    32
  0
VERTEX
  8
0
  5
DC5
 10
161.542
 20
56.4807
 30
0.000000
  70
    32
  0
VERTEX
  8
0
  5
DC6
 10
161.528
 20
56.5007
 30
0.000000
  70
    32
  0
VERTEX
  8
0
  5
DC7
 10
161.514
 20
56.5205
 30
0.000000
  70
    32
  0
VERTEX
  8
0
  5
DC8
 10
161.499
 20
56.5401
 30
0.000000
  70
    32
  0
VERTEX
  8
0
  5
DC9
 10
161.483
 20
56.5593
 30
0.000000
  70
    32
  0
VERTEX
  8
0
  5
DCA
 10
161.467
 20
56.5782
 30
0.000000
  70
    32
  0
VERTEX
  8
0
  5
DCB
 10
161.450
 20
56.5969
 30
0.000000
  70
    32
  0
VERTEX
  8
0
  5
DCC
 10
161.433
 20
56.6152
 30
0.000000
  70
    32
  0
VERTEX
  8
0
  5
DCD
 10
161.415
 20
56.6331
 30
0.000000
  70
    32
  0
VERTEX
  8
0
  5
DCE
 10
161.396
 20
56.6508
 30
0.000000
  70
    32
  0
VERTEX
  8
0
  5
DCF
 10
161.377
 20
56.6681
 30
0.000000
  70
    32
  0
VERTEX
  8
0
  5
DD0
 10
161.357
 20
56.6850
 30
0.000000
  70
    32
  0
VERTEX
  8
0
  5
DD1
 10
161.337
 20
56.7015
 30
0.000000
  70
    32
  0
VERTEX
  8
0
  5
DD2
 10
161.316
 20
56.7177
 30
0.000000
  70
    32
  0
VERTEX
  8
0
  5
DD3
 10
161.295
 20
56.7335
 30
0.000000
  70
    32
  0
VERTEX
  8
0
  5
DD4
 10
161.273
 20
56.7489
 30
0.000000
  70
    32
  0
VERTEX
  8
0
  5
DD5
 10
161.251
 20
56.7638
 30
0.000000
  70
    32
  0
VERTEX
  8
0
  5
DD6
 10
161.228
 20
56.7784
 30
0.000000
  70
    32
  0
VERTEX
  8
0
  5
DD7
 10
161.205
 20
56.7925
 30
0.000000
  70
    32
  0
VERTEX
  8
0
  5
DD8
 10
161.181
 20
56.8062
 30
0.000000
  70
    32
  0
VERTEX
  8
0
  5
DD9
 10
161.157
 20
56.8194
 30
0.000000
  70
    32
  0
VERTEX
  8
0
  5
DDA
 10
161.132
 20
56.8322
 30
0.000000
  70
    32
  0
VERTEX
  8
0
  5
DDB
 10
161.107
 20
56.8445
 30
0.000000
  70
    32
  0
VERTEX
  8
0
  5
DDC
 10
161.082
 20
56.8564
 30
0.000000
  70
    32
  0
VERTEX
  8
0
  5
DDD
 10
161.056
 20
56.8677
 30
0.000000
  70
    32
  0
VERTEX
  8
0
  5
DDE
 10
161.030
 20
56.8786
 30
0.000000
  70
    32
  0
VERTEX
  8
0
  5
DDF
 10
161.004
 20
56.8890
 30
0.000000
  70
    32
  0
VERTEX
  8
0
  5
DE0
 10
160.977
 20
56.8989
 30
0.000000
  70
    32
  0
VERTEX
  8
0
  5
DE1
 10
160.950
 20
56.9084
 30
0.000000
  70
    32
  0
VERTEX
  8
0
  5
DE2
 10
160.923
 20
56.9173
 30
0.000000
  70
    32
  0
VERTEX
  8
0
  5
DE3
 10
160.895
 20
56.9256
 30
0.000000
  70
    32
  0
VERTEX
  8
0
  5
DE4
 10
160.867
 20
56.9335
 30
0.000000
  70
    32
  0
VERTEX
  8
0
  5
DE5
 10
160.839
 20
56.9409
 30
0.000000
  70
    32
  0
VERTEX
  8
0
  5
DE6
 10
160.811
 20
56.9477
 30
0.000000
  70
    32
  0
VERTEX
  8
0
  5
DE7
 10
160.782
 20
56.9540
 30
0.000000
  70
    32
  0
VERTEX
  8
0
  5
DE8
 10
160.753
 20
56.9597
 30
0.000000
  70
    32
  0
VERTEX
  8
0
  5
DE9
 10
160.724
 20
56.9650
 30
0.000000
  70
    32
  0
VERTEX
  8
0
  5
DEA
 10
160.695
 20
56.9696
 30
0.000000
  70
    32
  0
VERTEX
  8
0
  5
DEB
 10
160.666
 20
56.9738
 30
0.000000
  70
    32
  0
VERTEX
  8
0
  5
DEC
 10
160.636
 20
56.9774
 30
0.000000
  70
    32
  0
VERTEX
  8
0
  5
DED
 10
160.607
 20
56.9804
 30
0.000000
  70
    32
  0
VERTEX
  8
0
  5
DEE
 10
160.577
 20
56.9829
 30
0.000000
  70
    32
  0
VERTEX
  8
0
  5
DEF
 10
160.548
 20
56.9848
 30
0.000000
  70
    32
  0
VERTEX
  8
0
  5
DF0
 10
160.518
 20
56.9862
 30
0.000000
  70
    32
  0
VERTEX
  8
0
  5
DF1
 10
160.488
 20
56.9870
 30
0.000000
  70
    32
  0
VERTEX
  8
0
  5
DF2
 10
160.458
 20
56.9873
 30
0.000000
  70
    32
  0
SEQEND
  8
0
  5
DF3
  0
LINE
  5
A5E
  8
0
 10
161.7203951030215
 20
56.066920111877323
 30
0.0
 11
161.7203951030215
 21
56.066716075003733
 31
0.0
  0
POLYLINE
  5
A5F
  8
0
 10
160.45756169507081
 20
51.636318158522322
 30
0.0
 66
     1
 70
     8
  0
VERTEX
  8
0
  5
DF4
 10
160.458
 20
51.6363
 30
0.000000
  70
    32
  0
VERTEX
  8
0
  5
DF5
 10
160.487
 20
51.6365
 30
0.000000
  70
    32
  0
VERTEX
  8
0
  5
DF6
 10
160.517
 20
51.6371
 30
0.000000
  70
    32
  0
VERTEX
  8
0
  5
DF7
 10
160.547
 20
51.6381
 30
0.000000
  70
    32
  0
VERTEX
  8
0
  5
DF8
 10
160.576
 20
51.6395
 30
0.000000
  70
    32
  0
VERTEX
  8
0
  5
DF9
 10
160.606
 20
51.6413
 30
0.000000
  70
    32
  0
VERTEX
  8
0
  5
DFA
 10
160.636
 20
51.6434
 30
0.000000
  70
    32
  0
VERTEX
  8
0
  5
DFB
 10
160.665
 20
51.6460
 30
0.000000
  70
    32
  0
VERTEX
  8
0
  5
DFC
 10
160.694
 20
51.6490
 30
0.000000
  70
    32
  0
VERTEX
  8
0
  5
DFD
 10
160.723
 20
51.6523
 30
0.000000
  70
    32
  0
VERTEX
  8
0
  5
DFE
 10
160.752
 20
51.6561
 30
0.000000
  70
    32
  0
VERTEX
  8
0
  5
DFF
 10
160.781
 20
51.6602
 30
0.000000
  70
    32
  0
VERTEX
  8
0
  5
E00
 10
160.810
 20
51.6647
 30
0.000000
  70
    32
  0
VERTEX
  8
0
  5
E01
 10
160.838
 20
51.6696
 30
0.000000
  70
    32
  0
VERTEX
  8
0
  5
E02
 10
160.866
 20
51.6748
 30
0.000000
  70
    32
  0
VERTEX
  8
0
  5
E03
 10
160.894
 20
51.6804
 30
0.000000
  70
    32
  0
VERTEX
  8
0
  5
E04
 10
160.922
 20
51.6864
 30
0.000000
  70
    32
  0
VERTEX
  8
0
  5
E05
 10
160.949
 20
51.6928
 30
0.000000
  70
    32
  0
VERTEX
  8
0
  5
E06
 10
160.976
 20
51.6995
 30
0.000000
  70
    32
  0
VERTEX
  8
0
  5
E07
 10
161.003
 20
51.7066
 30
0.000000
  70
    32
  0
VERTEX
  8
0
  5
E08
 10
161.029
 20
51.7141
 30
0.000000
  70
    32
  0
VERTEX
  8
0
  5
E09
 10
161.056
 20
51.7219
 30
0.000000
  70
    32
  0
VERTEX
  8
0
  5
E0A
 10
161.081
 20
51.7300
 30
0.000000
  70
    32
  0
VERTEX
  8
0
  5
E0B
 10
161.107
 20
51.7385
 30
0.000000
  70
    32
  0
VERTEX
  8
0
  5
E0C
 10
161.132
 20
51.7473
 30
0.000000
  70
    32
  0
VERTEX
  8
0
  5
E0D
 10
161.156
 20
51.7564
 30
0.000000
  70
    32
  0
VERTEX
  8
0
  5
E0E
 10
161.180
 20
51.7659
 30
0.000000
  70
    32
  0
VERTEX
  8
0
  5
E0F
 10
161.204
 20
51.7757
 30
0.000000
  70
    32
  0
VERTEX
  8
0
  5
E10
 10
161.227
 20
51.7858
 30
0.000000
  70
    32
  0
VERTEX
  8
0
  5
E11
 10
161.250
 20
51.7962
 30
0.000000
  70
    32
  0
VERTEX
  8
0
  5
E12
 10
161.272
 20
51.8069
 30
0.000000
  70
    32
  0
VERTEX
  8
0
  5
E13
 10
161.294
 20
51.8179
 30
0.000000
  70
    32
  0
VERTEX
  8
0
  5
E14
 10
161.315
 20
51.8292
 30
0.000000
  70
    32
  0
VERTEX
  8
0
  5
E15
 10
161.336
 20
51.8408
 30
0.000000
  70
    32
  0
VERTEX
  8
0
  5
E16
 10
161.356
 20
51.8526
 30
0.000000
  70
    32
  0
VERTEX
  8
0
  5
E17
 10
161.376
 20
51.8647
 30
0.000000
  70
    32
  0
VERTEX
  8
0
  5
E18
 10
161.395
 20
51.8771
 30
0.000000
  70
    32
  0
VERTEX
  8
0
  5
E19
 10
161.414
 20
51.8897
 30
0.000000
  70
    32
  0
VERTEX
  8
0
  5
E1A
 10
161.432
 20
51.9026
 30
0.000000
  70
    32
  0
VERTEX
  8
0
  5
E1B
 10
161.449
 20
51.9156
 30
0.000000
  70
    32
  0
VERTEX
  8
0
  5
E1C
 10
161.466
 20
51.9290
 30
0.000000
  70
    32
  0
VERTEX
  8
0
  5
E1D
 10
161.482
 20
51.9425
 30
0.000000
  70
    32
  0
VERTEX
  8
0
  5
E1E
 10
161.498
 20
51.9563
 30
0.000000
  70
    32
  0
VERTEX
  8
0
  5
E1F
 10
161.513
 20
51.9702
 30
0.000000
  70
    32
  0
VERTEX
  8
0
  5
E20
 10
161.527
 20
51.9844
 30
0.000000
  70
    32
  0
VERTEX
  8
0
  5
E21
 10
161.541
 20
51.9987
 30
0.000000
  70
    32
  0
VERTEX
  8
0
  5
E22
 10
161.554
 20
52.0133
 30
0.000000
  70
    32
  0
VERTEX
  8
0
  5
E23
 10
161.567
 20
52.0280
 30
0.000000
  70
    32
  0
VERTEX
  8
0
  5
E24
 10
161.578
 20
52.0428
 30
0.000000
  70
    32
  0
VERTEX
  8
0
  5
E25
 10
161.589
 20
52.0578
 30
0.000000
  70
    32
  0
VERTEX
  8
0
  5
E26
 10
161.600
 20
52.0730
 30
0.000000
  70
    32
  0
VERTEX
  8
0
  5
E27
 10
161.609
 20
52.0883
 30
0.000000
  70
    32
  0
VERTEX
  8
0
  5
E28
 10
161.618
 20
52.1037
 30
0.000000
  70
    32
  0
VERTEX
  8
0
  5
E29
 10
161.627
 20
52.1192
 30
0.000000
  70
    32
  0
VERTEX
  8
0
  5
E2A
 10
161.634
 20
52.1348
 30
0.000000
  70
    32
  0
VERTEX
  8
0
  5
E2B
 10
161.641
 20
52.1505
 30
0.000000
  70
    32
  0
VERTEX
  8
0
  5
E2C
 10
161.647
 20
52.1664
 30
0.000000
  70
    32
  0
VERTEX
  8
0
  5
E2D
 10
161.653
 20
52.1822
 30
0.000000
  70
    32
  0
VERTEX
  8
0
  5
E2E
 10
161.658
 20
52.1982
 30
0.000000
  70
    32
  0
VERTEX
  8
0
  5
E2F
 10
161.662
 20
52.2142
 30
0.000000
  70
    32
  0
VERTEX
  8
0
  5
E30
 10
161.665
 20
52.2303
 30
0.000000
  70
    32
  0
VERTEX
  8
0
  5
E31
 10
161.667
 20
52.2464
 30
0.000000
  70
    32
  0
VERTEX
  8
0
  5
E32
 10
161.669
 20
52.2625
 30
0.000000
  70
    32
  0
VERTEX
  8
0
  5
E33
 10
161.670
 20
52.2787
 30
0.000000
  70
    32
  0
VERTEX
  8
0
  5
E34
 10
161.671
 20
52.2948
 30
0.000000
  70
    32
  0
VERTEX
  8
0
  5
E35
 10
161.670
 20
52.3110
 30
0.000000
  70
    32
  0
VERTEX
  8
0
  5
E36
 10
161.669
 20
52.3271
 30
0.000000
  70
    32
  0
VERTEX
  8
0
  5
E37
 10
161.667
 20
52.3433
 30
0.000000
  70
    32
  0
VERTEX
  8
0
  5
E38
 10
161.665
 20
52.3594
 30
0.000000
  70
    32
  0
VERTEX
  8
0
  5
E39
 10
161.662
 20
52.3754
 30
0.000000
  70
    32
  0
VERTEX
  8
0
  5
E3A
 10
161.658
 20
52.3914
 30
0.000000
  70
    32
  0
VERTEX
  8
0
  5
E3B
 10
161.653
 20
52.4074
 30
0.000000
  70
    32
  0
VERTEX
  8
0
  5
E3C
 10
161.647
 20
52.4233
 30
0.000000
  70
    32
  0
VERTEX
  8
0
  5
E3D
 10
161.641
 20
52.4391
 30
0.000000
  70
    32
  0
VERTEX
  8
0
  5
E3E
 10
161.634
 20
52.4548
 30
0.000000
  70
    32
  0
VERTEX
  8
0
  5
E3F
 10
161.627
 20
52.4704
 30
0.000000
  70
    32
  0
VERTEX
  8
0
  5
E40
 10
161.618
 20
52.4860
 30
0.000000
  70
    32
  0
VERTEX
  8
0
  5
E41
 10
161.609
 20
52.5014
 30
0.000000
  70
    32
  0
VERTEX
  8
0
  5
E42
 10
161.600
 20
52.5167
 30
0.000000
  70
    32
  0
VERTEX
  8
0
  5
E43
 10
161.589
 20
52.5318
 30
0.000000
  70
    32
  0
VERTEX
  8
0
  5
E44
 10
161.578
 20
52.5468
 30
0.000000
  70
    32
  0
VERTEX
  8
0
  5
E45
 10
161.567
 20
52.5617
 30
0.000000
  70
    32
  0
VERTEX
  8
0
  5
E46
 10
161.554
 20
52.5764
 30
0.000000
  70
    32
  0
VERTEX
  8
0
  5
E47
 10
161.541
 20
52.5909
 30
0.000000
  70
    32
  0
VERTEX
  8
0
  5
E48
 10
161.527
 20
52.6052
 30
0.000000
  70
    32
  0
VERTEX
  8
0
  5
E49
 10
161.513
 20
52.6194
 30
0.000000
  70
    32
  0
VERTEX
  8
0
  5
E4A
 10
161.498
 20
52.6334
 30
0.000000
  70
    32
  0
VERTEX
  8
0
  5
E4B
 10
161.482
 20
52.6471
 30
0.000000
  70
    32
  0
VERTEX
  8
0
  5
E4C
 10
161.466
 20
52.6607
 30
0.000000
  70
    32
  0
VERTEX
  8
0
  5
E4D
 10
161.449
 20
52.6740
 30
0.000000
  70
    32
  0
VERTEX
  8
0
  5
E4E
 10
161.432
 20
52.6871
 30
0.000000
  70
    32
  0
VERTEX
  8
0
  5
E4F
 10
161.414
 20
52.6999
 30
0.000000
  70
    32
  0
VERTEX
  8
0
  5
E50
 10
161.395
 20
52.7126
 30
0.000000
  70
    32
  0
VERTEX
  8
0
  5
E51
 10
161.376
 20
52.7249
 30
0.000000
  70
    32
  0
VERTEX
  8
0
  5
E52
 10
161.356
 20
52.7370
 30
0.000000
  70
    32
  0
VERTEX
  8
0
  5
E53
 10
161.336
 20
52.7489
 30
0.000000
  70
    32
  0
VERTEX
  8
0
  5
E54
 10
161.315
 20
52.7604
 30
0.000000
  70
    32
  0
VERTEX
  8
0
  5
E55
 10
161.294
 20
52.7717
 30
0.000000
  70
    32
  0
VERTEX
  8
0
  5
E56
 10
161.272
 20
52.7827
 30
0.000000
  70
    32
  0
VERTEX
  8
0
  5
E57
 10
161.250
 20
52.7934
 30
0.000000
  70
    32
  0
VERTEX
  8
0
  5
E58
 10
161.227
 20
52.8038
 30
0.000000
  70
    32
  0
VERTEX
  8
0
  5
E59
 10
161.204
 20
52.8139
 30
0.000000
  70
    32
  0
VERTEX
  8
0
  5
E5A
 10
161.180
 20
52.8237
 30
0.000000
  70
    32
  0
VERTEX
  8
0
  5
E5B
 10
161.156
 20
52.8332
 30
0.000000
  70
    32
  0
VERTEX
  8
0
  5
E5C
 10
161.132
 20
52.8423
 30
0.000000
  70
    32
  0
VERTEX
  8
0
  5
E5D
 10
161.107
 20
52.8512
 30
0.000000
  70
    32
  0
VERTEX
  8
0
  5
E5E
 10
161.081
 20
52.8596
 30
0.000000
  70
    32
  0
VERTEX
  8
0
  5
E5F
 10
161.056
 20
52.8678
 30
0.000000
  70
    32
  0
VERTEX
  8
0
  5
E60
 10
161.029
 20
52.8756
 30
0.000000
  70
    32
  0
VERTEX
  8
0
  5
E61
 10
161.003
 20
52.8830
 30
0.000000
  70
    32
  0
VERTEX
  8
0
  5
E62
 10
160.976
 20
52.8901
 30
0.000000
  70
    32
  0
VERTEX
  8
0
  5
E63
 10
160.949
 20
52.8968
 30
0.000000
  70
    32
  0
VERTEX
  8
0
  5
E64
 10
160.922
 20
52.9032
 30
0.000000
  70
    32
  0
VERTEX
  8
0
  5
E65
 10
160.894
 20
52.9092
 30
0.000000
  70
    32
  0
VERTEX
  8
0
  5
E66
 10
160.866
 20
52.9148
 30
0.000000
  70
    32
  0
VERTEX
  8
0
  5
E67
 10
160.838
 20
52.9201
 30
0.000000
  70
    32
  0
VERTEX
  8
0
  5
E68
 10
160.810
 20
52.9250
 30
0.000000
  70
    32
  0
VERTEX
  8
0
  5
E69
 10
160.781
 20
52.9295
 30
0.000000
  70
    32
  0
VERTEX
  8
0
  5
E6A
 10
160.752
 20
52.9336
 30
0.000000
  70
    32
  0
VERTEX
  8
0
  5
E6B
 10
160.723
 20
52.9373
 30
0.000000
  70
    32
  0
VERTEX
  8
0
  5
E6C
 10
160.694
 20
52.9407
 30
0.000000
  70
    32
  0
VERTEX
  8
0
  5
E6D
 10
160.665
 20
52.9436
 30
0.000000
  70
    32
  0
VERTEX
  8
0
  5
E6E
 10
160.636
 20
52.9462
 30
0.000000
  70
    32
  0
VERTEX
  8
0
  5
E6F
 10
160.606
 20
52.9484
 30
0.000000
  70
    32
  0
VERTEX
  8
0
  5
E70
 10
160.576
 20
52.9501
 30
0.000000
  70
    32
  0
VERTEX
  8
0
  5
E71
 10
160.547
 20
52.9515
 30
0.000000
  70
    32
  0
VERTEX
  8
0
  5
E72
 10
160.517
 20
52.9525
 30
0.000000
  70
    32
  0
VERTEX
  8
0
  5
E73
 10
160.487
 20
52.9531
 30
0.000000
  70
    32
  0
VERTEX
  8
0
  5
E74
 10
160.458
 20
52.9533
 30
0.000000
  70
    32
  0
SEQEND
  8
0
  5
E75
  0
LINE
  5
A60
  8
0
 10
150.77685902762039
 20
50.281780010817037
 30
0.0
 11
150.77685902762039
 21
51.636317983461772
 31
0.0
  0
ARC
  5
A61
  8
0
 10
150.15216386215781
 20
50.346377386517069
 30
0.0
 40
0.192849999980715
 50
78.382459963516823
 51
220.22212637348451
1001
GENIUS_GENODEF_13
1002
{
1000
HIER
1070
     0
1002
}
1002
{
1000
MANEDIT
1070
     0
1002
}
1002
{
1000
NOSEL
1070
     0
1002
}
1002
{
1000
BEHIND
1070
     0
1002
}
1002
{
1000
REACTOR
1002
}
1001
GENIUS_GENOBJ-N-FIL_13
1002
{
1000
OWNER
1000
GEN
1002
}
  0
ARC
  5
A62
  8
0
 10
151.93326396611391
 20
51.824141561184369
 30
0.0
 40
2.5071680320029488
 50
219.72374532992279
 51
242.53288063473511
  0
ARC
  5
A63
  8
0
 10
150.86851701471809
 20
50.610445370315738
 30
0.0
 40
1.0149999998984991
 50
264.81893624862897
 51
268.96143919042072
1001
GENIUS_GENODEF_13
1002
{
1000
HIER
1070
     0
1002
}
1002
{
1000
MANEDIT
1070
     0
1002
}
1002
{
1000
NOSEL
1070
     0
1002
}
1002
{
1000
BEHIND
1070
     0
1002
}
1002
{
1000
REACTOR
1002
}
1001
GENIUS_GENOBJ-N-FIL_13
1002
{
1000
OWNER
1000
GEN
1002
}
  0
ARC
  5
A64
  8
0
 10
151.14557880215111
 20
51.937675622824088
 30
0.0
 40
1.6964505739908811
 50
235.75782459007621
 51
257.44669676044327
  0
LINE
  5
A65
  8
0
 10
149.96439822339639
 20
52.90725608060319
 30
0.0
 11
149.9595935198264
 21
52.80861297101336
 31
0.0
  0
ARC
  5
A66
  8
0
 10
150.97459351972509
 20
52.80861297101336
 30
0.0
 40
1.0149999998984991
 50
180.0
 51
231.77202870974961
1001
GENIUS_GENODEF_13
1002
{
1000
HIER
1070
     0
1002
}
1002
{
1000
MANEDIT
1070
     0
1002
}
1002
{
1000
NOSEL
1070
     0
1002
}
1002
{
1000
BEHIND
1070
     0
1002
}
1002
{
1000
REACTOR
1002
}
1001
GENIUS_GENOBJ-N-FIL_13
1002
{
1000
OWNER
1000
GEN
1002
}
  0
LINE
  5
A67
  8
0
 10
150.77685902761991
 20
52.953319014651861
 30
0.0
 11
150.77685902761991
 21
55.146315111968931
 31
0.0
  0
ARC
  5
A68
  8
0
 10
150.26745681229511
 20
52.877663147725961
 30
0.0
 40
0.3044999999695499
 50
72.286782645002987
 51
174.42288787826371
1001
GENIUS_GENODEF_13
1002
{
1000
HIER
1070
     0
1002
}
1002
{
1000
MANEDIT
1070
     0
1002
}
1002
{
1000
NOSEL
1070
     0
1002
}
1002
{
1000
BEHIND
1070
     0
1002
}
1002
{
1000
REACTOR
1002
}
1001
GENIUS_GENOBJ-N-FIL_13
1002
{
1000
OWNER
1000
GEN
1002
}
  0
ARC
  5
A69
  8
0
 10
151.3861334574448
 20
54.64984122432287
 30
0.0
 40
1.8026100351283409
 50
235.30608191942451
 51
250.24519212232849
  0
ARC
  5
A6A
  8
0
 10
150.8888949499545
 20
56.06681809344007
 30
0.0
 40
0.9272959542617094
 50
96.939431023455086
 51
263.06056897647272
  0
ARC
  5
A6B
  8
0
 10
152.67652838394821
 20
54.251005457160034
 30
0.0
 40
3.231924233102454
 50
223.8682339423851
 51
234.00017627790081
  0
LINE
  5
A6C
  8
1
 10
144.19387020248999
 20
69.319124178145273
 30
0.0
 11
181.1938701868591
 21
69.319124178145287
 31
0.0
  0
LINE
  5
A6D
  8
2
 10
175.89387018685909
 20
62.319124178145259
 30
0.0
 11
154.47187019668431
 21
62.319124178145273
 31
0.0
  0
LINE
  5
A6E
  8
2
 10
175.893870186859
 20
76.319124178145245
 30
0.0
 11
154.47187019668431
 21
76.319124178145159
 31
0.0
  0
LINE
  5
A6F
  8
0
 10
176.1938701868591
 20
62.319124178145273
 30
0.0
 11
176.1938701868591
 21
76.319124178145273
 31
0.0
  0
LINE
  5
A70
  8
0
 10
175.8938701868592
 20
61.319124178145401
 30
0.0
 11
175.893870186859
 21
77.319124178145287
 31
0.0
  0
LINE
  5
A71
  8
0
 10
174.393870186859
 20
78.819124178145273
 30
0.0
 11
174.393870186859
 21
69.319124178145273
 31
0.0
  0
LINE
  5
A72
  8
0
 10
176.1938701868591
 20
62.319124178145273
 30
0.0
 11
175.893870186859
 21
62.319124178145273
 31
0.0
  0
LINE
  5
A73
  8
0
 10
174.393870186859
 20
59.819124178145273
 30
0.0
 11
174.393870186859
 21
69.319124178145273
 31
0.0
  0
LINE
  5
A74
  8
0
 10
176.1938701868591
 20
76.319124178145273
 30
0.0
 11
175.893870186859
 21
76.319124178145273
 31
0.0
  0
LINE
  5
A75
  8
0
 10
174.393870186859
 20
78.819124178145273
 30
0.0
 11
175.893870186859
 21
77.319124178145273
 31
0.0
1001
GENIUS_GENFIL_13
1070
     0
1040
1.5
1040
1.5
1040
20.0
1040
0.0
1002
{
1002
}
1001
GENIUS_GENODEF_13
1002
{
1000
HIER
1070
     0
1002
}
1002
{
1000
MANEDIT
1070
     0
1002
}
1002
{
1000
NOSEL
1070
     0
1002
}
1002
{
1000
BEHIND
1070
     0
1002
}
1002
{
1000
REACTOR
1002
}
1001
GENIUS_GENOBJ-N-CHA_13
1002
{
1000
OWNER
1000
GEN
1002
}
  0
LINE
  5
A76
  8
2
 10
156.1938701868591
 20
76.319124178145373
 30
0.0
 11
156.1938701868591
 21
62.319124178145373
 31
0.0
  0
LINE
  5
A77
  8
0
 10
150.776859027619
 20
76.617875873749369
 30
0.0
 11
150.77685902761851
 21
73.404728043270723
 31
0.0
  0
LINE
  5
A78
  8
2
 10
154.47187019668439
 20
69.319124178145273
 30
0.0
 11
154.47187019668439
 21
81.819124178145273
 31
0.0
  0
LINE
  5
A79
  8
0
 10
160.50726485992391
 20
70.993523011089735
 30
0.0
 11
150.77685902761851
 21
70.993523011089735
 31
0.0
  0
LINE
  5
A7A
  8
0
 10
160.50726485992351
 20
73.404728043270723
 30
0.0
 11
150.77685902761851
 21
73.404728043270723
 31
0.0
  0
LINE
  5
A7B
  8
0
 10
160.50726485992391
 20
67.644725345200811
 30
0.0
 11
150.77685902761851
 21
67.644725345200811
 31
0.0
  0
LINE
  5
A7C
  8
0
 10
160.50726485992351
 20
62.020372482541177
 30
0.0
 11
150.776859027619
 21
62.020372482541177
 31
0.0
  0
LINE
  5
A7D
  8
0
 10
160.50726485992351
 20
65.233520313019824
 30
0.0
 11
150.77685902761851
 21
65.233520313019824
 31
0.0
  0
LINE
  5
A7E
  8
0
 10
160.50726485992391
 20
59.801986935813773
 30
0.0
 11
150.77685902761951
 21
59.801131869193057
 31
0.0
  0
ARC
  5
A7F
  8
0
 10
160.45088999097661
 20
66.426725373957595
 30
0.0
 40
1.217999987819999
 50
0.0
 51
90.0
1001
GENIUS_GENODEF_13
1002
{
1000
HIER
1070
     0
1002
}
1002
{
1000
MANEDIT
1070
     0
1002
}
1002
{
1000
NOSEL
1070
     0
1002
}
1002
{
1000
BEHIND
1070
     0
1002
}
1002
{
1000
REACTOR
1002
}
1001
GENIUS_GENOBJ-N-FIL_13
1002
{
1000
OWNER
1000
GEN
1002
}
  0
ARC
  5
A80
  8
0
 10
160.45088999097609
 20
66.451520341287903
 30
0.0
 40
1.217999987819999
 50
270.0
 51
0.0
1001
GENIUS_GENODEF_13
1002
{
1000
HIER
1070
     0
1002
}
1002
{
1000
MANEDIT
1070
     0
1002
}
1002
{
1000
NOSEL
1070
     0
1002
}
1002
{
1000
BEHIND
1070
     0
1002
}
1002
{
1000
REACTOR
1002
}
1001
GENIUS_GENOBJ-N-FIL_13
1002
{
1000
OWNER
1000
GEN
1002
}
  0
POLYLINE
  5
A81
  8
0
 10
160.4602938895016
 20
59.801987030033558
 30
0.0
 66
     1
 70
     8
  0
VERTEX
  8
0
  5
E76
 10
160.460
 20
59.8020
 30
0.000000
  70
    32
  0
VERTEX
  8
0
  5
E77
 10
160.490
 20
59.8023
 30
0.000000
  70
    32
  0
VERTEX
  8
0
  5
E78
 10
160.520
 20
59.8033
 30
0.000000
  70
    32
  0
VERTEX
  8
0
  5
E79
 10
160.550
 20
59.8050
 30
0.000000
  70
    32
  0
VERTEX
  8
0
  5
E7A
 10
160.579
 20
59.8073
 30
0.000000
  70
    32
  0
VERTEX
  8
0
  5
E7B
 10
160.609
 20
59.8103
 30
0.000000
  70
    32
  0
VERTEX
  8
0
  5
E7C
 10
160.638
 20
59.8140
 30
0.000000
  70
    32
  0
VERTEX
  8
0
  5
E7D
 10
160.668
 20
59.8183
 30
0.000000
  70
    32
  0
VERTEX
  8
0
  5
E7E
 10
160.697
 20
59.8233
 30
0.000000
  70
    32
  0
VERTEX
  8
0
  5
E7F
 10
160.726
 20
59.8289
 30
0.000000
  70
    32
  0
VERTEX
  8
0
  5
E80
 10
160.755
 20
59.8352
 30
0.000000
  70
    32
  0
VERTEX
  8
0
  5
E81
 10
160.784
 20
59.8422
 30
0.000000
  70
    32
  0
VERTEX
  8
0
  5
E82
 10
160.812
 20
59.8497
 30
0.000000
  70
    32
  0
VERTEX
  8
0
  5
E83
 10
160.841
 20
59.8580
 30
0.000000
  70
    32
  0
VERTEX
  8
0
  5
E84
 10
160.869
 20
59.8668
 30
0.000000
  70
    32
  0
VERTEX
  8
0
  5
E85
 10
160.897
 20
59.8763
 30
0.000000
  70
    32
  0
VERTEX
  8
0
  5
E86
 10
160.925
 20
59.8864
 30
0.000000
  70
    32
  0
VERTEX
  8
0
  5
E87
 10
160.952
 20
59.8971
 30
0.000000
  70
    32
  0
VERTEX
  8
0
  5
E88
 10
160.979
 20
59.9085
 30
0.000000
  70
    32
  0
VERTEX
  8
0
  5
E89
 10
161.006
 20
59.9204
 30
0.000000
  70
    32
  0
VERTEX
  8
0
  5
E8A
 10
161.032
 20
59.9330
 30
0.000000
  70
    32
  0
VERTEX
  8
0
  5
E8B
 10
161.058
 20
59.9461
 30
0.000000
  70
    32
  0
VERTEX
  8
0
  5
E8C
 10
161.084
 20
59.9598
 30
0.000000
  70
    32
  0
VERTEX
  8
0
  5
E8D
 10
161.109
 20
59.9741
 30
0.000000
  70
    32
  0
VERTEX
  8
0
  5
E8E
 10
161.134
 20
59.9889
 30
0.000000
  70
    32
  0
VERTEX
  8
0
  5
E8F
 10
161.159
 20
60.0043
 30
0.000000
  70
    32
  0
VERTEX
  8
0
  5
E90
 10
161.183
 20
60.0203
 30
0.000000
  70
    32
  0
VERTEX
  8
0
  5
E91
 10
161.207
 20
60.0368
 30
0.000000
  70
    32
  0
VERTEX
  8
0
  5
E92
 10
161.230
 20
60.0538
 30
0.000000
  70
    32
  0
VERTEX
  8
0
  5
E93
 10
161.253
 20
60.0713
 30
0.000000
  70
    32
  0
VERTEX
  8
0
  5
E94
 10
161.275
 20
60.0893
 30
0.000000
  70
    32
  0
VERTEX
  8
0
  5
E95
 10
161.297
 20
60.1079
 30
0.000000
  70
    32
  0
VERTEX
  8
0
  5
E96
 10
161.318
 20
60.1269
 30
0.000000
  70
    32
  0
VERTEX
  8
0
  5
E97
 10
161.339
 20
60.1463
 30
0.000000
  70
    32
  0
VERTEX
  8
0
  5
E98
 10
161.359
 20
60.1663
 30
0.000000
  70
    32
  0
VERTEX
  8
0
  5
E99
 10
161.379
 20
60.1867
 30
0.000000
  70
    32
  0
VERTEX
  8
0
  5
E9A
 10
161.398
 20
60.2075
 30
0.000000
  70
    32
  0
VERTEX
  8
0
  5
E9B
 10
161.417
 20
60.2288
 30
0.000000
  70
    32
  0
VERTEX
  8
0
  5
E9C
 10
161.435
 20
60.2504
 30
0.000000
  70
    32
  0
VERTEX
  8
0
  5
E9D
 10
161.452
 20
60.2725
 30
0.000000
  70
    32
  0
VERTEX
  8
0
  5
E9E
 10
161.469
 20
60.2949
 30
0.000000
  70
    32
  0
VERTEX
  8
0
  5
E9F
 10
161.485
 20
60.3178
 30
0.000000
  70
    32
  0
VERTEX
  8
0
  5
EA0
 10
161.501
 20
60.3409
 30
0.000000
  70
    32
  0
VERTEX
  8
0
  5
EA1
 10
161.516
 20
60.3645
 30
0.000000
  70
    32
  0
VERTEX
  8
0
  5
EA2
 10
161.530
 20
60.3883
 30
0.000000
  70
    32
  0
VERTEX
  8
0
  5
EA3
 10
161.544
 20
60.4125
 30
0.000000
  70
    32
  0
VERTEX
  8
0
  5
EA4
 10
161.557
 20
60.4369
 30
0.000000
  70
    32
  0
VERTEX
  8
0
  5
EA5
 10
161.569
 20
60.4617
 30
0.000000
  70
    32
  0
VERTEX
  8
0
  5
EA6
 10
161.581
 20
60.4867
 30
0.000000
  70
    32
  0
VERTEX
  8
0
  5
EA7
 10
161.592
 20
60.5120
 30
0.000000
  70
    32
  0
VERTEX
  8
0
  5
EA8
 10
161.603
 20
60.5375
 30
0.000000
  70
    32
  0
VERTEX
  8
0
  5
EA9
 10
161.612
 20
60.5632
 30
0.000000
  70
    32
  0
VERTEX
  8
0
  5
EAA
 10
161.621
 20
60.5892
 30
0.000000
  70
    32
  0
VERTEX
  8
0
  5
EAB
 10
161.629
 20
60.6153
 30
0.000000
  70
    32
  0
VERTEX
  8
0
  5
EAC
 10
161.637
 20
60.6417
 30
0.000000
  70
    32
  0
VERTEX
  8
0
  5
EAD
 10
161.644
 20
60.6682
 30
0.000000
  70
    32
  0
VERTEX
  8
0
  5
EAE
 10
161.650
 20
60.6948
 30
0.000000
  70
    32
  0
VERTEX
  8
0
  5
EAF
 10
161.656
 20
60.7216
 30
0.000000
  70
    32
  0
VERTEX
  8
0
  5
EB0
 10
161.660
 20
60.7484
 30
0.000000
  70
    32
  0
VERTEX
  8
0
  5
EB1
 10
161.664
 20
60.7754
 30
0.000000
  70
    32
  0
VERTEX
  8
0
  5
EB2
 10
161.668
 20
60.8025
 30
0.000000
  70
    32
  0
VERTEX
  8
0
  5
EB3
 10
161.670
 20
60.8296
 30
0.000000
  70
    32
  0
VERTEX
  8
0
  5
EB4
 10
161.672
 20
60.8568
 30
0.000000
  70
    32
  0
VERTEX
  8
0
  5
EB5
 10
161.673
 20
60.8840
 30
0.000000
  70
    32
  0
VERTEX
  8
0
  5
EB6
 10
161.673
 20
60.9112
 30
0.000000
  70
    32
  0
VERTEX
  8
0
  5
EB7
 10
161.673
 20
60.9384
 30
0.000000
  70
    32
  0
VERTEX
  8
0
  5
EB8
 10
161.672
 20
60.9656
 30
0.000000
  70
    32
  0
VERTEX
  8
0
  5
EB9
 10
161.670
 20
60.9928
 30
0.000000
  70
    32
  0
VERTEX
  8
0
  5
EBA
 10
161.668
 20
61.0199
 30
0.000000
  70
    32
  0
VERTEX
  8
0
  5
EBB
 10
161.664
 20
61.0470
 30
0.000000
  70
    32
  0
VERTEX
  8
0
  5
EBC
 10
161.660
 20
61.0739
 30
0.000000
  70
    32
  0
VERTEX
  8
0
  5
EBD
 10
161.656
 20
61.1008
 30
0.000000
  70
    32
  0
VERTEX
  8
0
  5
EBE
 10
161.650
 20
61.1276
 30
0.000000
  70
    32
  0
VERTEX
  8
0
  5
EBF
 10
161.644
 20
61.1542
 30
0.000000
  70
    32
  0
VERTEX
  8
0
  5
EC0
 10
161.637
 20
61.1807
 30
0.000000
  70
    32
  0
VERTEX
  8
0
  5
EC1
 10
161.629
 20
61.2070
 30
0.000000
  70
    32
  0
VERTEX
  8
0
  5
EC2
 10
161.621
 20
61.2332
 30
0.000000
  70
    32
  0
VERTEX
  8
0
  5
EC3
 10
161.612
 20
61.2591
 30
0.000000
  70
    32
  0
VERTEX
  8
0
  5
EC4
 10
161.603
 20
61.2849
 30
0.000000
  70
    32
  0
VERTEX
  8
0
  5
EC5
 10
161.592
 20
61.3104
 30
0.000000
  70
    32
  0
VERTEX
  8
0
  5
EC6
 10
161.581
 20
61.3356
 30
0.000000
  70
    32
  0
VERTEX
  8
0
  5
EC7
 10
161.569
 20
61.3607
 30
0.000000
  70
    32
  0
VERTEX
  8
0
  5
EC8
 10
161.557
 20
61.3854
 30
0.000000
  70
    32
  0
VERTEX
  8
0
  5
EC9
 10
161.544
 20
61.4099
 30
0.000000
  70
    32
  0
VERTEX
  8
0
  5
ECA
 10
161.530
 20
61.4340
 30
0.000000
  70
    32
  0
VERTEX
  8
0
  5
ECB
 10
161.516
 20
61.4579
 30
0.000000
  70
    32
  0
VERTEX
  8
0
  5
ECC
 10
161.501
 20
61.4814
 30
0.000000
  70
    32
  0
VERTEX
  8
0
  5
ECD
 10
161.485
 20
61.5046
 30
0.000000
  70
    32
  0
VERTEX
  8
0
  5
ECE
 10
161.469
 20
61.5274
 30
0.000000
  70
    32
  0
VERTEX
  8
0
  5
ECF
 10
161.452
 20
61.5499
 30
0.000000
  70
    32
  0
VERTEX
  8
0
  5
ED0
 10
161.435
 20
61.5719
 30
0.000000
  70
    32
  0
VERTEX
  8
0
  5
ED1
 10
161.417
 20
61.5936
 30
0.000000
  70
    32
  0
VERTEX
  8
0
  5
ED2
 10
161.398
 20
61.6148
 30
0.000000
  70
    32
  0
VERTEX
  8
0
  5
ED3
 10
161.379
 20
61.6357
 30
0.000000
  70
    32
  0
VERTEX
  8
0
  5
ED4
 10
161.359
 20
61.6561
 30
0.000000
  70
    32
  0
VERTEX
  8
0
  5
ED5
 10
161.339
 20
61.6760
 30
0.000000
  70
    32
  0
VERTEX
  8
0
  5
ED6
 10
161.318
 20
61.6955
 30
0.000000
  70
    32
  0
VERTEX
  8
0
  5
ED7
 10
161.297
 20
61.7145
 30
0.000000
  70
    32
  0
VERTEX
  8
0
  5
ED8
 10
161.275
 20
61.7330
 30
0.000000
  70
    32
  0
VERTEX
  8
0
  5
ED9
 10
161.253
 20
61.7511
 30
0.000000
  70
    32
  0
VERTEX
  8
0
  5
EDA
 10
161.230
 20
61.7686
 30
0.000000
  70
    32
  0
VERTEX
  8
0
  5
EDB
 10
161.207
 20
61.7856
 30
0.000000
  70
    32
  0
VERTEX
  8
0
  5
EDC
 10
161.183
 20
61.8021
 30
0.000000
  70
    32
  0
VERTEX
  8
0
  5
EDD
 10
161.159
 20
61.8180
 30
0.000000
  70
    32
  0
VERTEX
  8
0
  5
EDE
 10
161.134
 20
61.8334
 30
0.000000
  70
    32
  0
VERTEX
  8
0
  5
EDF
 10
161.109
 20
61.8483
 30
0.000000
  70
    32
  0
VERTEX
  8
0
  5
EE0
 10
161.084
 20
61.8626
 30
0.000000
  70
    32
  0
VERTEX
  8
0
  5
EE1
 10
161.058
 20
61.8763
 30
0.000000
  70
    32
  0
VERTEX
  8
0
  5
EE2
 10
161.032
 20
61.8894
 30
0.000000
  70
    32
  0
VERTEX
  8
0
  5
EE3
 10
161.006
 20
61.9019
 30
0.000000
  70
    32
  0
VERTEX
  8
0
  5
EE4
 10
160.979
 20
61.9139
 30
0.000000
  70
    32
  0
VERTEX
  8
0
  5
EE5
 10
160.952
 20
61.9252
 30
0.000000
  70
    32
  0
VERTEX
  8
0
  5
EE6
 10
160.925
 20
61.9359
 30
0.000000
  70
    32
  0
VERTEX
  8
0
  5
EE7
 10
160.897
 20
61.9460
 30
0.000000
  70
    32
  0
VERTEX
  8
0
  5
EE8
 10
160.869
 20
61.9555
 30
0.000000
  70
    32
  0
VERTEX
  8
0
  5
EE9
 10
160.841
 20
61.9644
 30
0.000000
  70
    32
  0
VERTEX
  8
0
  5
EEA
 10
160.812
 20
61.9726
 30
0.000000
  70
    32
  0
VERTEX
  8
0
  5
EEB
 10
160.784
 20
61.9802
 30
0.000000
  70
    32
  0
VERTEX
  8
0
  5
EEC
 10
160.755
 20
61.9871
 30
0.000000
  70
    32
  0
VERTEX
  8
0
  5
EED
 10
160.726
 20
61.9934
 30
0.000000
  70
    32
  0
VERTEX
  8
0
  5
EEE
 10
160.697
 20
61.9991
 30
0.000000
  70
    32
  0
VERTEX
  8
0
  5
EEF
 10
160.668
 20
62.0040
 30
0.000000
  70
    32
  0
VERTEX
  8
0
  5
EF0
 10
160.638
 20
62.0084
 30
0.000000
  70
    32
  0
VERTEX
  8
0
  5
EF1
 10
160.609
 20
62.0120
 30
0.000000
  70
    32
  0
VERTEX
  8
0
  5
EF2
 10
160.579
 20
62.0150
 30
0.000000
  70
    32
  0
VERTEX
  8
0
  5
EF3
 10
160.550
 20
62.0174
 30
0.000000
  70
    32
  0
VERTEX
  8
0
  5
EF4
 10
160.520
 20
62.0190
 30
0.000000
  70
    32
  0
VERTEX
  8
0
  5
EF5
 10
160.490
 20
62.0200
 30
0.000000
  70
    32
  0
VERTEX
  8
0
  5
EF6
 10
160.460
 20
62.0204
 30
0.000000
  70
    32
  0
SEQEND
  8
0
  5
EF7
  0
ARC
  5
A82
  8
0
 10
160.45088999097609
 20
72.186728015002643
 30
0.0
 40
1.217999987819999
 50
0.0
 51
90.0
1001
GENIUS_GENODEF_13
1002
{
1000
HIER
1070
     0
1002
}
1002
{
1000
MANEDIT
1070
     0
1002
}
1002
{
1000
NOSEL
1070
     0
1002
}
1002
{
1000
BEHIND
1070
     0
1002
}
1002
{
1000
REACTOR
1002
}
1001
GENIUS_GENOBJ-N-FIL_13
1002
{
1000
OWNER
1000
GEN
1002
}
  0
ARC
  5
A83
  8
0
 10
160.45088999097661
 20
72.211522982332951
 30
0.0
 40
1.217999987819999
 50
270.0
 51
0.0
1001
GENIUS_GENODEF_13
1002
{
1000
HIER
1070
     0
1002
}
1002
{
1000
MANEDIT
1070
     0
1002
}
1002
{
1000
NOSEL
1070
     0
1002
}
1002
{
1000
BEHIND
1070
     0
1002
}
1002
{
1000
REACTOR
1002
}
1001
GENIUS_GENOBJ-N-FIL_13
1002
{
1000
OWNER
1000
GEN
1002
}
  0
ARC
  5
A84
  8
0
 10
151.2658574432688
 20
66.439122829110303
 30
0.0
 40
1.3009984155683989
 50
112.077720867171
 51
247.92227913283111
  0
LINE
  5
A85
  8
0
 10
150.776859027619
 20
62.020372482541177
 30
0.0
 11
150.77685902761851
 21
65.233520313019824
 31
0.0
  0
ARC
  5
A86
  8
0
 10
151.1290223429331
 20
60.910752175867572
 30
0.0
 40
1.1641633157064071
 50
107.6080229805692
 51
252.3919770194444
  0
LINE
  5
A87
  8
0
 10
150.77685902761851
 20
70.993523011089735
 30
0.0
 11
150.77685902761809
 21
69.319124178145273
 31
0.0
  0
ARC
  5
A88
  8
0
 10
151.2658574432688
 20
72.199125527180229
 30
0.0
 40
1.3009984155683989
 50
112.07772086716891
 51
247.922279132829
  0
LINE
  5
A89
  8
0
 10
150.77685902761851
 20
67.644725345200811
 30
0.0
 11
150.77685902761809
 21
69.319124178145273
 31
0.0
  0
LINE
  5
A8A
  8
0
 10
160.50726485992351
 20
76.617875873749369
 30
0.0
 11
150.776859027619
 21
76.617875873749369
 31
0.0
  0
LINE
  5
A8B
  8
0
 10
160.50726485992391
 20
78.836261420476774
 30
0.0
 11
150.77685902761951
 21
78.837116487097475
 31
0.0
  0
LINE
  5
A8C
  8
0
 10
160.69058139075059
 20
88.548793078047495
 30
0.0
 11
150.77685902762039
 21
88.356468345473502
 31
0.0
  0
LINE
  5
A8D
  8
0
 10
160.53536934021849
 20
89.230819155076645
 30
0.0
 11
150.8501198220041
 21
89.042636244739413
 31
0.0
  0
LINE
  5
A8E
  8
0
 10
160.50726485992351
 20
81.650927281379325
 30
0.0
 11
150.77685902761991
 21
81.650927281379325
 31
0.0
  0
LINE
  5
A8F
  8
0
 10
160.50726485992351
 20
85.684929341638679
 30
0.0
 11
150.77685902761809
 21
85.684929341638679
 31
0.0
  0
LINE
  5
A90
  8
0
 10
160.50726485992351
 20
83.49193324432116
 30
0.0
 11
150.77685902761991
 21
83.491933244321615
 31
0.0
  0
LINE
  5
A91
  8
0
 10
160.50726485992351
 20
87.001930372828767
 30
0.0
 11
150.77685902760859
 21
87.001930372828767
 31
0.0
  0
POLYLINE
  5
A92
  8
0
 10
160.4602938895016
 20
78.836261326256988
 30
0.0
 66
     1
 70
     8
  0
VERTEX
  8
0
  5
EF8
 10
160.460
 20
78.8363
 30
0.000000
  70
    32
  0
VERTEX
  8
0
  5
EF9
 10
160.490
 20
78.8359
 30
0.000000
  70
    32
  0
VERTEX
  8
0
  5
EFA
 10
160.520
 20
78.8349
 30
0.000000
  70
    32
  0
VERTEX
  8
0
  5
EFB
 10
160.550
 20
78.8333
 30
0.000000
  70
    32
  0
VERTEX
  8
0
  5
EFC
 10
160.579
 20
78.8309
 30
0.000000
  70
    32
  0
VERTEX
  8
0
  5
EFD
 10
160.609
 20
78.8279
 30
0.000000
  70
    32
  0
VERTEX
  8
0
  5
EFE
 10
160.638
 20
78.8243
 30
0.000000
  70
    32
  0
VERTEX
  8
0
  5
EFF
 10
160.668
 20
78.8199
 30
0.000000
  70
    32
  0
VERTEX
  8
0
  5
F00
 10
160.697
 20
78.8149
 30
0.000000
  70
    32
  0
VERTEX
  8
0
  5
F01
 10
160.726
 20
78.8093
 30
0.000000
  70
    32
  0
VERTEX
  8
0
  5
F02
 10
160.755
 20
78.8030
 30
0.000000
  70
    32
  0
VERTEX
  8
0
  5
F03
 10
160.784
 20
78.7961
 30
0.000000
  70
    32
  0
VERTEX
  8
0
  5
F04
 10
160.812
 20
78.7885
 30
0.000000
  70
    32
  0
VERTEX
  8
0
  5
F05
 10
160.841
 20
78.7803
 30
0.000000
  70
    32
  0
VERTEX
  8
0
  5
F06
 10
160.869
 20
78.7714
 30
0.000000
  70
    32
  0
VERTEX
  8
0
  5
F07
 10
160.897
 20
78.7619
 30
0.000000
  70
    32
  0
VERTEX
  8
0
  5
F08
 10
160.925
 20
78.7518
 30
0.000000
  70
    32
  0
VERTEX
  8
0
  5
F09
 10
160.952
 20
78.7411
 30
0.000000
  70
    32
  0
VERTEX
  8
0
  5
F0A
 10
160.979
 20
78.7298
 30
0.000000
  70
    32
  0
VERTEX
  8
0
  5
F0B
 10
161.006
 20
78.7178
 30
0.000000
  70
    32
  0
VERTEX
  8
0
  5
F0C
 10
161.032
 20
78.7053
 30
0.000000
  70
    32
  0
VERTEX
  8
0
  5
F0D
 10
161.058
 20
78.6922
 30
0.000000
  70
    32
  0
VERTEX
  8
0
  5
F0E
 10
161.084
 20
78.6785
 30
0.000000
  70
    32
  0
VERTEX
  8
0
  5
F0F
 10
161.109
 20
78.6642
 30
0.000000
  70
    32
  0
VERTEX
  8
0
  5
F10
 10
161.134
 20
78.6493
 30
0.000000
  70
    32
  0
VERTEX
  8
0
  5
F11
 10
161.159
 20
78.6339
 30
0.000000
  70
    32
  0
VERTEX
  8
0
  5
F12
 10
161.183
 20
78.6180
 30
0.000000
  70
    32
  0
VERTEX
  8
0
  5
F13
 10
161.207
 20
78.6015
 30
0.000000
  70
    32
  0
VERTEX
  8
0
  5
F14
 10
161.230
 20
78.5845
 30
0.000000
  70
    32
  0
VERTEX
  8
0
  5
F15
 10
161.253
 20
78.5670
 30
0.000000
  70
    32
  0
VERTEX
  8
0
  5
F16
 10
161.275
 20
78.5489
 30
0.000000
  70
    32
  0
VERTEX
  8
0
  5
F17
 10
161.297
 20
78.5304
 30
0.000000
  70
    32
  0
VERTEX
  8
0
  5
F18
 10
161.318
 20
78.5114
 30
0.000000
  70
    32
  0
VERTEX
  8
0
  5
F19
 10
161.339
 20
78.4919
 30
0.000000
  70
    32
  0
VERTEX
  8
0
  5
F1A
 10
161.359
 20
78.4720
 30
0.000000
  70
    32
  0
VERTEX
  8
0
  5
F1B
 10
161.379
 20
78.4516
 30
0.000000
  70
    32
  0
VERTEX
  8
0
  5
F1C
 10
161.398
 20
78.4307
 30
0.000000
  70
    32
  0
VERTEX
  8
0
  5
F1D
 10
161.417
 20
78.4095
 30
0.000000
  70
    32
  0
VERTEX
  8
0
  5
F1E
 10
161.435
 20
78.3878
 30
0.000000
  70
    32
  0
VERTEX
  8
0
  5
F1F
 10
161.452
 20
78.3658
 30
0.000000
  70
    32
  0
VERTEX
  8
0
  5
F20
 10
161.469
 20
78.3433
 30
0.000000
  70
    32
  0
VERTEX
  8
0
  5
F21
 10
161.485
 20
78.3205
 30
0.000000
  70
    32
  0
VERTEX
  8
0
  5
F22
 10
161.501
 20
78.2973
 30
0.000000
  70
    32
  0
VERTEX
  8
0
  5
F23
 10
161.516
 20
78.2738
 30
0.000000
  70
    32
  0
VERTEX
  8
0
  5
F24
 10
161.530
 20
78.2499
 30
0.000000
  70
    32
  0
VERTEX
  8
0
  5
F25
 10
161.544
 20
78.2258
 30
0.000000
  70
    32
  0
VERTEX
  8
0
  5
F26
 10
161.557
 20
78.2013
 30
0.000000
  70
    32
  0
VERTEX
  8
0
  5
F27
 10
161.569
 20
78.1766
 30
0.000000
  70
    32
  0
VERTEX
  8
0
  5
F28
 10
161.581
 20
78.1515
 30
0.000000
  70
    32
  0
VERTEX
  8
0
  5
F29
 10
161.592
 20
78.1263
 30
0.000000
  70
    32
  0
VERTEX
  8
0
  5
F2A
 10
161.603
 20
78.1007
 30
0.000000
  70
    32
  0
VERTEX
  8
0
  5
F2B
 10
161.612
 20
78.0750
 30
0.000000
  70
    32
  0
VERTEX
  8
0
  5
F2C
 10
161.621
 20
78.0491
 30
0.000000
  70
    32
  0
VERTEX
  8
0
  5
F2D
 10
161.629
 20
78.0229
 30
0.000000
  70
    32
  0
VERTEX
  8
0
  5
F2E
 10
161.637
 20
77.9966
 30
0.000000
  70
    32
  0
VERTEX
  8
0
  5
F2F
 10
161.644
 20
77.9701
 30
0.000000
  70
    32
  0
VERTEX
  8
0
  5
F30
 10
161.650
 20
77.9435
 30
0.000000
  70
    32
  0
VERTEX
  8
0
  5
F31
 10
161.656
 20
77.9167
 30
0.000000
  70
    32
  0
VERTEX
  8
0
  5
F32
 10
161.660
 20
77.8898
 30
0.000000
  70
    32
  0
VERTEX
  8
0
  5
F33
 10
161.664
 20
77.8628
 30
0.000000
  70
    32
  0
VERTEX
  8
0
  5
F34
 10
161.668
 20
77.8358
 30
0.000000
  70
    32
  0
VERTEX
  8
0
  5
F35
 10
161.670
 20
77.8087
 30
0.000000
  70
    32
  0
VERTEX
  8
0
  5
F36
 10
161.672
 20
77.7815
 30
0.000000
  70
    32
  0
VERTEX
  8
0
  5
F37
 10
161.673
 20
77.7543
 30
0.000000
  70
    32
  0
VERTEX
  8
0
  5
F38
 10
161.673
 20
77.7271
 30
0.000000
  70
    32
  0
VERTEX
  8
0
  5
F39
 10
161.673
 20
77.6998
 30
0.000000
  70
    32
  0
VERTEX
  8
0
  5
F3A
 10
161.672
 20
77.6726
 30
0.000000
  70
    32
  0
VERTEX
  8
0
  5
F3B
 10
161.670
 20
77.6455
 30
0.000000
  70
    32
  0
VERTEX
  8
0
  5
F3C
 10
161.668
 20
77.6183
 30
0.000000
  70
    32
  0
VERTEX
  8
0
  5
F3D
 10
161.664
 20
77.5913
 30
0.000000
  70
    32
  0
VERTEX
  8
0
  5
F3E
 10
161.660
 20
77.5643
 30
0.000000
  70
    32
  0
VERTEX
  8
0
  5
F3F
 10
161.656
 20
77.5374
 30
0.000000
  70
    32
  0
VERTEX
  8
0
  5
F40
 10
161.650
 20
77.5107
 30
0.000000
  70
    32
  0
VERTEX
  8
0
  5
F41
 10
161.644
 20
77.4840
 30
0.000000
  70
    32
  0
VERTEX
  8
0
  5
F42
 10
161.637
 20
77.4576
 30
0.000000
  70
    32
  0
VERTEX
  8
0
  5
F43
 10
161.629
 20
77.4312
 30
0.000000
  70
    32
  0
VERTEX
  8
0
  5
F44
 10
161.621
 20
77.4051
 30
0.000000
  70
    32
  0
VERTEX
  8
0
  5
F45
 10
161.612
 20
77.3791
 30
0.000000
  70
    32
  0
VERTEX
  8
0
  5
F46
 10
161.603
 20
77.3534
 30
0.000000
  70
    32
  0
VERTEX
  8
0
  5
F47
 10
161.592
 20
77.3279
 30
0.000000
  70
    32
  0
VERTEX
  8
0
  5
F48
 10
161.581
 20
77.3026
 30
0.000000
  70
    32
  0
VERTEX
  8
0
  5
F49
 10
161.569
 20
77.2776
 30
0.000000
  70
    32
  0
VERTEX
  8
0
  5
F4A
 10
161.557
 20
77.2528
 30
0.000000
  70
    32
  0
VERTEX
  8
0
  5
F4B
 10
161.544
 20
77.2284
 30
0.000000
  70
    32
  0
VERTEX
  8
0
  5
F4C
 10
161.530
 20
77.2042
 30
0.000000
  70
    32
  0
VERTEX
  8
0
  5
F4D
 10
161.516
 20
77.1803
 30
0.000000
  70
    32
  0
VERTEX
  8
0
  5
F4E
 10
161.501
 20
77.1568
 30
0.000000
  70
    32
  0
VERTEX
  8
0
  5
F4F
 10
161.485
 20
77.1337
 30
0.000000
  70
    32
  0
VERTEX
  8
0
  5
F50
 10
161.469
 20
77.1108
 30
0.000000
  70
    32
  0
VERTEX
  8
0
  5
F51
 10
161.452
 20
77.0884
 30
0.000000
  70
    32
  0
VERTEX
  8
0
  5
F52
 10
161.435
 20
77.0663
 30
0.000000
  70
    32
  0
VERTEX
  8
0
  5
F53
 10
161.417
 20
77.0447
 30
0.000000
  70
    32
  0
VERTEX
  8
0
  5
F54
 10
161.398
 20
77.0234
 30
0.000000
  70
    32
  0
VERTEX
  8
0
  5
F55
 10
161.379
 20
77.0026
 30
0.000000
  70
    32
  0
VERTEX
  8
0
  5
F56
 10
161.359
 20
76.9822
 30
0.000000
  70
    32
  0
VERTEX
  8
0
  5
F57
 10
161.339
 20
76.9622
 30
0.000000
  70
    32
  0
VERTEX
  8
0
  5
F58
 10
161.318
 20
76.9428
 30
0.000000
  70
    32
  0
VERTEX
  8
0
  5
F59
 10
161.297
 20
76.9237
 30
0.000000
  70
    32
  0
VERTEX
  8
0
  5
F5A
 10
161.275
 20
76.9052
 30
0.000000
  70
    32
  0
VERTEX
  8
0
  5
F5B
 10
161.253
 20
76.8872
 30
0.000000
  70
    32
  0
VERTEX
  8
0
  5
F5C
 10
161.230
 20
76.8697
 30
0.000000
  70
    32
  0
VERTEX
  8
0
  5
F5D
 10
161.207
 20
76.8526
 30
0.000000
  70
    32
  0
VERTEX
  8
0
  5
F5E
 10
161.183
 20
76.8362
 30
0.000000
  70
    32
  0
VERTEX
  8
0
  5
F5F
 10
161.159
 20
76.8202
 30
0.000000
  70
    32
  0
VERTEX
  8
0
  5
F60
 10
161.134
 20
76.8048
 30
0.000000
  70
    32
  0
VERTEX
  8
0
  5
F61
 10
161.109
 20
76.7900
 30
0.000000
  70
    32
  0
VERTEX
  8
0
  5
F62
 10
161.084
 20
76.7757
 30
0.000000
  70
    32
  0
VERTEX
  8
0
  5
F63
 10
161.058
 20
76.7620
 30
0.000000
  70
    32
  0
VERTEX
  8
0
  5
F64
 10
161.032
 20
76.7488
 30
0.000000
  70
    32
  0
VERTEX
  8
0
  5
F65
 10
161.006
 20
76.7363
 30
0.000000
  70
    32
  0
VERTEX
  8
0
  5
F66
 10
160.979
 20
76.7244
 30
0.000000
  70
    32
  0
VERTEX
  8
0
  5
F67
 10
160.952
 20
76.7130
 30
0.000000
  70
    32
  0
VERTEX
  8
0
  5
F68
 10
160.925
 20
76.7023
 30
0.000000
  70
    32
  0
VERTEX
  8
0
  5
F69
 10
160.897
 20
76.6922
 30
0.000000
  70
    32
  0
VERTEX
  8
0
  5
F6A
 10
160.869
 20
76.6827
 30
0.000000
  70
    32
  0
VERTEX
  8
0
  5
F6B
 10
160.841
 20
76.6739
 30
0.000000
  70
    32
  0
VERTEX
  8
0
  5
F6C
 10
160.812
 20
76.6656
 30
0.000000
  70
    32
  0
VERTEX
  8
0
  5
F6D
 10
160.784
 20
76.6581
 30
0.000000
  70
    32
  0
VERTEX
  8
0
  5
F6E
 10
160.755
 20
76.6511
 30
0.000000
  70
    32
  0
VERTEX
  8
0
  5
F6F
 10
160.726
 20
76.6448
 30
0.000000
  70
    32
  0
VERTEX
  8
0
  5
F70
 10
160.697
 20
76.6392
 30
0.000000
  70
    32
  0
VERTEX
  8
0
  5
F71
 10
160.668
 20
76.6342
 30
0.000000
  70
    32
  0
VERTEX
  8
0
  5
F72
 10
160.638
 20
76.6299
 30
0.000000
  70
    32
  0
VERTEX
  8
0
  5
F73
 10
160.609
 20
76.6262
 30
0.000000
  70
    32
  0
VERTEX
  8
0
  5
F74
 10
160.579
 20
76.6232
 30
0.000000
  70
    32
  0
VERTEX
  8
0
  5
F75
 10
160.550
 20
76.6209
 30
0.000000
  70
    32
  0
VERTEX
  8
0
  5
F76
 10
160.520
 20
76.6192
 30
0.000000
  70
    32
  0
VERTEX
  8
0
  5
F77
 10
160.490
 20
76.6182
 30
0.000000
  70
    32
  0
VERTEX
  8
0
  5
F78
 10
160.460
 20
76.6179
 30
0.000000
  70
    32
  0
SEQEND
  8
0
  5
F79
  0
LINE
  5
A93
  8
0
 10
161.7203951030215
 20
82.571328244413223
 30
0.0
 11
161.7203951030215
 21
82.571532281286807
 31
0.0
  0
POLYLINE
  5
A94
  8
0
 10
160.45844572447299
 20
83.491933104009661
 30
0.0
 66
     1
 70
     8
  0
VERTEX
  8
0
  5
F7A
 10
160.458
 20
83.4919
 30
0.000000
  70
    32
  0
VERTEX
  8
0
  5
F7B
 10
160.488
 20
83.4917
 30
0.000000
  70
    32
  0
VERTEX
  8
0
  5
F7C
 10
160.518
 20
83.4908
 30
0.000000
  70
    32
  0
VERTEX
  8
0
  5
F7D
 10
160.548
 20
83.4894
 30
0.000000
  70
    32
  0
VERTEX
  8
0
  5
F7E
 10
160.577
 20
83.4875
 30
0.000000
  70
    32
  0
VERTEX
  8
0
  5
F7F
 10
160.607
 20
83.4850
 30
0.000000
  70
    32
  0
VERTEX
  8
0
  5
F80
 10
160.636
 20
83.4820
 30
0.000000
  70
    32
  0
VERTEX
  8
0
  5
F81
 10
160.666
 20
83.4784
 30
0.000000
  70
    32
  0
VERTEX
  8
0
  5
F82
 10
160.695
 20
83.4742
 30
0.000000
  70
    32
  0
VERTEX
  8
0
  5
F83
 10
160.724
 20
83.4696
 30
0.000000
  70
    32
  0
VERTEX
  8
0
  5
F84
 10
160.753
 20
83.4643
 30
0.000000
  70
    32
  0
VERTEX
  8
0
  5
F85
 10
160.782
 20
83.4586
 30
0.000000
  70
    32
  0
VERTEX
  8
0
  5
F86
 10
160.811
 20
83.4523
 30
0.000000
  70
    32
  0
VERTEX
  8
0
  5
F87
 10
160.839
 20
83.4455
 30
0.000000
  70
    32
  0
VERTEX
  8
0
  5
F88
 10
160.867
 20
83.4381
 30
0.000000
  70
    32
  0
VERTEX
  8
0
  5
F89
 10
160.895
 20
83.4303
 30
0.000000
  70
    32
  0
VERTEX
  8
0
  5
F8A
 10
160.923
 20
83.4219
 30
0.000000
  70
    32
  0
VERTEX
  8
0
  5
F8B
 10
160.950
 20
83.4130
 30
0.000000
  70
    32
  0
VERTEX
  8
0
  5
F8C
 10
160.977
 20
83.4036
 30
0.000000
  70
    32
  0
VERTEX
  8
0
  5
F8D
 10
161.004
 20
83.3936
 30
0.000000
  70
    32
  0
VERTEX
  8
0
  5
F8E
 10
161.030
 20
83.3832
 30
0.000000
  70
    32
  0
VERTEX
  8
0
  5
F8F
 10
161.056
 20
83.3723
 30
0.000000
  70
    32
  0
VERTEX
  8
0
  5
F90
 10
161.082
 20
83.3610
 30
0.000000
  70
    32
  0
VERTEX
  8
0
  5
F91
 10
161.107
 20
83.3491
 30
0.000000
  70
    32
  0
VERTEX
  8
0
  5
F92
 10
161.132
 20
83.3368
 30
0.000000
  70
    32
  0
VERTEX
  8
0
  5
F93
 10
161.157
 20
83.3240
 30
0.000000
  70
    32
  0
VERTEX
  8
0
  5
F94
 10
161.181
 20
83.3108
 30
0.000000
  70
    32
  0
VERTEX
  8
0
  5
F95
 10
161.205
 20
83.2971
 30
0.000000
  70
    32
  0
VERTEX
  8
0
  5
F96
 10
161.228
 20
83.2830
 30
0.000000
  70
    32
  0
VERTEX
  8
0
  5
F97
 10
161.251
 20
83.2684
 30
0.000000
  70
    32
  0
VERTEX
  8
0
  5
F98
 10
161.273
 20
83.2535
 30
0.000000
  70
    32
  0
VERTEX
  8
0
  5
F99
 10
161.295
 20
83.2381
 30
0.000000
  70
    32
  0
VERTEX
  8
0
  5
F9A
 10
161.316
 20
83.2223
 30
0.000000
  70
    32
  0
VERTEX
  8
0
  5
F9B
 10
161.337
 20
83.2062
 30
0.000000
  70
    32
  0
VERTEX
  8
0
  5
F9C
 10
161.357
 20
83.1896
 30
0.000000
  70
    32
  0
VERTEX
  8
0
  5
F9D
 10
161.377
 20
83.1727
 30
0.000000
  70
    32
  0
VERTEX
  8
0
  5
F9E
 10
161.396
 20
83.1554
 30
0.000000
  70
    32
  0
VERTEX
  8
0
  5
F9F
 10
161.415
 20
83.1378
 30
0.000000
  70
    32
  0
VERTEX
  8
0
  5
FA0
 10
161.433
 20
83.1198
 30
0.000000
  70
    32
  0
VERTEX
  8
0
  5
FA1
 10
161.450
 20
83.1015
 30
0.000000
  70
    32
  0
VERTEX
  8
0
  5
FA2
 10
161.467
 20
83.0828
 30
0.000000
  70
    32
  0
VERTEX
  8
0
  5
FA3
 10
161.483
 20
83.0639
 30
0.000000
  70
    32
  0
VERTEX
  8
0
  5
FA4
 10
161.499
 20
83.0447
 30
0.000000
  70
    32
  0
VERTEX
  8
0
  5
FA5
 10
161.514
 20
83.0251
 30
0.000000
  70
    32
  0
VERTEX
  8
0
  5
FA6
 10
161.528
 20
83.0054
 30
0.000000
  70
    32
  0
VERTEX
  8
0
  5
FA7
 10
161.542
 20
82.9853
 30
0.000000
  70
    32
  0
VERTEX
  8
0
  5
FA8
 10
161.555
 20
82.9650
 30
0.000000
  70
    32
  0
VERTEX
  8
0
  5
FA9
 10
161.568
 20
82.9445
 30
0.000000
  70
    32
  0
VERTEX
  8
0
  5
FAA
 10
161.579
 20
82.9237
 30
0.000000
  70
    32
  0
VERTEX
  8
0
  5
FAB
 10
161.590
 20
82.9027
 30
0.000000
  70
    32
  0
VERTEX
  8
0
  5
FAC
 10
161.601
 20
82.8815
 30
0.000000
  70
    32
  0
VERTEX
  8
0
  5
FAD
 10
161.610
 20
82.8602
 30
0.000000
  70
    32
  0
VERTEX
  8
0
  5
FAE
 10
161.619
 20
82.8386
 30
0.000000
  70
    32
  0
VERTEX
  8
0
  5
FAF
 10
161.628
 20
82.8169
 30
0.000000
  70
    32
  0
VERTEX
  8
0
  5
FB0
 10
161.635
 20
82.7951
 30
0.000000
  70
    32
  0
VERTEX
  8
0
  5
FB1
 10
161.642
 20
82.7731
 30
0.000000
  70
    32
  0
VERTEX
  8
0
  5
FB2
 10
161.648
 20
82.7510
 30
0.000000
  70
    32
  0
VERTEX
  8
0
  5
FB3
 10
161.654
 20
82.7288
 30
0.000000
  70
    32
  0
VERTEX
  8
0
  5
FB4
 10
161.658
 20
82.7065
 30
0.000000
  70
    32
  0
VERTEX
  8
0
  5
FB5
 10
161.662
 20
82.6841
 30
0.000000
  70
    32
  0
VERTEX
  8
0
  5
FB6
 10
161.666
 20
82.6617
 30
0.000000
  70
    32
  0
VERTEX
  8
0
  5
FB7
 10
161.668
 20
82.6391
 30
0.000000
  70
    32
  0
VERTEX
  8
0
  5
FB8
 10
161.670
 20
82.6166
 30
0.000000
  70
    32
  0
VERTEX
  8
0
  5
FB9
 10
161.671
 20
82.5940
 30
0.000000
  70
    32
  0
VERTEX
  8
0
  5
FBA
 10
161.672
 20
82.5714
 30
0.000000
  70
    32
  0
VERTEX
  8
0
  5
FBB
 10
161.671
 20
82.5488
 30
0.000000
  70
    32
  0
VERTEX
  8
0
  5
FBC
 10
161.670
 20
82.5263
 30
0.000000
  70
    32
  0
VERTEX
  8
0
  5
FBD
 10
161.668
 20
82.5037
 30
0.000000
  70
    32
  0
VERTEX
  8
0
  5
FBE
 10
161.666
 20
82.4812
 30
0.000000
  70
    32
  0
VERTEX
  8
0
  5
FBF
 10
161.662
 20
82.4588
 30
0.000000
  70
    32
  0
VERTEX
  8
0
  5
FC0
 10
161.658
 20
82.4364
 30
0.000000
  70
    32
  0
VERTEX
  8
0
  5
FC1
 10
161.654
 20
82.4141
 30
0.000000
  70
    32
  0
VERTEX
  8
0
  5
FC2
 10
161.648
 20
82.3918
 30
0.000000
  70
    32
  0
VERTEX
  8
0
  5
FC3
 10
161.642
 20
82.3697
 30
0.000000
  70
    32
  0
VERTEX
  8
0
  5
FC4
 10
161.635
 20
82.3478
 30
0.000000
  70
    32
  0
VERTEX
  8
0
  5
FC5
 10
161.628
 20
82.3259
 30
0.000000
  70
    32
  0
VERTEX
  8
0
  5
FC6
 10
161.619
 20
82.3042
 30
0.000000
  70
    32
  0
VERTEX
  8
0
  5
FC7
 10
161.610
 20
82.2827
 30
0.000000
  70
    32
  0
VERTEX
  8
0
  5
FC8
 10
161.601
 20
82.2613
 30
0.000000
  70
    32
  0
VERTEX
  8
0
  5
FC9
 10
161.590
 20
82.2401
 30
0.000000
  70
    32
  0
VERTEX
  8
0
  5
FCA
 10
161.579
 20
82.2192
 30
0.000000
  70
    32
  0
VERTEX
  8
0
  5
FCB
 10
161.568
 20
82.1984
 30
0.000000
  70
    32
  0
VERTEX
  8
0
  5
FCC
 10
161.555
 20
82.1779
 30
0.000000
  70
    32
  0
VERTEX
  8
0
  5
FCD
 10
161.542
 20
82.1576
 30
0.000000
  70
    32
  0
VERTEX
  8
0
  5
FCE
 10
161.528
 20
82.1375
 30
0.000000
  70
    32
  0
VERTEX
  8
0
  5
FCF
 10
161.514
 20
82.1177
 30
0.000000
  70
    32
  0
VERTEX
  8
0
  5
FD0
 10
161.499
 20
82.0982
 30
0.000000
  70
    32
  0
VERTEX
  8
0
  5
FD1
 10
161.483
 20
82.0790
 30
0.000000
  70
    32
  0
VERTEX
  8
0
  5
FD2
 10
161.467
 20
82.0600
 30
0.000000
  70
    32
  0
VERTEX
  8
0
  5
FD3
 10
161.450
 20
82.0414
 30
0.000000
  70
    32
  0
VERTEX
  8
0
  5
FD4
 10
161.433
 20
82.0231
 30
0.000000
  70
    32
  0
VERTEX
  8
0
  5
FD5
 10
161.415
 20
82.0051
 30
0.000000
  70
    32
  0
VERTEX
  8
0
  5
FD6
 10
161.396
 20
81.9875
 30
0.000000
  70
    32
  0
VERTEX
  8
0
  5
FD7
 10
161.377
 20
81.9702
 30
0.000000
  70
    32
  0
VERTEX
  8
0
  5
FD8
 10
161.357
 20
81.9533
 30
0.000000
  70
    32
  0
VERTEX
  8
0
  5
FD9
 10
161.337
 20
81.9367
 30
0.000000
  70
    32
  0
VERTEX
  8
0
  5
FDA
 10
161.316
 20
81.9205
 30
0.000000
  70
    32
  0
VERTEX
  8
0
  5
FDB
 10
161.295
 20
81.9048
 30
0.000000
  70
    32
  0
VERTEX
  8
0
  5
FDC
 10
161.273
 20
81.8894
 30
0.000000
  70
    32
  0
VERTEX
  8
0
  5
FDD
 10
161.251
 20
81.8744
 30
0.000000
  70
    32
  0
VERTEX
  8
0
  5
FDE
 10
161.228
 20
81.8599
 30
0.000000
  70
    32
  0
VERTEX
  8
0
  5
FDF
 10
161.205
 20
81.8458
 30
0.000000
  70
    32
  0
VERTEX
  8
0
  5
FE0
 10
161.181
 20
81.8321
 30
0.000000
  70
    32
  0
VERTEX
  8
0
  5
FE1
 10
161.157
 20
81.8188
 30
0.000000
  70
    32
  0
VERTEX
  8
0
  5
FE2
 10
161.132
 20
81.8061
 30
0.000000
  70
    32
  0
VERTEX
  8
0
  5
FE3
 10
161.107
 20
81.7937
 30
0.000000
  70
    32
  0
VERTEX
  8
0
  5
FE4
 10
161.082
 20
81.7819
 30
0.000000
  70
    32
  0
VERTEX
  8
0
  5
FE5
 10
161.056
 20
81.7705
 30
0.000000
  70
    32
  0
VERTEX
  8
0
  5
FE6
 10
161.030
 20
81.7596
 30
0.000000
  70
    32
  0
VERTEX
  8
0
  5
FE7
 10
161.004
 20
81.7492
 30
0.000000
  70
    32
  0
VERTEX
  8
0
  5
FE8
 10
160.977
 20
81.7393
 30
0.000000
  70
    32
  0
VERTEX
  8
0
  5
FE9
 10
160.950
 20
81.7299
 30
0.000000
  70
    32
  0
VERTEX
  8
0
  5
FEA
 10
160.923
 20
81.7210
 30
0.000000
  70
    32
  0
VERTEX
  8
0
  5
FEB
 10
160.895
 20
81.7126
 30
0.000000
  70
    32
  0
VERTEX
  8
0
  5
FEC
 10
160.867
 20
81.7047
 30
0.000000
  70
    32
  0
VERTEX
  8
0
  5
FED
 10
160.839
 20
81.6974
 30
0.000000
  70
    32
  0
VERTEX
  8
0
  5
FEE
 10
160.811
 20
81.6906
 30
0.000000
  70
    32
  0
VERTEX
  8
0
  5
FEF
 10
160.782
 20
81.6843
 30
0.000000
  70
    32
  0
VERTEX
  8
0
  5
FF0
 10
160.753
 20
81.6785
 30
0.000000
  70
    32
  0
VERTEX
  8
0
  5
FF1
 10
160.724
 20
81.6733
 30
0.000000
  70
    32
  0
VERTEX
  8
0
  5
FF2
 10
160.695
 20
81.6686
 30
0.000000
  70
    32
  0
VERTEX
  8
0
  5
FF3
 10
160.666
 20
81.6645
 30
0.000000
  70
    32
  0
VERTEX
  8
0
  5
FF4
 10
160.636
 20
81.6609
 30
0.000000
  70
    32
  0
VERTEX
  8
0
  5
FF5
 10
160.607
 20
81.6578
 30
0.000000
  70
    32
  0
VERTEX
  8
0
  5
FF6
 10
160.577
 20
81.6554
 30
0.000000
  70
    32
  0
VERTEX
  8
0
  5
FF7
 10
160.548
 20
81.6534
 30
0.000000
  70
    32
  0
VERTEX
  8
0
  5
FF8
 10
160.518
 20
81.6520
 30
0.000000
  70
    32
  0
VERTEX
  8
0
  5
FF9
 10
160.488
 20
81.6512
 30
0.000000
  70
    32
  0
VERTEX
  8
0
  5
FFA
 10
160.458
 20
81.6509
 30
0.000000
  70
    32
  0
SEQEND
  8
0
  5
FFB
  0
LINE
  5
A95
  8
0
 10
161.67069192615901
 20
86.34319520435605
 30
0.0
 11
161.67069192615901
 21
86.343664173029936
 31
0.0
  0
POLYLINE
  5
A96
  8
0
 10
160.45756169507081
 20
87.001930197768232
 30
0.0
 66
     1
 70
     8
  0
VERTEX
  8
0
  5
FFC
 10
160.458
 20
87.0019
 30
0.000000
  70
    32
  0
VERTEX
  8
0
  5
FFD
 10
160.487
 20
87.0017
 30
0.000000
  70
    32
  0
VERTEX
  8
0
  5
FFE
 10
160.517
 20
87.0011
 30
0.000000
  70
    32
  0
VERTEX
  8
0
  5
FFF
 10
160.547
 20
87.0001
 30
0.000000
  70
    32
  0
VERTEX
  8
0
  5
1000
 10
160.576
 20
86.9988
 30
0.000000
  70
    32
  0
VERTEX
  8
0
  5
1001
 10
160.606
 20
86.9970
 30
0.000000
  70
    32
  0
VERTEX
  8
0
  5
1002
 10
160.636
 20
86.9948
 30
0.000000
  70
    32
  0
VERTEX
  8
0
  5
1003
 10
160.665
 20
86.9922
 30
0.000000
  70
    32
  0
VERTEX
  8
0
  5
1004
 10
160.694
 20
86.9893
 30
0.000000
  70
    32
  0
VERTEX
  8
0
  5
1005
 10
160.723
 20
86.9859
 30
0.000000
  70
    32
  0
VERTEX
  8
0
  5
1006
 10
160.752
 20
86.9822
 30
0.000000
  70
    32
  0
VERTEX
  8
0
  5
1007
 10
160.781
 20
86.9781
 30
0.000000
  70
    32
  0
VERTEX
  8
0
  5
1008
 10
160.810
 20
86.9736
 30
0.000000
  70
    32
  0
VERTEX
  8
0
  5
1009
 10
160.838
 20
86.9687
 30
0.000000
  70
    32
  0
VERTEX
  8
0
  5
100A
 10
160.866
 20
86.9634
 30
0.000000
  70
    32
  0
VERTEX
  8
0
  5
100B
 10
160.894
 20
86.9578
 30
0.000000
  70
    32
  0
VERTEX
  8
0
  5
100C
 10
160.922
 20
86.9518
 30
0.000000
  70
    32
  0
VERTEX
  8
0
  5
100D
 10
160.949
 20
86.9454
 30
0.000000
  70
    32
  0
VERTEX
  8
0
  5
100E
 10
160.976
 20
86.9387
 30
0.000000
  70
    32
  0
VERTEX
  8
0
  5
100F
 10
161.003
 20
86.9316
 30
0.000000
  70
    32
  0
VERTEX
  8
0
  5
1010
 10
161.029
 20
86.9242
 30
0.000000
  70
    32
  0
VERTEX
  8
0
  5
1011
 10
161.056
 20
86.9164
 30
0.000000
  70
    32
  0
VERTEX
  8
0
  5
1012
 10
161.081
 20
86.9082
 30
0.000000
  70
    32
  0
VERTEX
  8
0
  5
1013
 10
161.107
 20
86.8998
 30
0.000000
  70
    32
  0
VERTEX
  8
0
  5
1014
 10
161.132
 20
86.8910
 30
0.000000
  70
    32
  0
VERTEX
  8
0
  5
1015
 10
161.156
 20
86.8818
 30
0.000000
  70
    32
  0
VERTEX
  8
0
  5
1016
 10
161.180
 20
86.8723
 30
0.000000
  70
    32
  0
VERTEX
  8
0
  5
1017
 10
161.204
 20
86.8626
 30
0.000000
  70
    32
  0
VERTEX
  8
0
  5
1018
 10
161.227
 20
86.8525
 30
0.000000
  70
    32
  0
VERTEX
  8
0
  5
1019
 10
161.250
 20
86.8421
 30
0.000000
  70
    32
  0
VERTEX
  8
0
  5
101A
 10
161.272
 20
86.8313
 30
0.000000
  70
    32
  0
VERTEX
  8
0
  5
101B
 10
161.294
 20
86.8203
 30
0.000000
  70
    32
  0
VERTEX
  8
0
  5
101C
 10
161.315
 20
86.8091
 30
0.000000
  70
    32
  0
VERTEX
  8
0
  5
101D
 10
161.336
 20
86.7975
 30
0.000000
  70
    32
  0
VERTEX
  8
0
  5
101E
 10
161.356
 20
86.7857
 30
0.000000
  70
    32
  0
VERTEX
  8
0
  5
101F
 10
161.376
 20
86.7735
 30
0.000000
  70
    32
  0
VERTEX
  8
0
  5
1020
 10
161.395
 20
86.7612
 30
0.000000
  70
    32
  0
VERTEX
  8
0
  5
1021
 10
161.414
 20
86.7486
 30
0.000000
  70
    32
  0
VERTEX
  8
0
  5
1022
 10
161.432
 20
86.7357
 30
0.000000
  70
    32
  0
VERTEX
  8
0
  5
1023
 10
161.449
 20
86.7226
 30
0.000000
  70
    32
  0
VERTEX
  8
0
  5
1024
 10
161.466
 20
86.7093
 30
0.000000
  70
    32
  0
VERTEX
  8
0
  5
1025
 10
161.482
 20
86.6957
 30
0.000000
  70
    32
  0
VERTEX
  8
0
  5
1026
 10
161.498
 20
86.6820
 30
0.000000
  70
    32
  0
VERTEX
  8
0
  5
1027
 10
161.513
 20
86.6680
 30
0.000000
  70
    32
  0
VERTEX
  8
0
  5
1028
 10
161.527
 20
86.6538
 30
0.000000
  70
    32
  0
VERTEX
  8
0
  5
1029
 10
161.541
 20
86.6395
 30
0.000000
  70
    32
  0
VERTEX
  8
0
  5
102A
 10
161.554
 20
86.6250
 30
0.000000
  70
    32
  0
VERTEX
  8
0
  5
102B
 10
161.567
 20
86.6103
 30
0.000000
  70
    32
  0
VERTEX
  8
0
  5
102C
 10
161.578
 20
86.5954
 30
0.000000
  70
    32
  0
VERTEX
  8
0
  5
102D
 10
161.589
 20
86.5804
 30
0.000000
  70
    32
  0
VERTEX
  8
0
  5
102E
 10
161.600
 20
86.5653
 30
0.000000
  70
    32
  0
VERTEX
  8
0
  5
102F
 10
161.609
 20
86.5500
 30
0.000000
  70
    32
  0
VERTEX
  8
0
  5
1030
 10
161.618
 20
86.5346
 30
0.000000
  70
    32
  0
VERTEX
  8
0
  5
1031
 10
161.627
 20
86.5191
 30
0.000000
  70
    32
  0
VERTEX
  8
0
  5
1032
 10
161.634
 20
86.5034
 30
0.000000
  70
    32
  0
VERTEX
  8
0
  5
1033
 10
161.641
 20
86.4877
 30
0.000000
  70
    32
  0
VERTEX
  8
0
  5
1034
 10
161.647
 20
86.4719
 30
0.000000
  70
    32
  0
VERTEX
  8
0
  5
1035
 10
161.653
 20
86.4560
 30
0.000000
  70
    32
  0
VERTEX
  8
0
  5
1036
 10
161.658
 20
86.4401
 30
0.000000
  70
    32
  0
VERTEX
  8
0
  5
1037
 10
161.662
 20
86.4240
 30
0.000000
  70
    32
  0
VERTEX
  8
0
  5
1038
 10
161.665
 20
86.4080
 30
0.000000
  70
    32
  0
VERTEX
  8
0
  5
1039
 10
161.667
 20
86.3919
 30
0.000000
  70
    32
  0
VERTEX
  8
0
  5
103A
 10
161.669
 20
86.3757
 30
0.000000
  70
    32
  0
VERTEX
  8
0
  5
103B
 10
161.670
 20
86.3596
 30
0.000000
  70
    32
  0
VERTEX
  8
0
  5
103C
 10
161.671
 20
86.3434
 30
0.000000
  70
    32
  0
VERTEX
  8
0
  5
103D
 10
161.670
 20
86.3273
 30
0.000000
  70
    32
  0
VERTEX
  8
0
  5
103E
 10
161.669
 20
86.3111
 30
0.000000
  70
    32
  0
VERTEX
  8
0
  5
103F
 10
161.667
 20
86.2950
 30
0.000000
  70
    32
  0
VERTEX
  8
0
  5
1040
 10
161.665
 20
86.2789
 30
0.000000
  70
    32
  0
VERTEX
  8
0
  5
1041
 10
161.662
 20
86.2628
 30
0.000000
  70
    32
  0
VERTEX
  8
0
  5
1042
 10
161.658
 20
86.2468
 30
0.000000
  70
    32
  0
VERTEX
  8
0
  5
1043
 10
161.653
 20
86.2309
 30
0.000000
  70
    32
  0
VERTEX
  8
0
  5
1044
 10
161.647
 20
86.2150
 30
0.000000
  70
    32
  0
VERTEX
  8
0
  5
1045
 10
161.641
 20
86.1992
 30
0.000000
  70
    32
  0
VERTEX
  8
0
  5
1046
 10
161.634
 20
86.1834
 30
0.000000
  70
    32
  0
VERTEX
  8
0
  5
1047
 10
161.627
 20
86.1678
 30
0.000000
  70
    32
  0
VERTEX
  8
0
  5
1048
 10
161.618
 20
86.1523
 30
0.000000
  70
    32
  0
VERTEX
  8
0
  5
1049
 10
161.609
 20
86.1369
 30
0.000000
  70
    32
  0
VERTEX
  8
0
  5
104A
 10
161.600
 20
86.1216
 30
0.000000
  70
    32
  0
VERTEX
  8
0
  5
104B
 10
161.589
 20
86.1064
 30
0.000000
  70
    32
  0
VERTEX
  8
0
  5
104C
 10
161.578
 20
86.0914
 30
0.000000
  70
    32
  0
VERTEX
  8
0
  5
104D
 10
161.567
 20
86.0766
 30
0.000000
  70
    32
  0
VERTEX
  8
0
  5
104E
 10
161.554
 20
86.0619
 30
0.000000
  70
    32
  0
VERTEX
  8
0
  5
104F
 10
161.541
 20
86.0474
 30
0.000000
  70
    32
  0
VERTEX
  8
0
  5
1050
 10
161.527
 20
86.0330
 30
0.000000
  70
    32
  0
VERTEX
  8
0
  5
1051
 10
161.513
 20
86.0189
 30
0.000000
  70
    32
  0
VERTEX
  8
0
  5
1052
 10
161.498
 20
86.0049
 30
0.000000
  70
    32
  0
VERTEX
  8
0
  5
1053
 10
161.482
 20
85.9911
 30
0.000000
  70
    32
  0
VERTEX
  8
0
  5
1054
 10
161.466
 20
85.9776
 30
0.000000
  70
    32
  0
VERTEX
  8
0
  5
1055
 10
161.449
 20
85.9643
 30
0.000000
  70
    32
  0
VERTEX
  8
0
  5
1056
 10
161.432
 20
85.9512
 30
0.000000
  70
    32
  0
VERTEX
  8
0
  5
1057
 10
161.414
 20
85.9383
 30
0.000000
  70
    32
  0
VERTEX
  8
0
  5
1058
 10
161.395
 20
85.9257
 30
0.000000
  70
    32
  0
VERTEX
  8
0
  5
1059
 10
161.376
 20
85.9133
 30
0.000000
  70
    32
  0
VERTEX
  8
0
  5
105A
 10
161.356
 20
85.9012
 30
0.000000
  70
    32
  0
VERTEX
  8
0
  5
105B
 10
161.336
 20
85.8894
 30
0.000000
  70
    32
  0
VERTEX
  8
0
  5
105C
 10
161.315
 20
85.8778
 30
0.000000
  70
    32
  0
VERTEX
  8
0
  5
105D
 10
161.294
 20
85.8665
 30
0.000000
  70
    32
  0
VERTEX
  8
0
  5
105E
 10
161.272
 20
85.8555
 30
0.000000
  70
    32
  0
VERTEX
  8
0
  5
105F
 10
161.250
 20
85.8448
 30
0.000000
  70
    32
  0
VERTEX
  8
0
  5
1060
 10
161.227
 20
85.8344
 30
0.000000
  70
    32
  0
VERTEX
  8
0
  5
1061
 10
161.204
 20
85.8243
 30
0.000000
  70
    32
  0
VERTEX
  8
0
  5
1062
 10
161.180
 20
85.8145
 30
0.000000
  70
    32
  0
VERTEX
  8
0
  5
1063
 10
161.156
 20
85.8050
 30
0.000000
  70
    32
  0
VERTEX
  8
0
  5
1064
 10
161.132
 20
85.7959
 30
0.000000
  70
    32
  0
VERTEX
  8
0
  5
1065
 10
161.107
 20
85.7871
 30
0.000000
  70
    32
  0
VERTEX
  8
0
  5
1066
 10
161.081
 20
85.7786
 30
0.000000
  70
    32
  0
VERTEX
  8
0
  5
1067
 10
161.056
 20
85.7705
 30
0.000000
  70
    32
  0
VERTEX
  8
0
  5
1068
 10
161.029
 20
85.7627
 30
0.000000
  70
    32
  0
VERTEX
  8
0
  5
1069
 10
161.003
 20
85.7552
 30
0.000000
  70
    32
  0
VERTEX
  8
0
  5
106A
 10
160.976
 20
85.7482
 30
0.000000
  70
    32
  0
VERTEX
  8
0
  5
106B
 10
160.949
 20
85.7414
 30
0.000000
  70
    32
  0
VERTEX
  8
0
  5
106C
 10
160.922
 20
85.7351
 30
0.000000
  70
    32
  0
VERTEX
  8
0
  5
106D
 10
160.894
 20
85.7291
 30
0.000000
  70
    32
  0
VERTEX
  8
0
  5
106E
 10
160.866
 20
85.7234
 30
0.000000
  70
    32
  0
VERTEX
  8
0
  5
106F
 10
160.838
 20
85.7182
 30
0.000000
  70
    32
  0
VERTEX
  8
0
  5
1070
 10
160.810
 20
85.7133
 30
0.000000
  70
    32
  0
VERTEX
  8
0
  5
1071
 10
160.781
 20
85.7088
 30
0.000000
  70
    32
  0
VERTEX
  8
0
  5
1072
 10
160.752
 20
85.7047
 30
0.000000
  70
    32
  0
VERTEX
  8
0
  5
1073
 10
160.723
 20
85.7009
 30
0.000000
  70
    32
  0
VERTEX
  8
0
  5
1074
 10
160.694
 20
85.6976
 30
0.000000
  70
    32
  0
VERTEX
  8
0
  5
1075
 10
160.665
 20
85.6946
 30
0.000000
  70
    32
  0
VERTEX
  8
0
  5
1076
 10
160.636
 20
85.6921
 30
0.000000
  70
    32
  0
VERTEX
  8
0
  5
1077
 10
160.606
 20
85.6899
 30
0.000000
  70
    32
  0
VERTEX
  8
0
  5
1078
 10
160.576
 20
85.6881
 30
0.000000
  70
    32
  0
VERTEX
  8
0
  5
1079
 10
160.547
 20
85.6867
 30
0.000000
  70
    32
  0
VERTEX
  8
0
  5
107A
 10
160.517
 20
85.6857
 30
0.000000
  70
    32
  0
VERTEX
  8
0
  5
107B
 10
160.487
 20
85.6851
 30
0.000000
  70
    32
  0
VERTEX
  8
0
  5
107C
 10
160.458
 20
85.6849
 30
0.000000
  70
    32
  0
SEQEND
  8
0
  5
107D
  0
LINE
  5
A97
  8
0
 10
163.19387018685879
 20
88.319124178145259
 30
0.0
 11
162.19387018685879
 21
89.319124178145273
 31
0.0
1001
GENIUS_GENFIL_13
1070
     0
1040
1.0
1040
1.0
1040
20.0
1040
0.0
1002
{
1002
}
1001
GENIUS_GENODEF_13
1002
{
1000
HIER
1070
     0
1002
}
1002
{
1000
MANEDIT
1070
     0
1002
}
1002
{
1000
NOSEL
1070
     0
1002
}
1002
{
1000
BEHIND
1070
     0
1002
}
1002
{
1000
REACTOR
1002
}
1001
GENIUS_GENOBJ-N-CHA_13
1002
{
1000
OWNER
1000
GEN
1002
}
  0
LINE
  5
A98
  8
0
 10
161.69857325339771
 20
88.903881461448179
 30
0.0
 11
161.69857325339771
 21
88.904498865781235
 31
0.0
  0
POLYLINE
  5
A99
  8
0
 10
160.52521638029856
 20
89.230634904199135
 30
0.0
 66
     1
 70
     8
  0
VERTEX
  8
0
  5
107E
 10
160.525
 20
89.2306
 30
0.000000
  70
    32
  0
VERTEX
  8
0
  5
107F
 10
160.555
 20
89.2303
 30
0.000000
  70
    32
  0
VERTEX
  8
0
  5
1080
 10
160.584
 20
89.2297
 30
0.000000
  70
    32
  0
VERTEX
  8
0
  5
1081
 10
160.613
 20
89.2289
 30
0.000000
  70
    32
  0
VERTEX
  8
0
  5
1082
 10
160.643
 20
89.2279
 30
0.000000
  70
    32
  0
VERTEX
  8
0
  5
1083
 10
160.672
 20
89.2268
 30
0.000000
  70
    32
  0
VERTEX
  8
0
  5
1084
 10
160.701
 20
89.2254
 30
0.000000
  70
    32
  0
VERTEX
  8
0
  5
1085
 10
160.730
 20
89.2238
 30
0.000000
  70
    32
  0
VERTEX
  8
0
  5
1086
 10
160.759
 20
89.2220
 30
0.000000
  70
    32
  0
VERTEX
  8
0
  5
1087
 10
160.787
 20
89.2201
 30
0.000000
  70
    32
  0
VERTEX
  8
0
  5
1088
 10
160.816
 20
89.2179
 30
0.000000
  70
    32
  0
VERTEX
  8
0
  5
1089
 10
160.844
 20
89.2155
 30
0.000000
  70
    32
  0
VERTEX
  8
0
  5
108A
 10
160.872
 20
89.2130
 30
0.000000
  70
    32
  0
VERTEX
  8
0
  5
108B
 10
160.900
 20
89.2102
 30
0.000000
  70
    32
  0
VERTEX
  8
0
  5
108C
 10
160.927
 20
89.2073
 30
0.000000
  70
    32
  0
VERTEX
  8
0
  5
108D
 10
160.955
 20
89.2042
 30
0.000000
  70
    32
  0
VERTEX
  8
0
  5
108E
 10
160.982
 20
89.2009
 30
0.000000
  70
    32
  0
VERTEX
  8
0
  5
108F
 10
161.008
 20
89.1974
 30
0.000000
  70
    32
  0
VERTEX
  8
0
  5
1090
 10
161.035
 20
89.1937
 30
0.000000
  70
    32
  0
VERTEX
  8
0
  5
1091
 10
161.061
 20
89.1898
 30
0.000000
  70
    32
  0
VERTEX
  8
0
  5
1092
 10
161.087
 20
89.1858
 30
0.000000
  70
    32
  0
VERTEX
  8
0
  5
1093
 10
161.112
 20
89.1816
 30
0.000000
  70
    32
  0
VERTEX
  8
0
  5
1094
 10
161.137
 20
89.1772
 30
0.000000
  70
    32
  0
VERTEX
  8
0
  5
1095
 10
161.162
 20
89.1727
 30
0.000000
  70
    32
  0
VERTEX
  8
0
  5
1096
 10
161.186
 20
89.1679
 30
0.000000
  70
    32
  0
VERTEX
  8
0
  5
1097
 10
161.210
 20
89.1631
 30
0.000000
  70
    32
  0
VERTEX
  8
0
  5
1098
 10
161.233
 20
89.1580
 30
0.000000
  70
    32
  0
VERTEX
  8
0
  5
1099
 10
161.256
 20
89.1528
 30
0.000000
  70
    32
  0
VERTEX
  8
0
  5
109A
 10
161.279
 20
89.1474
 30
0.000000
  70
    32
  0
VERTEX
  8
0
  5
109B
 10
161.301
 20
89.1419
 30
0.000000
  70
    32
  0
VERTEX
  8
0
  5
109C
 10
161.323
 20
89.1363
 30
0.000000
  70
    32
  0
VERTEX
  8
0
  5
109D
 10
161.344
 20
89.1305
 30
0.000000
  70
    32
  0
VERTEX
  8
0
  5
109E
 10
161.364
 20
89.1245
 30
0.000000
  70
    32
  0
VERTEX
  8
0
  5
109F
 10
161.384
 20
89.1184
 30
0.000000
  70
    32
  0
VERTEX
  8
0
  5
10A0
 10
161.404
 20
89.1122
 30
0.000000
  70
    32
  0
VERTEX
  8
0
  5
10A1
 10
161.423
 20
89.1058
 30
0.000000
  70
    32
  0
VERTEX
  8
0
  5
10A2
 10
161.441
 20
89.0993
 30
0.000000
  70
    32
  0
VERTEX
  8
0
  5
10A3
 10
161.459
 20
89.0927
 30
0.000000
  70
    32
  0
VERTEX
  8
0
  5
10A4
 10
161.476
 20
89.0860
 30
0.000000
  70
    32
  0
VERTEX
  8
0
  5
10A5
 10
161.493
 20
89.0791
 30
0.000000
  70
    32
  0
VERTEX
  8
0
  5
10A6
 10
161.509
 20
89.0722
 30
0.000000
  70
    32
  0
VERTEX
  8
0
  5
10A7
 10
161.525
 20
89.0651
 30
0.000000
  70
    32
  0
VERTEX
  8
0
  5
10A8
 10
161.540
 20
89.0579
 30
0.000000
  70
    32
  0
VERTEX
  8
0
  5
10A9
 10
161.554
 20
89.0507
 30
0.000000
  70
    32
  0
VERTEX
  8
0
  5
10AA
 10
161.567
 20
89.0433
 30
0.000000
  70
    32
  0
VERTEX
  8
0
  5
10AB
 10
161.580
 20
89.0358
 30
0.000000
  70
    32
  0
VERTEX
  8
0
  5
10AC
 10
161.593
 20
89.0283
 30
0.000000
  70
    32
  0
VERTEX
  8
0
  5
10AD
 10
161.605
 20
89.0206
 30
0.000000
  70
    32
  0
VERTEX
  8
0
  5
10AE
 10
161.616
 20
89.0129
 30
0.000000
  70
    32
  0
VERTEX
  8
0
  5
10AF
 10
161.626
 20
89.0051
 30
0.000000
  70
    32
  0
VERTEX
  8
0
  5
10B0
 10
161.636
 20
88.9973
 30
0.000000
  70
    32
  0
VERTEX
  8
0
  5
10B1
 10
161.645
 20
88.9894
 30
0.000000
  70
    32
  0
VERTEX
  8
0
  5
10B2
 10
161.653
 20
88.9814
 30
0.000000
  70
    32
  0
VERTEX
  8
0
  5
10B3
 10
161.661
 20
88.9734
 30
0.000000
  70
    32
  0
VERTEX
  8
0
  5
10B4
 10
161.668
 20
88.9653
 30
0.000000
  70
    32
  0
VERTEX
  8
0
  5
10B5
 10
161.674
 20
88.9572
 30
0.000000
  70
    32
  0
VERTEX
  8
0
  5
10B6
 10
161.680
 20
88.9490
 30
0.000000
  70
    32
  0
VERTEX
  8
0
  5
10B7
 10
161.684
 20
88.9408
 30
0.000000
  70
    32
  0
VERTEX
  8
0
  5
10B8
 10
161.689
 20
88.9326
 30
0.000000
  70
    32
  0
VERTEX
  8
0
  5
10B9
 10
161.692
 20
88.9243
 30
0.000000
  70
    32
  0
VERTEX
  8
0
  5
10BA
 10
161.695
 20
88.9160
 30
0.000000
  70
    32
  0
VERTEX
  8
0
  5
10BB
 10
161.697
 20
88.9077
 30
0.000000
  70
    32
  0
VERTEX
  8
0
  5
10BC
 10
161.698
 20
88.8994
 30
0.000000
  70
    32
  0
VERTEX
  8
0
  5
10BD
 10
161.699
 20
88.8911
 30
0.000000
  70
    32
  0
VERTEX
  8
0
  5
10BE
 10
161.699
 20
88.8828
 30
0.000000
  70
    32
  0
VERTEX
  8
0
  5
10BF
 10
161.698
 20
88.8745
 30
0.000000
  70
    32
  0
VERTEX
  8
0
  5
10C0
 10
161.696
 20
88.8662
 30
0.000000
  70
    32
  0
VERTEX
  8
0
  5
10C1
 10
161.694
 20
88.8579
 30
0.000000
  70
    32
  0
VERTEX
  8
0
  5
10C2
 10
161.691
 20
88.8496
 30
0.000000
  70
    32
  0
VERTEX
  8
0
  5
10C3
 10
161.687
 20
88.8414
 30
0.000000
  70
    32
  0
VERTEX
  8
0
  5
10C4
 10
161.683
 20
88.8331
 30
0.000000
  70
    32
  0
VERTEX
  8
0
  5
10C5
 10
161.678
 20
88.8249
 30
0.000000
  70
    32
  0
VERTEX
  8
0
  5
10C6
 10
161.672
 20
88.8168
 30
0.000000
  70
    32
  0
VERTEX
  8
0
  5
10C7
 10
161.665
 20
88.8087
 30
0.000000
  70
    32
  0
VERTEX
  8
0
  5
10C8
 10
161.658
 20
88.8006
 30
0.000000
  70
    32
  0
VERTEX
  8
0
  5
10C9
 10
161.650
 20
88.7926
 30
0.000000
  70
    32
  0
VERTEX
  8
0
  5
10CA
 10
161.642
 20
88.7846
 30
0.000000
  70
    32
  0
VERTEX
  8
0
  5
10CB
 10
161.632
 20
88.7767
 30
0.000000
  70
    32
  0
VERTEX
  8
0
  5
10CC
 10
161.622
 20
88.7689
 30
0.000000
  70
    32
  0
VERTEX
  8
0
  5
10CD
 10
161.612
 20
88.7612
 30
0.000000
  70
    32
  0
VERTEX
  8
0
  5
10CE
 10
161.601
 20
88.7535
 30
0.000000
  70
    32
  0
VERTEX
  8
0
  5
10CF
 10
161.589
 20
88.7459
 30
0.000000
  70
    32
  0
VERTEX
  8
0
  5
10D0
 10
161.576
 20
88.7384
 30
0.000000
  70
    32
  0
VERTEX
  8
0
  5
10D1
 10
161.563
 20
88.7309
 30
0.000000
  70
    32
  0
VERTEX
  8
0
  5
10D2
 10
161.549
 20
88.7236
 30
0.000000
  70
    32
  0
VERTEX
  8
0
  5
10D3
 10
161.534
 20
88.7163
 30
0.000000
  70
    32
  0
VERTEX
  8
0
  5
10D4
 10
161.519
 20
88.7092
 30
0.000000
  70
    32
  0
VERTEX
  8
0
  5
10D5
 10
161.504
 20
88.7022
 30
0.000000
  70
    32
  0
VERTEX
  8
0
  5
10D6
 10
161.487
 20
88.6953
 30
0.000000
  70
    32
  0
VERTEX
  8
0
  5
10D7
 10
161.470
 20
88.6884
 30
0.000000
  70
    32
  0
VERTEX
  8
0
  5
10D8
 10
161.453
 20
88.6818
 30
0.000000
  70
    32
  0
VERTEX
  8
0
  5
10D9
 10
161.435
 20
88.6752
 30
0.000000
  70
    32
  0
VERTEX
  8
0
  5
10DA
 10
161.416
 20
88.6687
 30
0.000000
  70
    32
  0
VERTEX
  8
0
  5
10DB
 10
161.397
 20
88.6624
 30
0.000000
  70
    32
  0
VERTEX
  8
0
  5
10DC
 10
161.377
 20
88.6562
 30
0.000000
  70
    32
  0
VERTEX
  8
0
  5
10DD
 10
161.357
 20
88.6502
 30
0.000000
  70
    32
  0
VERTEX
  8
0
  5
10DE
 10
161.336
 20
88.6443
 30
0.000000
  70
    32
  0
VERTEX
  8
0
  5
10DF
 10
161.315
 20
88.6385
 30
0.000000
  70
    32
  0
VERTEX
  8
0
  5
10E0
 10
161.293
 20
88.6329
 30
0.000000
  70
    32
  0
VERTEX
  8
0
  5
10E1
 10
161.271
 20
88.6275
 30
0.000000
  70
    32
  0
VERTEX
  8
0
  5
10E2
 10
161.248
 20
88.6222
 30
0.000000
  70
    32
  0
VERTEX
  8
0
  5
10E3
 10
161.225
 20
88.6170
 30
0.000000
  70
    32
  0
VERTEX
  8
0
  5
10E4
 10
161.202
 20
88.6120
 30
0.000000
  70
    32
  0
VERTEX
  8
0
  5
10E5
 10
161.178
 20
88.6072
 30
0.000000
  70
    32
  0
VERTEX
  8
0
  5
10E6
 10
161.153
 20
88.6025
 30
0.000000
  70
    32
  0
VERTEX
  8
0
  5
10E7
 10
161.128
 20
88.5980
 30
0.000000
  70
    32
  0
VERTEX
  8
0
  5
10E8
 10
161.103
 20
88.5937
 30
0.000000
  70
    32
  0
VERTEX
  8
0
  5
10E9
 10
161.078
 20
88.5896
 30
0.000000
  70
    32
  0
VERTEX
  8
0
  5
10EA
 10
161.052
 20
88.5856
 30
0.000000
  70
    32
  0
VERTEX
  8
0
  5
10EB
 10
161.026
 20
88.5818
 30
0.000000
  70
    32
  0
VERTEX
  8
0
  5
10EC
 10
160.999
 20
88.5782
 30
0.000000
  70
    32
  0
VERTEX
  8
0
  5
10ED
 10
160.972
 20
88.5748
 30
0.000000
  70
    32
  0
VERTEX
  8
0
  5
10EE
 10
160.945
 20
88.5715
 30
0.000000
  70
    32
  0
VERTEX
  8
0
  5
10EF
 10
160.918
 20
88.5685
 30
0.000000
  70
    32
  0
VERTEX
  8
0
  5
10F0
 10
160.890
 20
88.5656
 30
0.000000
  70
    32
  0
VERTEX
  8
0
  5
10F1
 10
160.862
 20
88.5629
 30
0.000000
  70
    32
  0
VERTEX
  8
0
  5
10F2
 10
160.834
 20
88.5604
 30
0.000000
  70
    32
  0
VERTEX
  8
0
  5
10F3
 10
160.806
 20
88.5581
 30
0.000000
  70
    32
  0
VERTEX
  8
0
  5
10F4
 10
160.777
 20
88.5560
 30
0.000000
  70
    32
  0
VERTEX
  8
0
  5
10F5
 10
160.749
 20
88.5541
 30
0.000000
  70
    32
  0
VERTEX
  8
0
  5
10F6
 10
160.720
 20
88.5524
 30
0.000000
  70
    32
  0
VERTEX
  8
0
  5
10F7
 10
160.691
 20
88.5509
 30
0.000000
  70
    32
  0
VERTEX
  8
0
  5
10F8
 10
160.662
 20
88.5496
 30
0.000000
  70
    32
  0
VERTEX
  8
0
  5
10F9
 10
160.632
 20
88.5485
 30
0.000000
  70
    32
  0
VERTEX
  8
0
  5
10FA
 10
160.603
 20
88.5476
 30
0.000000
  70
    32
  0
VERTEX
  8
0
  5
10FB
 10
160.574
 20
88.5469
 30
0.000000
  70
    32
  0
VERTEX
  8
0
  5
10FC
 10
160.544
 20
88.5464
 30
0.000000
  70
    32
  0
VERTEX
  8
0
  5
10FD
 10
160.515
 20
88.5461
 30
0.000000
  70
    32
  0
VERTEX
  8
0
  5
10FE
 10
160.485
 20
88.5460
 30
0.000000
  70
    32
  0
SEQEND
  8
0
  5
10FF
  0
LINE
  5
A9A
  8
0
 10
150.77685902761991
 20
85.684929341638679
 30
0.0
 11
150.77685902761991
 21
83.491933244321615
 31
0.0
  0
ARC
  5
A9B
  8
0
 10
151.1290223429331
 20
77.727496180422975
 30
0.0
 40
1.1641633157064071
 50
107.6080229805555
 51
252.39197701943081
  0
ARC
  5
A9C
  8
0
 10
150.8888949499545
 20
82.571430262850484
 30
0.0
 40
0.9272959542617094
 50
96.939431023527305
 51
263.06056897654491
  0
LINE
  5
A9D
  8
0
 10
150.77685902761991
 20
81.650927281379325
 30
0.0
 11
150.77685902761951
 21
78.837116487097035
 31
0.0
  0
ARC
  5
A9E
  8
0
 10
152.67652838394821
 20
84.387242899130527
 30
0.0
 40
3.231924233102454
 50
125.99982372209919
 51
136.1317660576149
  0
ARC
  5
A9F
  8
0
 10
151.3861334574448
 20
83.988407131967676
 30
0.0
 40
1.8026100351283409
 50
109.7548078776714
 51
124.6939180805755
  0
ARC
  5
AA0
  8
0
 10
150.26745681229511
 20
85.760585208564578
 30
0.0
 40
0.3044999999695499
 50
185.57711212173629
 51
287.71321735499703
1001
GENIUS_GENODEF_13
1002
{
1000
HIER
1070
     0
1002
}
1002
{
1000
MANEDIT
1070
     0
1002
}
1002
{
1000
NOSEL
1070
     0
1002
}
1002
{
1000
BEHIND
1070
     0
1002
}
1002
{
1000
REACTOR
1002
}
1001
GENIUS_GENOBJ-N-FIL_13
1002
{
1000
OWNER
1000
GEN
1002
}
  0
ARC
  5
AA1
  8
0
 10
150.97459351972509
 20
85.829635385277186
 30
0.0
 40
1.0149999998984991
 50
128.22797129025031
 51
180.0
1001
GENIUS_GENODEF_13
1002
{
1000
HIER
1070
     0
1002
}
1002
{
1000
MANEDIT
1070
     0
1002
}
1002
{
1000
NOSEL
1070
     0
1002
}
1002
{
1000
BEHIND
1070
     0
1002
}
1002
{
1000
REACTOR
1002
}
1001
GENIUS_GENOBJ-N-FIL_13
1002
{
1000
OWNER
1000
GEN
1002
}
  0
LINE
  5
AA2
  8
0
 10
149.96439822339639
 20
85.730992275687356
 30
0.0
 11
149.9595935198264
 21
85.829635385277186
 31
0.0
  0
LINE
  5
AA3
  8
0
 10
150.6938702024901
 20
89.319124178145273
 30
0.0
 11
149.1938702024901
 21
87.819124178145273
 31
0.0
1001
GENIUS_GENFIL_13
1070
     0
1040
1.5
1040
1.5
1040
20.0
1040
0.0
1002
{
1002
}
1001
GENIUS_GENODEF_13
1002
{
1000
HIER
1070
     0
1002
}
1002
{
1000
MANEDIT
1070
     0
1002
}
1002
{
1000
NOSEL
1070
     0
1002
}
1002
{
1000
BEHIND
1070
     0
1002
}
1002
{
1000
REACTOR
1002
}
1001
GENIUS_GENOBJ-N-CHA_13
1002
{
1000
OWNER
1000
GEN
1002
}
  0
ARC
  5
AA4
  8
0
 10
151.14557880215111
 20
86.700572733466458
 30
0.0
 40
1.6964505739908811
 50
102.5533032395566
 51
124.2421754099238
  0
ARC
  5
AA5
  8
0
 10
150.86851701471809
 20
88.027802985974816
 30
0.0
 40
1.0149999998984991
 50
91.038560809579295
 51
95.181063751371042
1001
GENIUS_GENODEF_13
1002
{
1000
HIER
1070
     0
1002
}
1002
{
1000
MANEDIT
1070
     0
1002
}
1002
{
1000
NOSEL
1070
     0
1002
}
1002
{
1000
BEHIND
1070
     0
1002
}
1002
{
1000
REACTOR
1002
}
1001
GENIUS_GENOBJ-N-FIL_13
1002
{
1000
OWNER
1000
GEN
1002
}
  0
ARC
  5
AA6
  8
0
 10
151.93326396611391
 20
86.814106795106184
 30
0.0
 40
2.5071680320029488
 50
117.46711936526479
 51
140.27625467007721
  0
ARC
  5
AA7
  8
0
 10
150.15216386215781
 20
88.291870969773484
 30
0.0
 40
0.192849999980715
 50
139.7778736265154
 51
281.61754003648321
1001
GENIUS_GENODEF_13
1002
{
1000
HIER
1070
     0
1002
}
1002
{
1000
MANEDIT
1070
     0
1002
}
1002
{
1000
NOSEL
1070
     0
1002
}
1002
{
1000
BEHIND
1070
     0
1002
}
1002
{
1000
REACTOR
1002
}
1001
GENIUS_GENOBJ-N-FIL_13
1002
{
1000
OWNER
1000
GEN
1002
}
  0
LINE
  5
AA8
  8
0
 10
150.77685902762039
 20
88.356468345473502
 30
0.0
 11
150.77685902762039
 21
87.001930372828767
 31
0.0
  0
LINE
  5
AA9
  8
0
 10
150.6938702024901
 20
89.319124178145273
 30
0.0
 11
162.19387018685879
 21
89.319124178145273
 31
0.0
  0
LINE
  5
AAA
  8
0
 10
163.19387018685879
 20
50.31912417814528
 30
0.0
 11
162.19387018685879
 21
49.319124178145273
 31
0.0
1001
GENIUS_GENFIL_13
1070
     0
1040
1.0
1040
1.0
1040
20.0
1040
0.0
1002
{
1002
}
1001
GENIUS_GENODEF_13
1002
{
1000
HIER
1070
     0
1002
}
1002
{
1000
MANEDIT
1070
     0
1002
}
1002
{
1000
NOSEL
1070
     0
1002
}
1002
{
1000
BEHIND
1070
     0
1002
}
1002
{
1000
REACTOR
1002
}
1001
GENIUS_GENOBJ-N-CHA_13
1002
{
1000
OWNER
1000
GEN
1002
}
  0
LINE
  5
AAB
  8
0
 10
150.6938702024901
 20
49.319124178145273
 30
0.0
 11
162.19387018685879
 21
49.319124178145273
 31
0.0
  0
LINE
  5
AAC
  8
0
 10
150.6938702024901
 20
49.319124178145273
 30
0.0
 11
149.1938702024901
 21
50.819124178145273
 31
0.0
1001
GENIUS_GENFIL_13
1070
     0
1040
1.5
1040
1.5
1040
20.0
1040
0.0
1002
{
1002
}
1001
GENIUS_GENODEF_13
1002
{
1000
HIER
1070
     0
1002
}
1002
{
1000
MANEDIT
1070
     0
1002
}
1002
{
1000
NOSEL
1070
     0
1002
}
1002
{
1000
BEHIND
1070
     0
1002
}
1002
{
1000
REACTOR
1002
}
1001
GENIUS_GENOBJ-N-CHA_13
1002
{
1000
OWNER
1000
GEN
1002
}
  0
LINE
  5
AAD
  8
0
 10
163.1938701868589
 20
78.819124178145273
 30
0.0
 11
174.393870186859
 21
78.819124178145273
 31
0.0
  0
LINE
  5
AAE
  8
0
 10
163.1938701868589
 20
59.819124178145273
 30
0.0
 11
174.393870186859
 21
59.819124178145273
 31
0.0
  0
LINE
  5
AAF
  8
0
 10
174.393870186859
 20
59.819124178145273
 30
0.0
 11
175.893870186859
 21
61.319124178145273
 31
0.0
1001
GENIUS_GENFIL_13
1070
     0
1040
1.5
1040
1.5
1040
20.0
1040
0.0
1002
{
1002
}
1001
GENIUS_GENODEF_13
1002
{
1000
HIER
1070
     0
1002
}
1002
{
1000
MANEDIT
1070
     0
1002
}
1002
{
1000
NOSEL
1070
     0
1002
}
1002
{
1000
BEHIND
1070
     0
1002
}
1002
{
1000
REACTOR
1002
}
1001
GENIUS_GENOBJ-N-CHA_13
1002
{
1000
OWNER
1000
GEN
1002
}
  0
LINE
  5
AB0
  8
2
 10
176.1938701868591
 20
74.319124178145273
 30
0.0
 11
156.1938701868591
 21
74.319124178145273
 31
0.0
  0
LINE
  5
AB1
  8
2
 10
176.1938701868591
 20
73.507124178145361
 30
0.0
 11
156.1938701868591
 21
73.507124178145375
 31
0.0
  0
LINE
  5
AB2
  8
2
 10
176.1938701868591
 20
65.131124178145186
 30
0.0
 11
156.1938701868591
 21
65.131124178145171
 31
0.0
  0
LINE
  5
AB3
  8
2
 10
176.1938701868591
 20
64.319124178145273
 30
0.0
 11
156.1938701868591
 21
64.319124178145273
 31
0.0
  0
LINE
  5
AB4
  8
2
 10
154.47187019668439
 20
81.819124178145273
 30
0.0
 11
149.19387020248999
 21
86.569124178145273
 31
0.0
  0
LINE
  5
AB5
  8
2
 10
154.47187019668439
 20
56.819124178145273
 30
0.0
 11
149.19387020248999
 21
52.069124178145273
 31
0.0
  0
LINE
  5
AB6
  8
2
 10
154.47187019668439
 20
209.3191241781453
 30
0.0
 11
154.47187019668439
 21
196.8191241781453
 31
0.0
  0
LINE
  5
AB7
  8
0
 10
149.19387020248999
 20
227.81912417814519
 30
0.0
 11
149.1938702024901
 21
190.8191241781453
 31
0.0
  0
LINE
  5
AB8
  8
0
 10
163.1938701868593
 20
228.31912417814479
 30
0.0
 11
163.19387018685879
 21
190.31912417814519
 31
0.0
  0
LINE
  5
AB9
  8
0
 10
162.19387018685879
 20
189.3191241781453
 30
0.0
 11
162.19387018685879
 21
229.31912417814519
 31
0.0
  0
LINE
  5
ABA
  8
0
 10
150.77685902761991
 20
196.98732107491119
 30
0.0
 11
150.77685902761951
 21
199.80113186919351
 31
0.0
  0
LINE
  5
ABB
  8
0
 10
160.53536934021849
 20
189.40742920121389
 30
0.0
 11
150.8501198220041
 21
189.59561211155111
 31
0.0
  0
LINE
  5
ABC
  8
0
 10
160.50726485992351
 20
196.98732107491119
 30
0.0
 11
150.77685902761991
 21
196.98732107491119
 31
0.0
  0
LINE
  5
ABD
  8
0
 10
160.50726485992351
 20
192.95331901465181
 30
0.0
 11
150.77685902761809
 21
192.95331901465181
 31
0.0
  0
LINE
  5
ABE
  8
0
 10
160.50726485992351
 20
195.14631511196939
 30
0.0
 11
150.77685902761991
 21
195.1463151119689
 31
0.0
  0
LINE
  5
ABF
  8
0
 10
160.50726485992351
 20
191.63631798346171
 30
0.0
 11
150.77685902760859
 21
191.63631798346171
 31
0.0
  0
LINE
  5
AC0
  8
0
 10
160.69058139075059
 20
190.08945527824301
 30
0.0
 11
150.77685902762039
 21
190.28178001081699
 31
0.0
  0
LINE
  5
AC1
  8
0
 10
161.69857325339771
 20
189.73436689484231
 30
0.0
 11
161.69857325339771
 21
189.7337494905093
 31
0.0
  0
POLYLINE
  5
AC2
  8
0
 10
160.52521638029856
 20
189.4076134520914
 30
0.0
 66
     1
 70
     8
  0
VERTEX
  8
0
  5
1100
 10
160.525
 20
189.408
 30
0.000000
  70
    32
  0
VERTEX
  8
0
  5
1101
 10
160.555
 20
189.408
 30
0.000000
  70
    32
  0
VERTEX
  8
0
  5
1102
 10
160.584
 20
189.409
 30
0.000000
  70
    32
  0
VERTEX
  8
0
  5
1103
 10
160.613
 20
189.409
 30
0.000000
  70
    32
  0
VERTEX
  8
0
  5
1104
 10
160.643
 20
189.410
 30
0.000000
  70
    32
  0
VERTEX
  8
0
  5
1105
 10
160.672
 20
189.411
 30
0.000000
  70
    32
  0
VERTEX
  8
0
  5
1106
 10
160.701
 20
189.413
 30
0.000000
  70
    32
  0
VERTEX
  8
0
  5
1107
 10
160.730
 20
189.414
 30
0.000000
  70
    32
  0
VERTEX
  8
0
  5
1108
 10
160.759
 20
189.416
 30
0.000000
  70
    32
  0
VERTEX
  8
0
  5
1109
 10
160.787
 20
189.418
 30
0.000000
  70
    32
  0
VERTEX
  8
0
  5
110A
 10
160.816
 20
189.420
 30
0.000000
  70
    32
  0
VERTEX
  8
0
  5
110B
 10
160.844
 20
189.423
 30
0.000000
  70
    32
  0
VERTEX
  8
0
  5
110C
 10
160.872
 20
189.425
 30
0.000000
  70
    32
  0
VERTEX
  8
0
  5
110D
 10
160.900
 20
189.428
 30
0.000000
  70
    32
  0
VERTEX
  8
0
  5
110E
 10
160.927
 20
189.431
 30
0.000000
  70
    32
  0
VERTEX
  8
0
  5
110F
 10
160.955
 20
189.434
 30
0.000000
  70
    32
  0
VERTEX
  8
0
  5
1110
 10
160.982
 20
189.437
 30
0.000000
  70
    32
  0
VERTEX
  8
0
  5
1111
 10
161.008
 20
189.441
 30
0.000000
  70
    32
  0
VERTEX
  8
0
  5
1112
 10
161.035
 20
189.445
 30
0.000000
  70
    32
  0
VERTEX
  8
0
  5
1113
 10
161.061
 20
189.448
 30
0.000000
  70
    32
  0
VERTEX
  8
0
  5
1114
 10
161.087
 20
189.452
 30
0.000000
  70
    32
  0
VERTEX
  8
0
  5
1115
 10
161.112
 20
189.457
 30
0.000000
  70
    32
  0
VERTEX
  8
0
  5
1116
 10
161.137
 20
189.461
 30
0.000000
  70
    32
  0
VERTEX
  8
0
  5
1117
 10
161.162
 20
189.466
 30
0.000000
  70
    32
  0
VERTEX
  8
0
  5
1118
 10
161.186
 20
189.470
 30
0.000000
  70
    32
  0
VERTEX
  8
0
  5
1119
 10
161.210
 20
189.475
 30
0.000000
  70
    32
  0
VERTEX
  8
0
  5
111A
 10
161.233
 20
189.480
 30
0.000000
  70
    32
  0
VERTEX
  8
0
  5
111B
 10
161.256
 20
189.485
 30
0.000000
  70
    32
  0
VERTEX
  8
0
  5
111C
 10
161.279
 20
189.491
 30
0.000000
  70
    32
  0
VERTEX
  8
0
  5
111D
 10
161.301
 20
189.496
 30
0.000000
  70
    32
  0
VERTEX
  8
0
  5
111E
 10
161.323
 20
189.502
 30
0.000000
  70
    32
  0
VERTEX
  8
0
  5
111F
 10
161.344
 20
189.508
 30
0.000000
  70
    32
  0
VERTEX
  8
0
  5
1120
 10
161.364
 20
189.514
 30
0.000000
  70
    32
  0
VERTEX
  8
0
  5
1121
 10
161.384
 20
189.520
 30
0.000000
  70
    32
  0
VERTEX
  8
0
  5
1122
 10
161.404
 20
189.526
 30
0.000000
  70
    32
  0
VERTEX
  8
0
  5
1123
 10
161.423
 20
189.532
 30
0.000000
  70
    32
  0
VERTEX
  8
0
  5
1124
 10
161.441
 20
189.539
 30
0.000000
  70
    32
  0
VERTEX
  8
0
  5
1125
 10
161.459
 20
189.546
 30
0.000000
  70
    32
  0
VERTEX
  8
0
  5
1126
 10
161.476
 20
189.552
 30
0.000000
  70
    32
  0
VERTEX
  8
0
  5
1127
 10
161.493
 20
189.559
 30
0.000000
  70
    32
  0
VERTEX
  8
0
  5
1128
 10
161.509
 20
189.566
 30
0.000000
  70
    32
  0
VERTEX
  8
0
  5
1129
 10
161.525
 20
189.573
 30
0.000000
  70
    32
  0
VERTEX
  8
0
  5
112A
 10
161.540
 20
189.580
 30
0.000000
  70
    32
  0
VERTEX
  8
0
  5
112B
 10
161.554
 20
189.588
 30
0.000000
  70
    32
  0
VERTEX
  8
0
  5
112C
 10
161.567
 20
189.595
 30
0.000000
  70
    32
  0
VERTEX
  8
0
  5
112D
 10
161.580
 20
189.602
 30
0.000000
  70
    32
  0
VERTEX
  8
0
  5
112E
 10
161.593
 20
189.610
 30
0.000000
  70
    32
  0
VERTEX
  8
0
  5
112F
 10
161.605
 20
189.618
 30
0.000000
  70
    32
  0
VERTEX
  8
0
  5
1130
 10
161.616
 20
189.625
 30
0.000000
  70
    32
  0
VERTEX
  8
0
  5
1131
 10
161.626
 20
189.633
 30
0.000000
  70
    32
  0
VERTEX
  8
0
  5
1132
 10
161.636
 20
189.641
 30
0.000000
  70
    32
  0
VERTEX
  8
0
  5
1133
 10
161.645
 20
189.649
 30
0.000000
  70
    32
  0
VERTEX
  8
0
  5
1134
 10
161.653
 20
189.657
 30
0.000000
  70
    32
  0
VERTEX
  8
0
  5
1135
 10
161.661
 20
189.665
 30
0.000000
  70
    32
  0
VERTEX
  8
0
  5
1136
 10
161.668
 20
189.673
 30
0.000000
  70
    32
  0
VERTEX
  8
0
  5
1137
 10
161.674
 20
189.681
 30
0.000000
  70
    32
  0
VERTEX
  8
0
  5
1138
 10
161.680
 20
189.689
 30
0.000000
  70
    32
  0
VERTEX
  8
0
  5
1139
 10
161.684
 20
189.697
 30
0.000000
  70
    32
  0
VERTEX
  8
0
  5
113A
 10
161.689
 20
189.706
 30
0.000000
  70
    32
  0
VERTEX
  8
0
  5
113B
 10
161.692
 20
189.714
 30
0.000000
  70
    32
  0
VERTEX
  8
0
  5
113C
 10
161.695
 20
189.722
 30
0.000000
  70
    32
  0
VERTEX
  8
0
  5
113D
 10
161.697
 20
189.731
 30
0.000000
  70
    32
  0
VERTEX
  8
0
  5
113E
 10
161.698
 20
189.739
 30
0.000000
  70
    32
  0
VERTEX
  8
0
  5
113F
 10
161.699
 20
189.747
 30
0.000000
  70
    32
  0
VERTEX
  8
0
  5
1140
 10
161.699
 20
189.755
 30
0.000000
  70
    32
  0
VERTEX
  8
0
  5
1141
 10
161.698
 20
189.764
 30
0.000000
  70
    32
  0
VERTEX
  8
0
  5
1142
 10
161.696
 20
189.772
 30
0.000000
  70
    32
  0
VERTEX
  8
0
  5
1143
 10
161.694
 20
189.780
 30
0.000000
  70
    32
  0
VERTEX
  8
0
  5
1144
 10
161.691
 20
189.789
 30
0.000000
  70
    32
  0
VERTEX
  8
0
  5
1145
 10
161.687
 20
189.797
 30
0.000000
  70
    32
  0
VERTEX
  8
0
  5
1146
 10
161.683
 20
189.805
 30
0.000000
  70
    32
  0
VERTEX
  8
0
  5
1147
 10
161.678
 20
189.813
 30
0.000000
  70
    32
  0
VERTEX
  8
0
  5
1148
 10
161.672
 20
189.821
 30
0.000000
  70
    32
  0
VERTEX
  8
0
  5
1149
 10
161.665
 20
189.830
 30
0.000000
  70
    32
  0
VERTEX
  8
0
  5
114A
 10
161.658
 20
189.838
 30
0.000000
  70
    32
  0
VERTEX
  8
0
  5
114B
 10
161.650
 20
189.846
 30
0.000000
  70
    32
  0
VERTEX
  8
0
  5
114C
 10
161.642
 20
189.854
 30
0.000000
  70
    32
  0
VERTEX
  8
0
  5
114D
 10
161.632
 20
189.861
 30
0.000000
  70
    32
  0
VERTEX
  8
0
  5
114E
 10
161.622
 20
189.869
 30
0.000000
  70
    32
  0
VERTEX
  8
0
  5
114F
 10
161.612
 20
189.877
 30
0.000000
  70
    32
  0
VERTEX
  8
0
  5
1150
 10
161.601
 20
189.885
 30
0.000000
  70
    32
  0
VERTEX
  8
0
  5
1151
 10
161.589
 20
189.892
 30
0.000000
  70
    32
  0
VERTEX
  8
0
  5
1152
 10
161.576
 20
189.900
 30
0.000000
  70
    32
  0
VERTEX
  8
0
  5
1153
 10
161.563
 20
189.907
 30
0.000000
  70
    32
  0
VERTEX
  8
0
  5
1154
 10
161.549
 20
189.915
 30
0.000000
  70
    32
  0
VERTEX
  8
0
  5
1155
 10
161.534
 20
189.922
 30
0.000000
  70
    32
  0
VERTEX
  8
0
  5
1156
 10
161.519
 20
189.929
 30
0.000000
  70
    32
  0
VERTEX
  8
0
  5
1157
 10
161.504
 20
189.936
 30
0.000000
  70
    32
  0
VERTEX
  8
0
  5
1158
 10
161.487
 20
189.943
 30
0.000000
  70
    32
  0
VERTEX
  8
0
  5
1159
 10
161.470
 20
189.950
 30
0.000000
  70
    32
  0
VERTEX
  8
0
  5
115A
 10
161.453
 20
189.956
 30
0.000000
  70
    32
  0
VERTEX
  8
0
  5
115B
 10
161.435
 20
189.963
 30
0.000000
  70
    32
  0
VERTEX
  8
0
  5
115C
 10
161.416
 20
189.970
 30
0.000000
  70
    32
  0
VERTEX
  8
0
  5
115D
 10
161.397
 20
189.976
 30
0.000000
  70
    32
  0
VERTEX
  8
0
  5
115E
 10
161.377
 20
189.982
 30
0.000000
  70
    32
  0
VERTEX
  8
0
  5
115F
 10
161.357
 20
189.988
 30
0.000000
  70
    32
  0
VERTEX
  8
0
  5
1160
 10
161.336
 20
189.994
 30
0.000000
  70
    32
  0
VERTEX
  8
0
  5
1161
 10
161.315
 20
190.000
 30
0.000000
  70
    32
  0
VERTEX
  8
0
  5
1162
 10
161.293
 20
190.005
 30
0.000000
  70
    32
  0
VERTEX
  8
0
  5
1163
 10
161.271
 20
190.011
 30
0.000000
  70
    32
  0
VERTEX
  8
0
  5
1164
 10
161.248
 20
190.016
 30
0.000000
  70
    32
  0
VERTEX
  8
0
  5
1165
 10
161.225
 20
190.021
 30
0.000000
  70
    32
  0
VERTEX
  8
0
  5
1166
 10
161.202
 20
190.026
 30
0.000000
  70
    32
  0
VERTEX
  8
0
  5
1167
 10
161.178
 20
190.031
 30
0.000000
  70
    32
  0
VERTEX
  8
0
  5
1168
 10
161.153
 20
190.036
 30
0.000000
  70
    32
  0
VERTEX
  8
0
  5
1169
 10
161.128
 20
190.040
 30
0.000000
  70
    32
  0
VERTEX
  8
0
  5
116A
 10
161.103
 20
190.045
 30
0.000000
  70
    32
  0
VERTEX
  8
0
  5
116B
 10
161.078
 20
190.049
 30
0.000000
  70
    32
  0
VERTEX
  8
0
  5
116C
 10
161.052
 20
190.053
 30
0.000000
  70
    32
  0
VERTEX
  8
0
  5
116D
 10
161.026
 20
190.056
 30
0.000000
  70
    32
  0
VERTEX
  8
0
  5
116E
 10
160.999
 20
190.060
 30
0.000000
  70
    32
  0
VERTEX
  8
0
  5
116F
 10
160.972
 20
190.063
 30
0.000000
  70
    32
  0
VERTEX
  8
0
  5
1170
 10
160.945
 20
190.067
 30
0.000000
  70
    32
  0
VERTEX
  8
0
  5
1171
 10
160.918
 20
190.070
 30
0.000000
  70
    32
  0
VERTEX
  8
0
  5
1172
 10
160.890
 20
190.073
 30
0.000000
  70
    32
  0
VERTEX
  8
0
  5
1173
 10
160.862
 20
190.075
 30
0.000000
  70
    32
  0
VERTEX
  8
0
  5
1174
 10
160.834
 20
190.078
 30
0.000000
  70
    32
  0
VERTEX
  8
0
  5
1175
 10
160.806
 20
190.080
 30
0.000000
  70
    32
  0
VERTEX
  8
0
  5
1176
 10
160.777
 20
190.082
 30
0.000000
  70
    32
  0
VERTEX
  8
0
  5
1177
 10
160.749
 20
190.084
 30
0.000000
  70
    32
  0
VERTEX
  8
0
  5
1178
 10
160.720
 20
190.086
 30
0.000000
  70
    32
  0
VERTEX
  8
0
  5
1179
 10
160.691
 20
190.087
 30
0.000000
  70
    32
  0
VERTEX
  8
0
  5
117A
 10
160.662
 20
190.089
 30
0.000000
  70
    32
  0
VERTEX
  8
0
  5
117B
 10
160.632
 20
190.090
 30
0.000000
  70
    32
  0
VERTEX
  8
0
  5
117C
 10
160.603
 20
190.091
 30
0.000000
  70
    32
  0
VERTEX
  8
0
  5
117D
 10
160.574
 20
190.091
 30
0.000000
  70
    32
  0
VERTEX
  8
0
  5
117E
 10
160.544
 20
190.092
 30
0.000000
  70
    32
  0
VERTEX
  8
0
  5
117F
 10
160.515
 20
190.092
 30
0.000000
  70
    32
  0
VERTEX
  8
0
  5
1180
 10
160.485
 20
190.092
 30
0.000000
  70
    32
  0
SEQEND
  8
0
  5
1181
  0
LINE
  5
AC3
  8
0
 10
161.67069192615901
 20
192.2950531519345
 30
0.0
 11
161.67069192615901
 21
192.29458418326061
 31
0.0
  0
POLYLINE
  5
AC4
  8
0
 10
160.45844572447299
 20
195.14631525228091
 30
0.0
 66
     1
 70
     8
  0
VERTEX
  8
0
  5
1182
 10
160.458
 20
195.146
 30
0.000000
  70
    32
  0
VERTEX
  8
0
  5
1183
 10
160.488
 20
195.147
 30
0.000000
  70
    32
  0
VERTEX
  8
0
  5
1184
 10
160.518
 20
195.147
 30
0.000000
  70
    32
  0
VERTEX
  8
0
  5
1185
 10
160.548
 20
195.149
 30
0.000000
  70
    32
  0
VERTEX
  8
0
  5
1186
 10
160.577
 20
195.151
 30
0.000000
  70
    32
  0
VERTEX
  8
0
  5
1187
 10
160.607
 20
195.153
 30
0.000000
  70
    32
  0
VERTEX
  8
0
  5
1188
 10
160.636
 20
195.156
 30
0.000000
  70
    32
  0
VERTEX
  8
0
  5
1189
 10
160.666
 20
195.160
 30
0.000000
  70
    32
  0
VERTEX
  8
0
  5
118A
 10
160.695
 20
195.164
 30
0.000000
  70
    32
  0
VERTEX
  8
0
  5
118B
 10
160.724
 20
195.169
 30
0.000000
  70
    32
  0
VERTEX
  8
0
  5
118C
 10
160.753
 20
195.174
 30
0.000000
  70
    32
  0
VERTEX
  8
0
  5
118D
 10
160.782
 20
195.180
 30
0.000000
  70
    32
  0
VERTEX
  8
0
  5
118E
 10
160.811
 20
195.186
 30
0.000000
  70
    32
  0
VERTEX
  8
0
  5
118F
 10
160.839
 20
195.193
 30
0.000000
  70
    32
  0
VERTEX
  8
0
  5
1190
 10
160.867
 20
195.200
 30
0.000000
  70
    32
  0
VERTEX
  8
0
  5
1191
 10
160.895
 20
195.208
 30
0.000000
  70
    32
  0
VERTEX
  8
0
  5
1192
 10
160.923
 20
195.216
 30
0.000000
  70
    32
  0
VERTEX
  8
0
  5
1193
 10
160.950
 20
195.225
 30
0.000000
  70
    32
  0
VERTEX
  8
0
  5
1194
 10
160.977
 20
195.235
 30
0.000000
  70
    32
  0
VERTEX
  8
0
  5
1195
 10
161.004
 20
195.245
 30
0.000000
  70
    32
  0
VERTEX
  8
0
  5
1196
 10
161.030
 20
195.255
 30
0.000000
  70
    32
  0
VERTEX
  8
0
  5
1197
 10
161.056
 20
195.266
 30
0.000000
  70
    32
  0
VERTEX
  8
0
  5
1198
 10
161.082
 20
195.277
 30
0.000000
  70
    32
  0
VERTEX
  8
0
  5
1199
 10
161.107
 20
195.289
 30
0.000000
  70
    32
  0
VERTEX
  8
0
  5
119A
 10
161.132
 20
195.301
 30
0.000000
  70
    32
  0
VERTEX
  8
0
  5
119B
 10
161.157
 20
195.314
 30
0.000000
  70
    32
  0
VERTEX
  8
0
  5
119C
 10
161.181
 20
195.327
 30
0.000000
  70
    32
  0
VERTEX
  8
0
  5
119D
 10
161.205
 20
195.341
 30
0.000000
  70
    32
  0
VERTEX
  8
0
  5
119E
 10
161.228
 20
195.355
 30
0.000000
  70
    32
  0
VERTEX
  8
0
  5
119F
 10
161.251
 20
195.370
 30
0.000000
  70
    32
  0
VERTEX
  8
0
  5
11A0
 10
161.273
 20
195.385
 30
0.000000
  70
    32
  0
VERTEX
  8
0
  5
11A1
 10
161.295
 20
195.400
 30
0.000000
  70
    32
  0
VERTEX
  8
0
  5
11A2
 10
161.316
 20
195.416
 30
0.000000
  70
    32
  0
VERTEX
  8
0
  5
11A3
 10
161.337
 20
195.432
 30
0.000000
  70
    32
  0
VERTEX
  8
0
  5
11A4
 10
161.357
 20
195.449
 30
0.000000
  70
    32
  0
VERTEX
  8
0
  5
11A5
 10
161.377
 20
195.466
 30
0.000000
  70
    32
  0
VERTEX
  8
0
  5
11A6
 10
161.396
 20
195.483
 30
0.000000
  70
    32
  0
VERTEX
  8
0
  5
11A7
 10
161.415
 20
195.500
 30
0.000000
  70
    32
  0
VERTEX
  8
0
  5
11A8
 10
161.433
 20
195.518
 30
0.000000
  70
    32
  0
VERTEX
  8
0
  5
11A9
 10
161.450
 20
195.537
 30
0.000000
  70
    32
  0
VERTEX
  8
0
  5
11AA
 10
161.467
 20
195.555
 30
0.000000
  70
    32
  0
VERTEX
  8
0
  5
11AB
 10
161.483
 20
195.574
 30
0.000000
  70
    32
  0
VERTEX
  8
0
  5
11AC
 10
161.499
 20
195.594
 30
0.000000
  70
    32
  0
VERTEX
  8
0
  5
11AD
 10
161.514
 20
195.613
 30
0.000000
  70
    32
  0
VERTEX
  8
0
  5
11AE
 10
161.528
 20
195.633
 30
0.000000
  70
    32
  0
VERTEX
  8
0
  5
11AF
 10
161.542
 20
195.653
 30
0.000000
  70
    32
  0
VERTEX
  8
0
  5
11B0
 10
161.555
 20
195.673
 30
0.000000
  70
    32
  0
VERTEX
  8
0
  5
11B1
 10
161.568
 20
195.694
 30
0.000000
  70
    32
  0
VERTEX
  8
0
  5
11B2
 10
161.579
 20
195.715
 30
0.000000
  70
    32
  0
VERTEX
  8
0
  5
11B3
 10
161.590
 20
195.736
 30
0.000000
  70
    32
  0
VERTEX
  8
0
  5
11B4
 10
161.601
 20
195.757
 30
0.000000
  70
    32
  0
VERTEX
  8
0
  5
11B5
 10
161.610
 20
195.778
 30
0.000000
  70
    32
  0
VERTEX
  8
0
  5
11B6
 10
161.619
 20
195.800
 30
0.000000
  70
    32
  0
VERTEX
  8
0
  5
11B7
 10
161.628
 20
195.821
 30
0.000000
  70
    32
  0
VERTEX
  8
0
  5
11B8
 10
161.635
 20
195.843
 30
0.000000
  70
    32
  0
VERTEX
  8
0
  5
11B9
 10
161.642
 20
195.865
 30
0.000000
  70
    32
  0
VERTEX
  8
0
  5
11BA
 10
161.648
 20
195.887
 30
0.000000
  70
    32
  0
VERTEX
  8
0
  5
11BB
 10
161.654
 20
195.909
 30
0.000000
  70
    32
  0
VERTEX
  8
0
  5
11BC
 10
161.658
 20
195.932
 30
0.000000
  70
    32
  0
VERTEX
  8
0
  5
11BD
 10
161.662
 20
195.954
 30
0.000000
  70
    32
  0
VERTEX
  8
0
  5
11BE
 10
161.666
 20
195.977
 30
0.000000
  70
    32
  0
VERTEX
  8
0
  5
11BF
 10
161.668
 20
195.999
 30
0.000000
  70
    32
  0
VERTEX
  8
0
  5
11C0
 10
161.670
 20
196.022
 30
0.000000
  70
    32
  0
VERTEX
  8
0
  5
11C1
 10
161.671
 20
196.044
 30
0.000000
  70
    32
  0
VERTEX
  8
0
  5
11C2
 10
161.672
 20
196.067
 30
0.000000
  70
    32
  0
VERTEX
  8
0
  5
11C3
 10
161.671
 20
196.089
 30
0.000000
  70
    32
  0
VERTEX
  8
0
  5
11C4
 10
161.670
 20
196.112
 30
0.000000
  70
    32
  0
VERTEX
  8
0
  5
11C5
 10
161.668
 20
196.135
 30
0.000000
  70
    32
  0
VERTEX
  8
0
  5
11C6
 10
161.666
 20
196.157
 30
0.000000
  70
    32
  0
VERTEX
  8
0
  5
11C7
 10
161.662
 20
196.179
 30
0.000000
  70
    32
  0
VERTEX
  8
0
  5
11C8
 10
161.658
 20
196.202
 30
0.000000
  70
    32
  0
VERTEX
  8
0
  5
11C9
 10
161.654
 20
196.224
 30
0.000000
  70
    32
  0
VERTEX
  8
0
  5
11CA
 10
161.648
 20
196.246
 30
0.000000
  70
    32
  0
VERTEX
  8
0
  5
11CB
 10
161.642
 20
196.269
 30
0.000000
  70
    32
  0
VERTEX
  8
0
  5
11CC
 10
161.635
 20
196.290
 30
0.000000
  70
    32
  0
VERTEX
  8
0
  5
11CD
 10
161.628
 20
196.312
 30
0.000000
  70
    32
  0
VERTEX
  8
0
  5
11CE
 10
161.619
 20
196.334
 30
0.000000
  70
    32
  0
VERTEX
  8
0
  5
11CF
 10
161.610
 20
196.356
 30
0.000000
  70
    32
  0
VERTEX
  8
0
  5
11D0
 10
161.601
 20
196.377
 30
0.000000
  70
    32
  0
VERTEX
  8
0
  5
11D1
 10
161.590
 20
196.398
 30
0.000000
  70
    32
  0
VERTEX
  8
0
  5
11D2
 10
161.579
 20
196.419
 30
0.000000
  70
    32
  0
VERTEX
  8
0
  5
11D3
 10
161.568
 20
196.440
 30
0.000000
  70
    32
  0
VERTEX
  8
0
  5
11D4
 10
161.555
 20
196.460
 30
0.000000
  70
    32
  0
VERTEX
  8
0
  5
11D5
 10
161.542
 20
196.481
 30
0.000000
  70
    32
  0
VERTEX
  8
0
  5
11D6
 10
161.528
 20
196.501
 30
0.000000
  70
    32
  0
VERTEX
  8
0
  5
11D7
 10
161.514
 20
196.521
 30
0.000000
  70
    32
  0
VERTEX
  8
0
  5
11D8
 10
161.499
 20
196.540
 30
0.000000
  70
    32
  0
VERTEX
  8
0
  5
11D9
 10
161.483
 20
196.559
 30
0.000000
  70
    32
  0
VERTEX
  8
0
  5
11DA
 10
161.467
 20
196.578
 30
0.000000
  70
    32
  0
VERTEX
  8
0
  5
11DB
 10
161.450
 20
196.597
 30
0.000000
  70
    32
  0
VERTEX
  8
0
  5
11DC
 10
161.433
 20
196.615
 30
0.000000
  70
    32
  0
VERTEX
  8
0
  5
11DD
 10
161.415
 20
196.633
 30
0.000000
  70
    32
  0
VERTEX
  8
0
  5
11DE
 10
161.396
 20
196.651
 30
0.000000
  70
    32
  0
VERTEX
  8
0
  5
11DF
 10
161.377
 20
196.668
 30
0.000000
  70
    32
  0
VERTEX
  8
0
  5
11E0
 10
161.357
 20
196.685
 30
0.000000
  70
    32
  0
VERTEX
  8
0
  5
11E1
 10
161.337
 20
196.702
 30
0.000000
  70
    32
  0
VERTEX
  8
0
  5
11E2
 10
161.316
 20
196.718
 30
0.000000
  70
    32
  0
VERTEX
  8
0
  5
11E3
 10
161.295
 20
196.733
 30
0.000000
  70
    32
  0
VERTEX
  8
0
  5
11E4
 10
161.273
 20
196.749
 30
0.000000
  70
    32
  0
VERTEX
  8
0
  5
11E5
 10
161.251
 20
196.764
 30
0.000000
  70
    32
  0
VERTEX
  8
0
  5
11E6
 10
161.228
 20
196.778
 30
0.000000
  70
    32
  0
VERTEX
  8
0
  5
11E7
 10
161.205
 20
196.792
 30
0.000000
  70
    32
  0
VERTEX
  8
0
  5
11E8
 10
161.181
 20
196.806
 30
0.000000
  70
    32
  0
VERTEX
  8
0
  5
11E9
 10
161.157
 20
196.819
 30
0.000000
  70
    32
  0
VERTEX
  8
0
  5
11EA
 10
161.132
 20
196.832
 30
0.000000
  70
    32
  0
VERTEX
  8
0
  5
11EB
 10
161.107
 20
196.845
 30
0.000000
  70
    32
  0
VERTEX
  8
0
  5
11EC
 10
161.082
 20
196.856
 30
0.000000
  70
    32
  0
VERTEX
  8
0
  5
11ED
 10
161.056
 20
196.868
 30
0.000000
  70
    32
  0
VERTEX
  8
0
  5
11EE
 10
161.030
 20
196.879
 30
0.000000
  70
    32
  0
VERTEX
  8
0
  5
11EF
 10
161.004
 20
196.889
 30
0.000000
  70
    32
  0
VERTEX
  8
0
  5
11F0
 10
160.977
 20
196.899
 30
0.000000
  70
    32
  0
VERTEX
  8
0
  5
11F1
 10
160.950
 20
196.908
 30
0.000000
  70
    32
  0
VERTEX
  8
0
  5
11F2
 10
160.923
 20
196.917
 30
0.000000
  70
    32
  0
VERTEX
  8
0
  5
11F3
 10
160.895
 20
196.926
 30
0.000000
  70
    32
  0
VERTEX
  8
0
  5
11F4
 10
160.867
 20
196.934
 30
0.000000
  70
    32
  0
VERTEX
  8
0
  5
11F5
 10
160.839
 20
196.941
 30
0.000000
  70
    32
  0
VERTEX
  8
0
  5
11F6
 10
160.811
 20
196.948
 30
0.000000
  70
    32
  0
VERTEX
  8
0
  5
11F7
 10
160.782
 20
196.954
 30
0.000000
  70
    32
  0
VERTEX
  8
0
  5
11F8
 10
160.753
 20
196.960
 30
0.000000
  70
    32
  0
VERTEX
  8
0
  5
11F9
 10
160.724
 20
196.965
 30
0.000000
  70
    32
  0
VERTEX
  8
0
  5
11FA
 10
160.695
 20
196.970
 30
0.000000
  70
    32
  0
VERTEX
  8
0
  5
11FB
 10
160.666
 20
196.974
 30
0.000000
  70
    32
  0
VERTEX
  8
0
  5
11FC
 10
160.636
 20
196.977
 30
0.000000
  70
    32
  0
VERTEX
  8
0
  5
11FD
 10
160.607
 20
196.980
 30
0.000000
  70
    32
  0
VERTEX
  8
0
  5
11FE
 10
160.577
 20
196.983
 30
0.000000
  70
    32
  0
VERTEX
  8
0
  5
11FF
 10
160.548
 20
196.985
 30
0.000000
  70
    32
  0
VERTEX
  8
0
  5
1200
 10
160.518
 20
196.986
 30
0.000000
  70
    32
  0
VERTEX
  8
0
  5
1201
 10
160.488
 20
196.987
 30
0.000000
  70
    32
  0
VERTEX
  8
0
  5
1202
 10
160.458
 20
196.987
 30
0.000000
  70
    32
  0
SEQEND
  8
0
  5
1203
  0
LINE
  5
AC5
  8
0
 10
161.7203951030215
 20
196.06692011187729
 30
0.0
 11
161.7203951030215
 21
196.06671607500371
 31
0.0
  0
POLYLINE
  5
AC6
  8
0
 10
160.45756169507081
 20
191.6363181585223
 30
0.0
 66
     1
 70
     8
  0
VERTEX
  8
0
  5
1204
 10
160.458
 20
191.636
 30
0.000000
  70
    32
  0
VERTEX
  8
0
  5
1205
 10
160.487
 20
191.637
 30
0.000000
  70
    32
  0
VERTEX
  8
0
  5
1206
 10
160.517
 20
191.637
 30
0.000000
  70
    32
  0
VERTEX
  8
0
  5
1207
 10
160.547
 20
191.638
 30
0.000000
  70
    32
  0
VERTEX
  8
0
  5
1208
 10
160.576
 20
191.639
 30
0.000000
  70
    32
  0
VERTEX
  8
0
  5
1209
 10
160.606
 20
191.641
 30
0.000000
  70
    32
  0
VERTEX
  8
0
  5
120A
 10
160.636
 20
191.643
 30
0.000000
  70
    32
  0
VERTEX
  8
0
  5
120B
 10
160.665
 20
191.646
 30
0.000000
  70
    32
  0
VERTEX
  8
0
  5
120C
 10
160.694
 20
191.649
 30
0.000000
  70
    32
  0
VERTEX
  8
0
  5
120D
 10
160.723
 20
191.652
 30
0.000000
  70
    32
  0
VERTEX
  8
0
  5
120E
 10
160.752
 20
191.656
 30
0.000000
  70
    32
  0
VERTEX
  8
0
  5
120F
 10
160.781
 20
191.660
 30
0.000000
  70
    32
  0
VERTEX
  8
0
  5
1210
 10
160.810
 20
191.665
 30
0.000000
  70
    32
  0
VERTEX
  8
0
  5
1211
 10
160.838
 20
191.670
 30
0.000000
  70
    32
  0
VERTEX
  8
0
  5
1212
 10
160.866
 20
191.675
 30
0.000000
  70
    32
  0
VERTEX
  8
0
  5
1213
 10
160.894
 20
191.680
 30
0.000000
  70
    32
  0
VERTEX
  8
0
  5
1214
 10
160.922
 20
191.686
 30
0.000000
  70
    32
  0
VERTEX
  8
0
  5
1215
 10
160.949
 20
191.693
 30
0.000000
  70
    32
  0
VERTEX
  8
0
  5
1216
 10
160.976
 20
191.700
 30
0.000000
  70
    32
  0
VERTEX
  8
0
  5
1217
 10
161.003
 20
191.707
 30
0.000000
  70
    32
  0
VERTEX
  8
0
  5
1218
 10
161.029
 20
191.714
 30
0.000000
  70
    32
  0
VERTEX
  8
0
  5
1219
 10
161.056
 20
191.722
 30
0.000000
  70
    32
  0
VERTEX
  8
0
  5
121A
 10
161.081
 20
191.730
 30
0.000000
  70
    32
  0
VERTEX
  8
0
  5
121B
 10
161.107
 20
191.738
 30
0.000000
  70
    32
  0
VERTEX
  8
0
  5
121C
 10
161.132
 20
191.747
 30
0.000000
  70
    32
  0
VERTEX
  8
0
  5
121D
 10
161.156
 20
191.756
 30
0.000000
  70
    32
  0
VERTEX
  8
0
  5
121E
 10
161.180
 20
191.766
 30
0.000000
  70
    32
  0
VERTEX
  8
0
  5
121F
 10
161.204
 20
191.776
 30
0.000000
  70
    32
  0
VERTEX
  8
0
  5
1220
 10
161.227
 20
191.786
 30
0.000000
  70
    32
  0
VERTEX
  8
0
  5
1221
 10
161.250
 20
191.796
 30
0.000000
  70
    32
  0
VERTEX
  8
0
  5
1222
 10
161.272
 20
191.807
 30
0.000000
  70
    32
  0
VERTEX
  8
0
  5
1223
 10
161.294
 20
191.818
 30
0.000000
  70
    32
  0
VERTEX
  8
0
  5
1224
 10
161.315
 20
191.829
 30
0.000000
  70
    32
  0
VERTEX
  8
0
  5
1225
 10
161.336
 20
191.841
 30
0.000000
  70
    32
  0
VERTEX
  8
0
  5
1226
 10
161.356
 20
191.853
 30
0.000000
  70
    32
  0
VERTEX
  8
0
  5
1227
 10
161.376
 20
191.865
 30
0.000000
  70
    32
  0
VERTEX
  8
0
  5
1228
 10
161.395
 20
191.877
 30
0.000000
  70
    32
  0
VERTEX
  8
0
  5
1229
 10
161.414
 20
191.890
 30
0.000000
  70
    32
  0
VERTEX
  8
0
  5
122A
 10
161.432
 20
191.903
 30
0.000000
  70
    32
  0
VERTEX
  8
0
  5
122B
 10
161.449
 20
191.916
 30
0.000000
  70
    32
  0
VERTEX
  8
0
  5
122C
 10
161.466
 20
191.929
 30
0.000000
  70
    32
  0
VERTEX
  8
0
  5
122D
 10
161.482
 20
191.943
 30
0.000000
  70
    32
  0
VERTEX
  8
0
  5
122E
 10
161.498
 20
191.956
 30
0.000000
  70
    32
  0
VERTEX
  8
0
  5
122F
 10
161.513
 20
191.970
 30
0.000000
  70
    32
  0
VERTEX
  8
0
  5
1230
 10
161.527
 20
191.984
 30
0.000000
  70
    32
  0
VERTEX
  8
0
  5
1231
 10
161.541
 20
191.999
 30
0.000000
  70
    32
  0
VERTEX
  8
0
  5
1232
 10
161.554
 20
192.013
 30
0.000000
  70
    32
  0
VERTEX
  8
0
  5
1233
 10
161.567
 20
192.028
 30
0.000000
  70
    32
  0
VERTEX
  8
0
  5
1234
 10
161.578
 20
192.043
 30
0.000000
  70
    32
  0
VERTEX
  8
0
  5
1235
 10
161.589
 20
192.058
 30
0.000000
  70
    32
  0
VERTEX
  8
0
  5
1236
 10
161.600
 20
192.073
 30
0.000000
  70
    32
  0
VERTEX
  8
0
  5
1237
 10
161.609
 20
192.088
 30
0.000000
  70
    32
  0
VERTEX
  8
0
  5
1238
 10
161.618
 20
192.104
 30
0.000000
  70
    32
  0
VERTEX
  8
0
  5
1239
 10
161.627
 20
192.119
 30
0.000000
  70
    32
  0
VERTEX
  8
0
  5
123A
 10
161.634
 20
192.135
 30
0.000000
  70
    32
  0
VERTEX
  8
0
  5
123B
 10
161.641
 20
192.151
 30
0.000000
  70
    32
  0
VERTEX
  8
0
  5
123C
 10
161.647
 20
192.166
 30
0.000000
  70
    32
  0
VERTEX
  8
0
  5
123D
 10
161.653
 20
192.182
 30
0.000000
  70
    32
  0
VERTEX
  8
0
  5
123E
 10
161.658
 20
192.198
 30
0.000000
  70
    32
  0
VERTEX
  8
0
  5
123F
 10
161.662
 20
192.214
 30
0.000000
  70
    32
  0
VERTEX
  8
0
  5
1240
 10
161.665
 20
192.230
 30
0.000000
  70
    32
  0
VERTEX
  8
0
  5
1241
 10
161.667
 20
192.246
 30
0.000000
  70
    32
  0
VERTEX
  8
0
  5
1242
 10
161.669
 20
192.263
 30
0.000000
  70
    32
  0
VERTEX
  8
0
  5
1243
 10
161.670
 20
192.279
 30
0.000000
  70
    32
  0
VERTEX
  8
0
  5
1244
 10
161.671
 20
192.295
 30
0.000000
  70
    32
  0
VERTEX
  8
0
  5
1245
 10
161.670
 20
192.311
 30
0.000000
  70
    32
  0
VERTEX
  8
0
  5
1246
 10
161.669
 20
192.327
 30
0.000000
  70
    32
  0
VERTEX
  8
0
  5
1247
 10
161.667
 20
192.343
 30
0.000000
  70
    32
  0
VERTEX
  8
0
  5
1248
 10
161.665
 20
192.359
 30
0.000000
  70
    32
  0
VERTEX
  8
0
  5
1249
 10
161.662
 20
192.375
 30
0.000000
  70
    32
  0
VERTEX
  8
0
  5
124A
 10
161.658
 20
192.391
 30
0.000000
  70
    32
  0
VERTEX
  8
0
  5
124B
 10
161.653
 20
192.407
 30
0.000000
  70
    32
  0
VERTEX
  8
0
  5
124C
 10
161.647
 20
192.423
 30
0.000000
  70
    32
  0
VERTEX
  8
0
  5
124D
 10
161.641
 20
192.439
 30
0.000000
  70
    32
  0
VERTEX
  8
0
  5
124E
 10
161.634
 20
192.455
 30
0.000000
  70
    32
  0
VERTEX
  8
0
  5
124F
 10
161.627
 20
192.470
 30
0.000000
  70
    32
  0
VERTEX
  8
0
  5
1250
 10
161.618
 20
192.486
 30
0.000000
  70
    32
  0
VERTEX
  8
0
  5
1251
 10
161.609
 20
192.501
 30
0.000000
  70
    32
  0
VERTEX
  8
0
  5
1252
 10
161.600
 20
192.517
 30
0.000000
  70
    32
  0
VERTEX
  8
0
  5
1253
 10
161.589
 20
192.532
 30
0.000000
  70
    32
  0
VERTEX
  8
0
  5
1254
 10
161.578
 20
192.547
 30
0.000000
  70
    32
  0
VERTEX
  8
0
  5
1255
 10
161.567
 20
192.562
 30
0.000000
  70
    32
  0
VERTEX
  8
0
  5
1256
 10
161.554
 20
192.576
 30
0.000000
  70
    32
  0
VERTEX
  8
0
  5
1257
 10
161.541
 20
192.591
 30
0.000000
  70
    32
  0
VERTEX
  8
0
  5
1258
 10
161.527
 20
192.605
 30
0.000000
  70
    32
  0
VERTEX
  8
0
  5
1259
 10
161.513
 20
192.619
 30
0.000000
  70
    32
  0
VERTEX
  8
0
  5
125A
 10
161.498
 20
192.633
 30
0.000000
  70
    32
  0
VERTEX
  8
0
  5
125B
 10
161.482
 20
192.647
 30
0.000000
  70
    32
  0
VERTEX
  8
0
  5
125C
 10
161.466
 20
192.661
 30
0.000000
  70
    32
  0
VERTEX
  8
0
  5
125D
 10
161.449
 20
192.674
 30
0.000000
  70
    32
  0
VERTEX
  8
0
  5
125E
 10
161.432
 20
192.687
 30
0.000000
  70
    32
  0
VERTEX
  8
0
  5
125F
 10
161.414
 20
192.700
 30
0.000000
  70
    32
  0
VERTEX
  8
0
  5
1260
 10
161.395
 20
192.713
 30
0.000000
  70
    32
  0
VERTEX
  8
0
  5
1261
 10
161.376
 20
192.725
 30
0.000000
  70
    32
  0
VERTEX
  8
0
  5
1262
 10
161.356
 20
192.737
 30
0.000000
  70
    32
  0
VERTEX
  8
0
  5
1263
 10
161.336
 20
192.749
 30
0.000000
  70
    32
  0
VERTEX
  8
0
  5
1264
 10
161.315
 20
192.760
 30
0.000000
  70
    32
  0
VERTEX
  8
0
  5
1265
 10
161.294
 20
192.772
 30
0.000000
  70
    32
  0
VERTEX
  8
0
  5
1266
 10
161.272
 20
192.783
 30
0.000000
  70
    32
  0
VERTEX
  8
0
  5
1267
 10
161.250
 20
192.793
 30
0.000000
  70
    32
  0
VERTEX
  8
0
  5
1268
 10
161.227
 20
192.804
 30
0.000000
  70
    32
  0
VERTEX
  8
0
  5
1269
 10
161.204
 20
192.814
 30
0.000000
  70
    32
  0
VERTEX
  8
0
  5
126A
 10
161.180
 20
192.824
 30
0.000000
  70
    32
  0
VERTEX
  8
0
  5
126B
 10
161.156
 20
192.833
 30
0.000000
  70
    32
  0
VERTEX
  8
0
  5
126C
 10
161.132
 20
192.842
 30
0.000000
  70
    32
  0
VERTEX
  8
0
  5
126D
 10
161.107
 20
192.851
 30
0.000000
  70
    32
  0
VERTEX
  8
0
  5
126E
 10
161.081
 20
192.860
 30
0.000000
  70
    32
  0
VERTEX
  8
0
  5
126F
 10
161.056
 20
192.868
 30
0.000000
  70
    32
  0
VERTEX
  8
0
  5
1270
 10
161.029
 20
192.876
 30
0.000000
  70
    32
  0
VERTEX
  8
0
  5
1271
 10
161.003
 20
192.883
 30
0.000000
  70
    32
  0
VERTEX
  8
0
  5
1272
 10
160.976
 20
192.890
 30
0.000000
  70
    32
  0
VERTEX
  8
0
  5
1273
 10
160.949
 20
192.897
 30
0.000000
  70
    32
  0
VERTEX
  8
0
  5
1274
 10
160.922
 20
192.903
 30
0.000000
  70
    32
  0
VERTEX
  8
0
  5
1275
 10
160.894
 20
192.909
 30
0.000000
  70
    32
  0
VERTEX
  8
0
  5
1276
 10
160.866
 20
192.915
 30
0.000000
  70
    32
  0
VERTEX
  8
0
  5
1277
 10
160.838
 20
192.920
 30
0.000000
  70
    32
  0
VERTEX
  8
0
  5
1278
 10
160.810
 20
192.925
 30
0.000000
  70
    32
  0
VERTEX
  8
0
  5
1279
 10
160.781
 20
192.929
 30
0.000000
  70
    32
  0
VERTEX
  8
0
  5
127A
 10
160.752
 20
192.934
 30
0.000000
  70
    32
  0
VERTEX
  8
0
  5
127B
 10
160.723
 20
192.937
 30
0.000000
  70
    32
  0
VERTEX
  8
0
  5
127C
 10
160.694
 20
192.941
 30
0.000000
  70
    32
  0
VERTEX
  8
0
  5
127D
 10
160.665
 20
192.944
 30
0.000000
  70
    32
  0
VERTEX
  8
0
  5
127E
 10
160.636
 20
192.946
 30
0.000000
  70
    32
  0
VERTEX
  8
0
  5
127F
 10
160.606
 20
192.948
 30
0.000000
  70
    32
  0
VERTEX
  8
0
  5
1280
 10
160.576
 20
192.950
 30
0.000000
  70
    32
  0
VERTEX
  8
0
  5
1281
 10
160.547
 20
192.952
 30
0.000000
  70
    32
  0
VERTEX
  8
0
  5
1282
 10
160.517
 20
192.953
 30
0.000000
  70
    32
  0
VERTEX
  8
0
  5
1283
 10
160.487
 20
192.953
 30
0.000000
  70
    32
  0
VERTEX
  8
0
  5
1284
 10
160.458
 20
192.953
 30
0.000000
  70
    32
  0
SEQEND
  8
0
  5
1285
  0
LINE
  5
AC7
  8
0
 10
150.77685902762039
 20
190.28178001081699
 30
0.0
 11
150.77685902762039
 21
191.63631798346171
 31
0.0
  0
ARC
  5
AC8
  8
0
 10
150.15216386215781
 20
190.3463773865171
 30
0.0
 40
0.192849999980715
 50
78.382459963516823
 51
220.22212637348451
1001
GENIUS_GENODEF_13
1002
{
1000
HIER
1070
     0
1002
}
1002
{
1000
MANEDIT
1070
     0
1002
}
1002
{
1000
NOSEL
1070
     0
1002
}
1002
{
1000
BEHIND
1070
     0
1002
}
1002
{
1000
REACTOR
1002
}
1001
GENIUS_GENOBJ-N-FIL_13
1002
{
1000
OWNER
1000
GEN
1002
}
  0
ARC
  5
AC9
  8
0
 10
151.93326396611391
 20
191.82414156118429
 30
0.0
 40
2.5071680320029488
 50
219.72374532992279
 51
242.53288063473511
  0
ARC
  5
ACA
  8
0
 10
150.86851701471809
 20
190.61044537031569
 30
0.0
 40
1.0149999998984991
 50
264.81893624862897
 51
268.96143919042072
1001
GENIUS_GENODEF_13
1002
{
1000
HIER
1070
     0
1002
}
1002
{
1000
MANEDIT
1070
     0
1002
}
1002
{
1000
NOSEL
1070
     0
1002
}
1002
{
1000
BEHIND
1070
     0
1002
}
1002
{
1000
REACTOR
1002
}
1001
GENIUS_GENOBJ-N-FIL_13
1002
{
1000
OWNER
1000
GEN
1002
}
  0
ARC
  5
ACB
  8
0
 10
151.14557880215111
 20
191.93767562282409
 30
0.0
 40
1.6964505739908811
 50
235.75782459007621
 51
257.44669676044327
  0
LINE
  5
ACC
  8
0
 10
149.96439822339639
 20
192.90725608060319
 30
0.0
 11
149.9595935198264
 21
192.8086129710133
 31
0.0
  0
ARC
  5
ACD
  8
0
 10
150.97459351972509
 20
192.8086129710133
 30
0.0
 40
1.0149999998984991
 50
180.0
 51
231.77202870974961
1001
GENIUS_GENODEF_13
1002
{
1000
HIER
1070
     0
1002
}
1002
{
1000
MANEDIT
1070
     0
1002
}
1002
{
1000
NOSEL
1070
     0
1002
}
1002
{
1000
BEHIND
1070
     0
1002
}
1002
{
1000
REACTOR
1002
}
1001
GENIUS_GENOBJ-N-FIL_13
1002
{
1000
OWNER
1000
GEN
1002
}
  0
LINE
  5
ACE
  8
0
 10
150.77685902761991
 20
192.95331901465181
 30
0.0
 11
150.77685902761991
 21
195.1463151119689
 31
0.0
  0
ARC
  5
ACF
  8
0
 10
150.26745681229511
 20
192.87766314772591
 30
0.0
 40
0.3044999999695499
 50
72.286782645002987
 51
174.42288787826371
1001
GENIUS_GENODEF_13
1002
{
1000
HIER
1070
     0
1002
}
1002
{
1000
MANEDIT
1070
     0
1002
}
1002
{
1000
NOSEL
1070
     0
1002
}
1002
{
1000
BEHIND
1070
     0
1002
}
1002
{
1000
REACTOR
1002
}
1001
GENIUS_GENOBJ-N-FIL_13
1002
{
1000
OWNER
1000
GEN
1002
}
  0
ARC
  5
AD0
  8
0
 10
151.3861334574448
 20
194.64984122432281
 30
0.0
 40
1.8026100351283409
 50
235.30608191942451
 51
250.24519212232849
  0
ARC
  5
AD1
  8
0
 10
150.8888949499545
 20
196.06681809344011
 30
0.0
 40
0.9272959542617094
 50
96.939431023455086
 51
263.06056897647272
  0
ARC
  5
AD2
  8
0
 10
152.67652838394821
 20
194.25100545716001
 30
0.0
 40
3.231924233102454
 50
223.8682339423851
 51
234.00017627790081
  0
LINE
  5
AD3
  8
1
 10
144.19387020248999
 20
209.3191241781453
 30
0.0
 11
181.1938701868591
 21
209.3191241781453
 31
0.0
  0
LINE
  5
AD4
  8
2
 10
175.89387018685909
 20
202.3191241781453
 30
0.0
 11
154.47187019668431
 21
202.3191241781453
 31
0.0
  0
LINE
  5
AD5
  8
2
 10
175.893870186859
 20
216.3191241781453
 30
0.0
 11
154.47187019668431
 21
216.31912417814519
 31
0.0
  0
LINE
  5
AD6
  8
0
 10
176.1938701868591
 20
202.3191241781453
 30
0.0
 11
176.1938701868591
 21
216.3191241781453
 31
0.0
  0
LINE
  5
AD7
  8
0
 10
175.8938701868592
 20
201.31912417814539
 30
0.0
 11
175.893870186859
 21
217.3191241781453
 31
0.0
  0
LINE
  5
AD8
  8
0
 10
174.393870186859
 20
218.8191241781453
 30
0.0
 11
174.393870186859
 21
209.3191241781453
 31
0.0
  0
LINE
  5
AD9
  8
0
 10
176.1938701868591
 20
202.3191241781453
 30
0.0
 11
175.893870186859
 21
202.3191241781453
 31
0.0
  0
LINE
  5
ADA
  8
0
 10
174.393870186859
 20
199.81912417814519
 30
0.0
 11
174.393870186859
 21
209.3191241781453
 31
0.0
  0
LINE
  5
ADB
  8
0
 10
176.1938701868591
 20
216.3191241781453
 30
0.0
 11
175.893870186859
 21
216.3191241781453
 31
0.0
  0
LINE
  5
ADC
  8
0
 10
174.393870186859
 20
218.8191241781453
 30
0.0
 11
175.893870186859
 21
217.3191241781453
 31
0.0
1001
GENIUS_GENFIL_13
1070
     0
1040
1.5
1040
1.5
1040
20.0
1040
0.0
1002
{
1002
}
1001
GENIUS_GENODEF_13
1002
{
1000
HIER
1070
     0
1002
}
1002
{
1000
MANEDIT
1070
     0
1002
}
1002
{
1000
NOSEL
1070
     0
1002
}
1002
{
1000
BEHIND
1070
     0
1002
}
1002
{
1000
REACTOR
1002
}
1001
GENIUS_GENOBJ-N-CHA_13
1002
{
1000
OWNER
1000
GEN
1002
}
  0
LINE
  5
ADD
  8
2
 10
156.1938701868591
 20
216.31912417814539
 30
0.0
 11
156.1938701868591
 21
202.31912417814539
 31
0.0
  0
LINE
  5
ADE
  8
0
 10
150.776859027619
 20
216.6178758737494
 30
0.0
 11
150.77685902761851
 21
213.40472804327069
 31
0.0
  0
LINE
  5
ADF
  8
2
 10
154.47187019668439
 20
209.3191241781453
 30
0.0
 11
154.47187019668439
 21
221.8191241781453
 31
0.0
  0
LINE
  5
AE0
  8
0
 10
160.50726485992391
 20
210.99352301108979
 30
0.0
 11
150.77685902761851
 21
210.99352301108979
 31
0.0
  0
LINE
  5
AE1
  8
0
 10
160.50726485992351
 20
213.40472804327069
 30
0.0
 11
150.77685902761851
 21
213.40472804327069
 31
0.0
  0
LINE
  5
AE2
  8
0
 10
160.50726485992391
 20
207.64472534520081
 30
0.0
 11
150.77685902761851
 21
207.64472534520081
 31
0.0
  0
LINE
  5
AE3
  8
0
 10
160.50726485992351
 20
202.02037248254121
 30
0.0
 11
150.776859027619
 21
202.02037248254121
 31
0.0
  0
LINE
  5
AE4
  8
0
 10
160.50726485992351
 20
205.2335203130198
 30
0.0
 11
150.77685902761851
 21
205.2335203130198
 31
0.0
  0
LINE
  5
AE5
  8
0
 10
160.50726485992391
 20
199.80198693581369
 30
0.0
 11
150.77685902761951
 21
199.801131869193
 31
0.0
  0
ARC
  5
AE6
  8
0
 10
160.45088999097661
 20
206.42672537395759
 30
0.0
 40
1.217999987819999
 50
0.0
 51
90.0
1001
GENIUS_GENODEF_13
1002
{
1000
HIER
1070
     0
1002
}
1002
{
1000
MANEDIT
1070
     0
1002
}
1002
{
1000
NOSEL
1070
     0
1002
}
1002
{
1000
BEHIND
1070
     0
1002
}
1002
{
1000
REACTOR
1002
}
1001
GENIUS_GENOBJ-N-FIL_13
1002
{
1000
OWNER
1000
GEN
1002
}
  0
ARC
  5
AE7
  8
0
 10
160.45088999097609
 20
206.4515203412879
 30
0.0
 40
1.217999987819999
 50
270.0
 51
0.0
1001
GENIUS_GENODEF_13
1002
{
1000
HIER
1070
     0
1002
}
1002
{
1000
MANEDIT
1070
     0
1002
}
1002
{
1000
NOSEL
1070
     0
1002
}
1002
{
1000
BEHIND
1070
     0
1002
}
1002
{
1000
REACTOR
1002
}
1001
GENIUS_GENOBJ-N-FIL_13
1002
{
1000
OWNER
1000
GEN
1002
}
  0
POLYLINE
  5
AE8
  8
0
 10
160.4602938895016
 20
199.80198703003356
 30
0.0
 66
     1
 70
     8
  0
VERTEX
  8
0
  5
1286
 10
160.460
 20
199.802
 30
0.000000
  70
    32
  0
VERTEX
  8
0
  5
1287
 10
160.490
 20
199.802
 30
0.000000
  70
    32
  0
VERTEX
  8
0
  5
1288
 10
160.520
 20
199.803
 30
0.000000
  70
    32
  0
VERTEX
  8
0
  5
1289
 10
160.550
 20
199.805
 30
0.000000
  70
    32
  0
VERTEX
  8
0
  5
128A
 10
160.579
 20
199.807
 30
0.000000
  70
    32
  0
VERTEX
  8
0
  5
128B
 10
160.609
 20
199.810
 30
0.000000
  70
    32
  0
VERTEX
  8
0
  5
128C
 10
160.638
 20
199.814
 30
0.000000
  70
    32
  0
VERTEX
  8
0
  5
128D
 10
160.668
 20
199.818
 30
0.000000
  70
    32
  0
VERTEX
  8
0
  5
128E
 10
160.697
 20
199.823
 30
0.000000
  70
    32
  0
VERTEX
  8
0
  5
128F
 10
160.726
 20
199.829
 30
0.000000
  70
    32
  0
VERTEX
  8
0
  5
1290
 10
160.755
 20
199.835
 30
0.000000
  70
    32
  0
VERTEX
  8
0
  5
1291
 10
160.784
 20
199.842
 30
0.000000
  70
    32
  0
VERTEX
  8
0
  5
1292
 10
160.812
 20
199.850
 30
0.000000
  70
    32
  0
VERTEX
  8
0
  5
1293
 10
160.841
 20
199.858
 30
0.000000
  70
    32
  0
VERTEX
  8
0
  5
1294
 10
160.869
 20
199.867
 30
0.000000
  70
    32
  0
VERTEX
  8
0
  5
1295
 10
160.897
 20
199.876
 30
0.000000
  70
    32
  0
VERTEX
  8
0
  5
1296
 10
160.925
 20
199.886
 30
0.000000
  70
    32
  0
VERTEX
  8
0
  5
1297
 10
160.952
 20
199.897
 30
0.000000
  70
    32
  0
VERTEX
  8
0
  5
1298
 10
160.979
 20
199.908
 30
0.000000
  70
    32
  0
VERTEX
  8
0
  5
1299
 10
161.006
 20
199.920
 30
0.000000
  70
    32
  0
VERTEX
  8
0
  5
129A
 10
161.032
 20
199.933
 30
0.000000
  70
    32
  0
VERTEX
  8
0
  5
129B
 10
161.058
 20
199.946
 30
0.000000
  70
    32
  0
VERTEX
  8
0
  5
129C
 10
161.084
 20
199.960
 30
0.000000
  70
    32
  0
VERTEX
  8
0
  5
129D
 10
161.109
 20
199.974
 30
0.000000
  70
    32
  0
VERTEX
  8
0
  5
129E
 10
161.134
 20
199.989
 30
0.000000
  70
    32
  0
VERTEX
  8
0
  5
129F
 10
161.159
 20
200.004
 30
0.000000
  70
    32
  0
VERTEX
  8
0
  5
12A0
 10
161.183
 20
200.020
 30
0.000000
  70
    32
  0
VERTEX
  8
0
  5
12A1
 10
161.207
 20
200.037
 30
0.000000
  70
    32
  0
VERTEX
  8
0
  5
12A2
 10
161.230
 20
200.054
 30
0.000000
  70
    32
  0
VERTEX
  8
0
  5
12A3
 10
161.253
 20
200.071
 30
0.000000
  70
    32
  0
VERTEX
  8
0
  5
12A4
 10
161.275
 20
200.089
 30
0.000000
  70
    32
  0
VERTEX
  8
0
  5
12A5
 10
161.297
 20
200.108
 30
0.000000
  70
    32
  0
VERTEX
  8
0
  5
12A6
 10
161.318
 20
200.127
 30
0.000000
  70
    32
  0
VERTEX
  8
0
  5
12A7
 10
161.339
 20
200.146
 30
0.000000
  70
    32
  0
VERTEX
  8
0
  5
12A8
 10
161.359
 20
200.166
 30
0.000000
  70
    32
  0
VERTEX
  8
0
  5
12A9
 10
161.379
 20
200.187
 30
0.000000
  70
    32
  0
VERTEX
  8
0
  5
12AA
 10
161.398
 20
200.208
 30
0.000000
  70
    32
  0
VERTEX
  8
0
  5
12AB
 10
161.417
 20
200.229
 30
0.000000
  70
    32
  0
VERTEX
  8
0
  5
12AC
 10
161.435
 20
200.250
 30
0.000000
  70
    32
  0
VERTEX
  8
0
  5
12AD
 10
161.452
 20
200.272
 30
0.000000
  70
    32
  0
VERTEX
  8
0
  5
12AE
 10
161.469
 20
200.295
 30
0.000000
  70
    32
  0
VERTEX
  8
0
  5
12AF
 10
161.485
 20
200.318
 30
0.000000
  70
    32
  0
VERTEX
  8
0
  5
12B0
 10
161.501
 20
200.341
 30
0.000000
  70
    32
  0
VERTEX
  8
0
  5
12B1
 10
161.516
 20
200.364
 30
0.000000
  70
    32
  0
VERTEX
  8
0
  5
12B2
 10
161.530
 20
200.388
 30
0.000000
  70
    32
  0
VERTEX
  8
0
  5
12B3
 10
161.544
 20
200.412
 30
0.000000
  70
    32
  0
VERTEX
  8
0
  5
12B4
 10
161.557
 20
200.437
 30
0.000000
  70
    32
  0
VERTEX
  8
0
  5
12B5
 10
161.569
 20
200.462
 30
0.000000
  70
    32
  0
VERTEX
  8
0
  5
12B6
 10
161.581
 20
200.487
 30
0.000000
  70
    32
  0
VERTEX
  8
0
  5
12B7
 10
161.592
 20
200.512
 30
0.000000
  70
    32
  0
VERTEX
  8
0
  5
12B8
 10
161.603
 20
200.538
 30
0.000000
  70
    32
  0
VERTEX
  8
0
  5
12B9
 10
161.612
 20
200.563
 30
0.000000
  70
    32
  0
VERTEX
  8
0
  5
12BA
 10
161.621
 20
200.589
 30
0.000000
  70
    32
  0
VERTEX
  8
0
  5
12BB
 10
161.629
 20
200.615
 30
0.000000
  70
    32
  0
VERTEX
  8
0
  5
12BC
 10
161.637
 20
200.642
 30
0.000000
  70
    32
  0
VERTEX
  8
0
  5
12BD
 10
161.644
 20
200.668
 30
0.000000
  70
    32
  0
VERTEX
  8
0
  5
12BE
 10
161.650
 20
200.695
 30
0.000000
  70
    32
  0
VERTEX
  8
0
  5
12BF
 10
161.656
 20
200.722
 30
0.000000
  70
    32
  0
VERTEX
  8
0
  5
12C0
 10
161.660
 20
200.748
 30
0.000000
  70
    32
  0
VERTEX
  8
0
  5
12C1
 10
161.664
 20
200.775
 30
0.000000
  70
    32
  0
VERTEX
  8
0
  5
12C2
 10
161.668
 20
200.802
 30
0.000000
  70
    32
  0
VERTEX
  8
0
  5
12C3
 10
161.670
 20
200.830
 30
0.000000
  70
    32
  0
VERTEX
  8
0
  5
12C4
 10
161.672
 20
200.857
 30
0.000000
  70
    32
  0
VERTEX
  8
0
  5
12C5
 10
161.673
 20
200.884
 30
0.000000
  70
    32
  0
VERTEX
  8
0
  5
12C6
 10
161.673
 20
200.911
 30
0.000000
  70
    32
  0
VERTEX
  8
0
  5
12C7
 10
161.673
 20
200.938
 30
0.000000
  70
    32
  0
VERTEX
  8
0
  5
12C8
 10
161.672
 20
200.966
 30
0.000000
  70
    32
  0
VERTEX
  8
0
  5
12C9
 10
161.670
 20
200.993
 30
0.000000
  70
    32
  0
VERTEX
  8
0
  5
12CA
 10
161.668
 20
201.020
 30
0.000000
  70
    32
  0
VERTEX
  8
0
  5
12CB
 10
161.664
 20
201.047
 30
0.000000
  70
    32
  0
VERTEX
  8
0
  5
12CC
 10
161.660
 20
201.074
 30
0.000000
  70
    32
  0
VERTEX
  8
0
  5
12CD
 10
161.656
 20
201.101
 30
0.000000
  70
    32
  0
VERTEX
  8
0
  5
12CE
 10
161.650
 20
201.128
 30
0.000000
  70
    32
  0
VERTEX
  8
0
  5
12CF
 10
161.644
 20
201.154
 30
0.000000
  70
    32
  0
VERTEX
  8
0
  5
12D0
 10
161.637
 20
201.181
 30
0.000000
  70
    32
  0
VERTEX
  8
0
  5
12D1
 10
161.629
 20
201.207
 30
0.000000
  70
    32
  0
VERTEX
  8
0
  5
12D2
 10
161.621
 20
201.233
 30
0.000000
  70
    32
  0
VERTEX
  8
0
  5
12D3
 10
161.612
 20
201.259
 30
0.000000
  70
    32
  0
VERTEX
  8
0
  5
12D4
 10
161.603
 20
201.285
 30
0.000000
  70
    32
  0
VERTEX
  8
0
  5
12D5
 10
161.592
 20
201.310
 30
0.000000
  70
    32
  0
VERTEX
  8
0
  5
12D6
 10
161.581
 20
201.336
 30
0.000000
  70
    32
  0
VERTEX
  8
0
  5
12D7
 10
161.569
 20
201.361
 30
0.000000
  70
    32
  0
VERTEX
  8
0
  5
12D8
 10
161.557
 20
201.385
 30
0.000000
  70
    32
  0
VERTEX
  8
0
  5
12D9
 10
161.544
 20
201.410
 30
0.000000
  70
    32
  0
VERTEX
  8
0
  5
12DA
 10
161.530
 20
201.434
 30
0.000000
  70
    32
  0
VERTEX
  8
0
  5
12DB
 10
161.516
 20
201.458
 30
0.000000
  70
    32
  0
VERTEX
  8
0
  5
12DC
 10
161.501
 20
201.481
 30
0.000000
  70
    32
  0
VERTEX
  8
0
  5
12DD
 10
161.485
 20
201.505
 30
0.000000
  70
    32
  0
VERTEX
  8
0
  5
12DE
 10
161.469
 20
201.527
 30
0.000000
  70
    32
  0
VERTEX
  8
0
  5
12DF
 10
161.452
 20
201.550
 30
0.000000
  70
    32
  0
VERTEX
  8
0
  5
12E0
 10
161.435
 20
201.572
 30
0.000000
  70
    32
  0
VERTEX
  8
0
  5
12E1
 10
161.417
 20
201.594
 30
0.000000
  70
    32
  0
VERTEX
  8
0
  5
12E2
 10
161.398
 20
201.615
 30
0.000000
  70
    32
  0
VERTEX
  8
0
  5
12E3
 10
161.379
 20
201.636
 30
0.000000
  70
    32
  0
VERTEX
  8
0
  5
12E4
 10
161.359
 20
201.656
 30
0.000000
  70
    32
  0
VERTEX
  8
0
  5
12E5
 10
161.339
 20
201.676
 30
0.000000
  70
    32
  0
VERTEX
  8
0
  5
12E6
 10
161.318
 20
201.695
 30
0.000000
  70
    32
  0
VERTEX
  8
0
  5
12E7
 10
161.297
 20
201.715
 30
0.000000
  70
    32
  0
VERTEX
  8
0
  5
12E8
 10
161.275
 20
201.733
 30
0.000000
  70
    32
  0
VERTEX
  8
0
  5
12E9
 10
161.253
 20
201.751
 30
0.000000
  70
    32
  0
VERTEX
  8
0
  5
12EA
 10
161.230
 20
201.769
 30
0.000000
  70
    32
  0
VERTEX
  8
0
  5
12EB
 10
161.207
 20
201.786
 30
0.000000
  70
    32
  0
VERTEX
  8
0
  5
12EC
 10
161.183
 20
201.802
 30
0.000000
  70
    32
  0
VERTEX
  8
0
  5
12ED
 10
161.159
 20
201.818
 30
0.000000
  70
    32
  0
VERTEX
  8
0
  5
12EE
 10
161.134
 20
201.833
 30
0.000000
  70
    32
  0
VERTEX
  8
0
  5
12EF
 10
161.109
 20
201.848
 30
0.000000
  70
    32
  0
VERTEX
  8
0
  5
12F0
 10
161.084
 20
201.863
 30
0.000000
  70
    32
  0
VERTEX
  8
0
  5
12F1
 10
161.058
 20
201.876
 30
0.000000
  70
    32
  0
VERTEX
  8
0
  5
12F2
 10
161.032
 20
201.889
 30
0.000000
  70
    32
  0
VERTEX
  8
0
  5
12F3
 10
161.006
 20
201.902
 30
0.000000
  70
    32
  0
VERTEX
  8
0
  5
12F4
 10
160.979
 20
201.914
 30
0.000000
  70
    32
  0
VERTEX
  8
0
  5
12F5
 10
160.952
 20
201.925
 30
0.000000
  70
    32
  0
VERTEX
  8
0
  5
12F6
 10
160.925
 20
201.936
 30
0.000000
  70
    32
  0
VERTEX
  8
0
  5
12F7
 10
160.897
 20
201.946
 30
0.000000
  70
    32
  0
VERTEX
  8
0
  5
12F8
 10
160.869
 20
201.956
 30
0.000000
  70
    32
  0
VERTEX
  8
0
  5
12F9
 10
160.841
 20
201.964
 30
0.000000
  70
    32
  0
VERTEX
  8
0
  5
12FA
 10
160.812
 20
201.973
 30
0.000000
  70
    32
  0
VERTEX
  8
0
  5
12FB
 10
160.784
 20
201.980
 30
0.000000
  70
    32
  0
VERTEX
  8
0
  5
12FC
 10
160.755
 20
201.987
 30
0.000000
  70
    32
  0
VERTEX
  8
0
  5
12FD
 10
160.726
 20
201.993
 30
0.000000
  70
    32
  0
VERTEX
  8
0
  5
12FE
 10
160.697
 20
201.999
 30
0.000000
  70
    32
  0
VERTEX
  8
0
  5
12FF
 10
160.668
 20
202.004
 30
0.000000
  70
    32
  0
VERTEX
  8
0
  5
1300
 10
160.638
 20
202.008
 30
0.000000
  70
    32
  0
VERTEX
  8
0
  5
1301
 10
160.609
 20
202.012
 30
0.000000
  70
    32
  0
VERTEX
  8
0
  5
1302
 10
160.579
 20
202.015
 30
0.000000
  70
    32
  0
VERTEX
  8
0
  5
1303
 10
160.550
 20
202.017
 30
0.000000
  70
    32
  0
VERTEX
  8
0
  5
1304
 10
160.520
 20
202.019
 30
0.000000
  70
    32
  0
VERTEX
  8
0
  5
1305
 10
160.490
 20
202.020
 30
0.000000
  70
    32
  0
VERTEX
  8
0
  5
1306
 10
160.460
 20
202.020
 30
0.000000
  70
    32
  0
SEQEND
  8
0
  5
1307
  0
ARC
  5
AE9
  8
0
 10
160.45088999097609
 20
212.1867280150027
 30
0.0
 40
1.217999987819999
 50
0.0
 51
90.0
1001
GENIUS_GENODEF_13
1002
{
1000
HIER
1070
     0
1002
}
1002
{
1000
MANEDIT
1070
     0
1002
}
1002
{
1000
NOSEL
1070
     0
1002
}
1002
{
1000
BEHIND
1070
     0
1002
}
1002
{
1000
REACTOR
1002
}
1001
GENIUS_GENOBJ-N-FIL_13
1002
{
1000
OWNER
1000
GEN
1002
}
  0
ARC
  5
AEA
  8
0
 10
160.45088999097661
 20
212.21152298233301
 30
0.0
 40
1.217999987819999
 50
270.0
 51
0.0
1001
GENIUS_GENODEF_13
1002
{
1000
HIER
1070
     0
1002
}
1002
{
1000
MANEDIT
1070
     0
1002
}
1002
{
1000
NOSEL
1070
     0
1002
}
1002
{
1000
BEHIND
1070
     0
1002
}
1002
{
1000
REACTOR
1002
}
1001
GENIUS_GENOBJ-N-FIL_13
1002
{
1000
OWNER
1000
GEN
1002
}
  0
ARC
  5
AEB
  8
0
 10
151.2658574432688
 20
206.43912282911029
 30
0.0
 40
1.3009984155683989
 50
112.077720867171
 51
247.92227913283111
  0
LINE
  5
AEC
  8
0
 10
150.776859027619
 20
202.02037248254121
 30
0.0
 11
150.77685902761851
 21
205.2335203130198
 31
0.0
  0
ARC
  5
AED
  8
0
 10
151.1290223429331
 20
200.9107521758676
 30
0.0
 40
1.1641633157064071
 50
107.6080229805692
 51
252.3919770194444
  0
LINE
  5
AEE
  8
0
 10
150.77685902761851
 20
210.99352301108979
 30
0.0
 11
150.77685902761809
 21
209.3191241781453
 31
0.0
  0
ARC
  5
AEF
  8
0
 10
151.2658574432688
 20
212.1991255271802
 30
0.0
 40
1.3009984155683989
 50
112.07772086716891
 51
247.922279132829
  0
LINE
  5
AF0
  8
0
 10
150.77685902761851
 20
207.64472534520081
 30
0.0
 11
150.77685902761809
 21
209.3191241781453
 31
0.0
  0
LINE
  5
AF1
  8
0
 10
160.50726485992351
 20
216.6178758737494
 30
0.0
 11
150.776859027619
 21
216.6178758737494
 31
0.0
  0
LINE
  5
AF2
  8
0
 10
160.50726485992391
 20
218.8362614204768
 30
0.0
 11
150.77685902761951
 21
218.83711648709749
 31
0.0
  0
LINE
  5
AF3
  8
0
 10
160.69058139075059
 20
228.54879307804751
 30
0.0
 11
150.77685902762039
 21
228.3564683454735
 31
0.0
  0
LINE
  5
AF4
  8
0
 10
160.53536934021849
 20
229.2308191550766
 30
0.0
 11
150.8501198220041
 21
229.04263624473941
 31
0.0
  0
LINE
  5
AF5
  8
0
 10
160.50726485992351
 20
221.6509272813793
 30
0.0
 11
150.77685902761991
 21
221.6509272813793
 31
0.0
  0
LINE
  5
AF6
  8
0
 10
160.50726485992351
 20
225.68492934163871
 30
0.0
 11
150.77685902761809
 21
225.68492934163871
 31
0.0
  0
LINE
  5
AF7
  8
0
 10
160.50726485992351
 20
223.49193324432119
 30
0.0
 11
150.77685902761991
 21
223.49193324432159
 31
0.0
  0
LINE
  5
AF8
  8
0
 10
160.50726485992351
 20
227.00193037282881
 30
0.0
 11
150.77685902760859
 21
227.00193037282881
 31
0.0
  0
POLYLINE
  5
AF9
  8
0
 10
160.4602938895016
 20
218.83626132625693
 30
0.0
 66
     1
 70
     8
  0
VERTEX
  8
0
  5
1308
 10
160.460
 20
218.836
 30
0.000000
  70
    32
  0
VERTEX
  8
0
  5
1309
 10
160.490
 20
218.836
 30
0.000000
  70
    32
  0
VERTEX
  8
0
  5
130A
 10
160.520
 20
218.835
 30
0.000000
  70
    32
  0
VERTEX
  8
0
  5
130B
 10
160.550
 20
218.833
 30
0.000000
  70
    32
  0
VERTEX
  8
0
  5
130C
 10
160.579
 20
218.831
 30
0.000000
  70
    32
  0
VERTEX
  8
0
  5
130D
 10
160.609
 20
218.828
 30
0.000000
  70
    32
  0
VERTEX
  8
0
  5
130E
 10
160.638
 20
218.824
 30
0.000000
  70
    32
  0
VERTEX
  8
0
  5
130F
 10
160.668
 20
218.820
 30
0.000000
  70
    32
  0
VERTEX
  8
0
  5
1310
 10
160.697
 20
218.815
 30
0.000000
  70
    32
  0
VERTEX
  8
0
  5
1311
 10
160.726
 20
218.809
 30
0.000000
  70
    32
  0
VERTEX
  8
0
  5
1312
 10
160.755
 20
218.803
 30
0.000000
  70
    32
  0
VERTEX
  8
0
  5
1313
 10
160.784
 20
218.796
 30
0.000000
  70
    32
  0
VERTEX
  8
0
  5
1314
 10
160.812
 20
218.788
 30
0.000000
  70
    32
  0
VERTEX
  8
0
  5
1315
 10
160.841
 20
218.780
 30
0.000000
  70
    32
  0
VERTEX
  8
0
  5
1316
 10
160.869
 20
218.771
 30
0.000000
  70
    32
  0
VERTEX
  8
0
  5
1317
 10
160.897
 20
218.762
 30
0.000000
  70
    32
  0
VERTEX
  8
0
  5
1318
 10
160.925
 20
218.752
 30
0.000000
  70
    32
  0
VERTEX
  8
0
  5
1319
 10
160.952
 20
218.741
 30
0.000000
  70
    32
  0
VERTEX
  8
0
  5
131A
 10
160.979
 20
218.730
 30
0.000000
  70
    32
  0
VERTEX
  8
0
  5
131B
 10
161.006
 20
218.718
 30
0.000000
  70
    32
  0
VERTEX
  8
0
  5
131C
 10
161.032
 20
218.705
 30
0.000000
  70
    32
  0
VERTEX
  8
0
  5
131D
 10
161.058
 20
218.692
 30
0.000000
  70
    32
  0
VERTEX
  8
0
  5
131E
 10
161.084
 20
218.678
 30
0.000000
  70
    32
  0
VERTEX
  8
0
  5
131F
 10
161.109
 20
218.664
 30
0.000000
  70
    32
  0
VERTEX
  8
0
  5
1320
 10
161.134
 20
218.649
 30
0.000000
  70
    32
  0
VERTEX
  8
0
  5
1321
 10
161.159
 20
218.634
 30
0.000000
  70
    32
  0
VERTEX
  8
0
  5
1322
 10
161.183
 20
218.618
 30
0.000000
  70
    32
  0
VERTEX
  8
0
  5
1323
 10
161.207
 20
218.601
 30
0.000000
  70
    32
  0
VERTEX
  8
0
  5
1324
 10
161.230
 20
218.584
 30
0.000000
  70
    32
  0
VERTEX
  8
0
  5
1325
 10
161.253
 20
218.567
 30
0.000000
  70
    32
  0
VERTEX
  8
0
  5
1326
 10
161.275
 20
218.549
 30
0.000000
  70
    32
  0
VERTEX
  8
0
  5
1327
 10
161.297
 20
218.530
 30
0.000000
  70
    32
  0
VERTEX
  8
0
  5
1328
 10
161.318
 20
218.511
 30
0.000000
  70
    32
  0
VERTEX
  8
0
  5
1329
 10
161.339
 20
218.492
 30
0.000000
  70
    32
  0
VERTEX
  8
0
  5
132A
 10
161.359
 20
218.472
 30
0.000000
  70
    32
  0
VERTEX
  8
0
  5
132B
 10
161.379
 20
218.452
 30
0.000000
  70
    32
  0
VERTEX
  8
0
  5
132C
 10
161.398
 20
218.431
 30
0.000000
  70
    32
  0
VERTEX
  8
0
  5
132D
 10
161.417
 20
218.409
 30
0.000000
  70
    32
  0
VERTEX
  8
0
  5
132E
 10
161.435
 20
218.388
 30
0.000000
  70
    32
  0
VERTEX
  8
0
  5
132F
 10
161.452
 20
218.366
 30
0.000000
  70
    32
  0
VERTEX
  8
0
  5
1330
 10
161.469
 20
218.343
 30
0.000000
  70
    32
  0
VERTEX
  8
0
  5
1331
 10
161.485
 20
218.320
 30
0.000000
  70
    32
  0
VERTEX
  8
0
  5
1332
 10
161.501
 20
218.297
 30
0.000000
  70
    32
  0
VERTEX
  8
0
  5
1333
 10
161.516
 20
218.274
 30
0.000000
  70
    32
  0
VERTEX
  8
0
  5
1334
 10
161.530
 20
218.250
 30
0.000000
  70
    32
  0
VERTEX
  8
0
  5
1335
 10
161.544
 20
218.226
 30
0.000000
  70
    32
  0
VERTEX
  8
0
  5
1336
 10
161.557
 20
218.201
 30
0.000000
  70
    32
  0
VERTEX
  8
0
  5
1337
 10
161.569
 20
218.177
 30
0.000000
  70
    32
  0
VERTEX
  8
0
  5
1338
 10
161.581
 20
218.152
 30
0.000000
  70
    32
  0
VERTEX
  8
0
  5
1339
 10
161.592
 20
218.126
 30
0.000000
  70
    32
  0
VERTEX
  8
0
  5
133A
 10
161.603
 20
218.101
 30
0.000000
  70
    32
  0
VERTEX
  8
0
  5
133B
 10
161.612
 20
218.075
 30
0.000000
  70
    32
  0
VERTEX
  8
0
  5
133C
 10
161.621
 20
218.049
 30
0.000000
  70
    32
  0
VERTEX
  8
0
  5
133D
 10
161.629
 20
218.023
 30
0.000000
  70
    32
  0
VERTEX
  8
0
  5
133E
 10
161.637
 20
217.997
 30
0.000000
  70
    32
  0
VERTEX
  8
0
  5
133F
 10
161.644
 20
217.970
 30
0.000000
  70
    32
  0
VERTEX
  8
0
  5
1340
 10
161.650
 20
217.943
 30
0.000000
  70
    32
  0
VERTEX
  8
0
  5
1341
 10
161.656
 20
217.917
 30
0.000000
  70
    32
  0
VERTEX
  8
0
  5
1342
 10
161.660
 20
217.890
 30
0.000000
  70
    32
  0
VERTEX
  8
0
  5
1343
 10
161.664
 20
217.863
 30
0.000000
  70
    32
  0
VERTEX
  8
0
  5
1344
 10
161.668
 20
217.836
 30
0.000000
  70
    32
  0
VERTEX
  8
0
  5
1345
 10
161.670
 20
217.809
 30
0.000000
  70
    32
  0
VERTEX
  8
0
  5
1346
 10
161.672
 20
217.781
 30
0.000000
  70
    32
  0
VERTEX
  8
0
  5
1347
 10
161.673
 20
217.754
 30
0.000000
  70
    32
  0
VERTEX
  8
0
  5
1348
 10
161.673
 20
217.727
 30
0.000000
  70
    32
  0
VERTEX
  8
0
  5
1349
 10
161.673
 20
217.700
 30
0.000000
  70
    32
  0
VERTEX
  8
0
  5
134A
 10
161.672
 20
217.673
 30
0.000000
  70
    32
  0
VERTEX
  8
0
  5
134B
 10
161.670
 20
217.645
 30
0.000000
  70
    32
  0
VERTEX
  8
0
  5
134C
 10
161.668
 20
217.618
 30
0.000000
  70
    32
  0
VERTEX
  8
0
  5
134D
 10
161.664
 20
217.591
 30
0.000000
  70
    32
  0
VERTEX
  8
0
  5
134E
 10
161.660
 20
217.564
 30
0.000000
  70
    32
  0
VERTEX
  8
0
  5
134F
 10
161.656
 20
217.537
 30
0.000000
  70
    32
  0
VERTEX
  8
0
  5
1350
 10
161.650
 20
217.511
 30
0.000000
  70
    32
  0
VERTEX
  8
0
  5
1351
 10
161.644
 20
217.484
 30
0.000000
  70
    32
  0
VERTEX
  8
0
  5
1352
 10
161.637
 20
217.458
 30
0.000000
  70
    32
  0
VERTEX
  8
0
  5
1353
 10
161.629
 20
217.431
 30
0.000000
  70
    32
  0
VERTEX
  8
0
  5
1354
 10
161.621
 20
217.405
 30
0.000000
  70
    32
  0
VERTEX
  8
0
  5
1355
 10
161.612
 20
217.379
 30
0.000000
  70
    32
  0
VERTEX
  8
0
  5
1356
 10
161.603
 20
217.353
 30
0.000000
  70
    32
  0
VERTEX
  8
0
  5
1357
 10
161.592
 20
217.328
 30
0.000000
  70
    32
  0
VERTEX
  8
0
  5
1358
 10
161.581
 20
217.303
 30
0.000000
  70
    32
  0
VERTEX
  8
0
  5
1359
 10
161.569
 20
217.278
 30
0.000000
  70
    32
  0
VERTEX
  8
0
  5
135A
 10
161.557
 20
217.253
 30
0.000000
  70
    32
  0
VERTEX
  8
0
  5
135B
 10
161.544
 20
217.228
 30
0.000000
  70
    32
  0
VERTEX
  8
0
  5
135C
 10
161.530
 20
217.204
 30
0.000000
  70
    32
  0
VERTEX
  8
0
  5
135D
 10
161.516
 20
217.180
 30
0.000000
  70
    32
  0
VERTEX
  8
0
  5
135E
 10
161.501
 20
217.157
 30
0.000000
  70
    32
  0
VERTEX
  8
0
  5
135F
 10
161.485
 20
217.134
 30
0.000000
  70
    32
  0
VERTEX
  8
0
  5
1360
 10
161.469
 20
217.111
 30
0.000000
  70
    32
  0
VERTEX
  8
0
  5
1361
 10
161.452
 20
217.088
 30
0.000000
  70
    32
  0
VERTEX
  8
0
  5
1362
 10
161.435
 20
217.066
 30
0.000000
  70
    32
  0
VERTEX
  8
0
  5
1363
 10
161.417
 20
217.045
 30
0.000000
  70
    32
  0
VERTEX
  8
0
  5
1364
 10
161.398
 20
217.023
 30
0.000000
  70
    32
  0
VERTEX
  8
0
  5
1365
 10
161.379
 20
217.003
 30
0.000000
  70
    32
  0
VERTEX
  8
0
  5
1366
 10
161.359
 20
216.982
 30
0.000000
  70
    32
  0
VERTEX
  8
0
  5
1367
 10
161.339
 20
216.962
 30
0.000000
  70
    32
  0
VERTEX
  8
0
  5
1368
 10
161.318
 20
216.943
 30
0.000000
  70
    32
  0
VERTEX
  8
0
  5
1369
 10
161.297
 20
216.924
 30
0.000000
  70
    32
  0
VERTEX
  8
0
  5
136A
 10
161.275
 20
216.905
 30
0.000000
  70
    32
  0
VERTEX
  8
0
  5
136B
 10
161.253
 20
216.887
 30
0.000000
  70
    32
  0
VERTEX
  8
0
  5
136C
 10
161.230
 20
216.870
 30
0.000000
  70
    32
  0
VERTEX
  8
0
  5
136D
 10
161.207
 20
216.853
 30
0.000000
  70
    32
  0
VERTEX
  8
0
  5
136E
 10
161.183
 20
216.836
 30
0.000000
  70
    32
  0
VERTEX
  8
0
  5
136F
 10
161.159
 20
216.820
 30
0.000000
  70
    32
  0
VERTEX
  8
0
  5
1370
 10
161.134
 20
216.805
 30
0.000000
  70
    32
  0
VERTEX
  8
0
  5
1371
 10
161.109
 20
216.790
 30
0.000000
  70
    32
  0
VERTEX
  8
0
  5
1372
 10
161.084
 20
216.776
 30
0.000000
  70
    32
  0
VERTEX
  8
0
  5
1373
 10
161.058
 20
216.762
 30
0.000000
  70
    32
  0
VERTEX
  8
0
  5
1374
 10
161.032
 20
216.749
 30
0.000000
  70
    32
  0
VERTEX
  8
0
  5
1375
 10
161.006
 20
216.736
 30
0.000000
  70
    32
  0
VERTEX
  8
0
  5
1376
 10
160.979
 20
216.724
 30
0.000000
  70
    32
  0
VERTEX
  8
0
  5
1377
 10
160.952
 20
216.713
 30
0.000000
  70
    32
  0
VERTEX
  8
0
  5
1378
 10
160.925
 20
216.702
 30
0.000000
  70
    32
  0
VERTEX
  8
0
  5
1379
 10
160.897
 20
216.692
 30
0.000000
  70
    32
  0
VERTEX
  8
0
  5
137A
 10
160.869
 20
216.683
 30
0.000000
  70
    32
  0
VERTEX
  8
0
  5
137B
 10
160.841
 20
216.674
 30
0.000000
  70
    32
  0
VERTEX
  8
0
  5
137C
 10
160.812
 20
216.666
 30
0.000000
  70
    32
  0
VERTEX
  8
0
  5
137D
 10
160.784
 20
216.658
 30
0.000000
  70
    32
  0
VERTEX
  8
0
  5
137E
 10
160.755
 20
216.651
 30
0.000000
  70
    32
  0
VERTEX
  8
0
  5
137F
 10
160.726
 20
216.645
 30
0.000000
  70
    32
  0
VERTEX
  8
0
  5
1380
 10
160.697
 20
216.639
 30
0.000000
  70
    32
  0
VERTEX
  8
0
  5
1381
 10
160.668
 20
216.634
 30
0.000000
  70
    32
  0
VERTEX
  8
0
  5
1382
 10
160.638
 20
216.630
 30
0.000000
  70
    32
  0
VERTEX
  8
0
  5
1383
 10
160.609
 20
216.626
 30
0.000000
  70
    32
  0
VERTEX
  8
0
  5
1384
 10
160.579
 20
216.623
 30
0.000000
  70
    32
  0
VERTEX
  8
0
  5
1385
 10
160.550
 20
216.621
 30
0.000000
  70
    32
  0
VERTEX
  8
0
  5
1386
 10
160.520
 20
216.619
 30
0.000000
  70
    32
  0
VERTEX
  8
0
  5
1387
 10
160.490
 20
216.618
 30
0.000000
  70
    32
  0
VERTEX
  8
0
  5
1388
 10
160.460
 20
216.618
 30
0.000000
  70
    32
  0
SEQEND
  8
0
  5
1389
  0
LINE
  5
AFA
  8
0
 10
161.7203951030215
 20
222.57132824441319
 30
0.0
 11
161.7203951030215
 21
222.57153228128681
 31
0.0
  0
POLYLINE
  5
AFB
  8
0
 10
160.45844572447299
 20
223.49193310400969
 30
0.0
 66
     1
 70
     8
  0
VERTEX
  8
0
  5
138A
 10
160.458
 20
223.492
 30
0.000000
  70
    32
  0
VERTEX
  8
0
  5
138B
 10
160.488
 20
223.492
 30
0.000000
  70
    32
  0
VERTEX
  8
0
  5
138C
 10
160.518
 20
223.491
 30
0.000000
  70
    32
  0
VERTEX
  8
0
  5
138D
 10
160.548
 20
223.489
 30
0.000000
  70
    32
  0
VERTEX
  8
0
  5
138E
 10
160.577
 20
223.488
 30
0.000000
  70
    32
  0
VERTEX
  8
0
  5
138F
 10
160.607
 20
223.485
 30
0.000000
  70
    32
  0
VERTEX
  8
0
  5
1390
 10
160.636
 20
223.482
 30
0.000000
  70
    32
  0
VERTEX
  8
0
  5
1391
 10
160.666
 20
223.478
 30
0.000000
  70
    32
  0
VERTEX
  8
0
  5
1392
 10
160.695
 20
223.474
 30
0.000000
  70
    32
  0
VERTEX
  8
0
  5
1393
 10
160.724
 20
223.470
 30
0.000000
  70
    32
  0
VERTEX
  8
0
  5
1394
 10
160.753
 20
223.464
 30
0.000000
  70
    32
  0
VERTEX
  8
0
  5
1395
 10
160.782
 20
223.459
 30
0.000000
  70
    32
  0
VERTEX
  8
0
  5
1396
 10
160.811
 20
223.452
 30
0.000000
  70
    32
  0
VERTEX
  8
0
  5
1397
 10
160.839
 20
223.445
 30
0.000000
  70
    32
  0
VERTEX
  8
0
  5
1398
 10
160.867
 20
223.438
 30
0.000000
  70
    32
  0
VERTEX
  8
0
  5
1399
 10
160.895
 20
223.430
 30
0.000000
  70
    32
  0
VERTEX
  8
0
  5
139A
 10
160.923
 20
223.422
 30
0.000000
  70
    32
  0
VERTEX
  8
0
  5
139B
 10
160.950
 20
223.413
 30
0.000000
  70
    32
  0
VERTEX
  8
0
  5
139C
 10
160.977
 20
223.404
 30
0.000000
  70
    32
  0
VERTEX
  8
0
  5
139D
 10
161.004
 20
223.394
 30
0.000000
  70
    32
  0
VERTEX
  8
0
  5
139E
 10
161.030
 20
223.383
 30
0.000000
  70
    32
  0
VERTEX
  8
0
  5
139F
 10
161.056
 20
223.372
 30
0.000000
  70
    32
  0
VERTEX
  8
0
  5
13A0
 10
161.082
 20
223.361
 30
0.000000
  70
    32
  0
VERTEX
  8
0
  5
13A1
 10
161.107
 20
223.349
 30
0.000000
  70
    32
  0
VERTEX
  8
0
  5
13A2
 10
161.132
 20
223.337
 30
0.000000
  70
    32
  0
VERTEX
  8
0
  5
13A3
 10
161.157
 20
223.324
 30
0.000000
  70
    32
  0
VERTEX
  8
0
  5
13A4
 10
161.181
 20
223.311
 30
0.000000
  70
    32
  0
VERTEX
  8
0
  5
13A5
 10
161.205
 20
223.297
 30
0.000000
  70
    32
  0
VERTEX
  8
0
  5
13A6
 10
161.228
 20
223.283
 30
0.000000
  70
    32
  0
VERTEX
  8
0
  5
13A7
 10
161.251
 20
223.268
 30
0.000000
  70
    32
  0
VERTEX
  8
0
  5
13A8
 10
161.273
 20
223.253
 30
0.000000
  70
    32
  0
VERTEX
  8
0
  5
13A9
 10
161.295
 20
223.238
 30
0.000000
  70
    32
  0
VERTEX
  8
0
  5
13AA
 10
161.316
 20
223.222
 30
0.000000
  70
    32
  0
VERTEX
  8
0
  5
13AB
 10
161.337
 20
223.206
 30
0.000000
  70
    32
  0
VERTEX
  8
0
  5
13AC
 10
161.357
 20
223.190
 30
0.000000
  70
    32
  0
VERTEX
  8
0
  5
13AD
 10
161.377
 20
223.173
 30
0.000000
  70
    32
  0
VERTEX
  8
0
  5
13AE
 10
161.396
 20
223.155
 30
0.000000
  70
    32
  0
VERTEX
  8
0
  5
13AF
 10
161.415
 20
223.138
 30
0.000000
  70
    32
  0
VERTEX
  8
0
  5
13B0
 10
161.433
 20
223.120
 30
0.000000
  70
    32
  0
VERTEX
  8
0
  5
13B1
 10
161.450
 20
223.101
 30
0.000000
  70
    32
  0
VERTEX
  8
0
  5
13B2
 10
161.467
 20
223.083
 30
0.000000
  70
    32
  0
VERTEX
  8
0
  5
13B3
 10
161.483
 20
223.064
 30
0.000000
  70
    32
  0
VERTEX
  8
0
  5
13B4
 10
161.499
 20
223.045
 30
0.000000
  70
    32
  0
VERTEX
  8
0
  5
13B5
 10
161.514
 20
223.025
 30
0.000000
  70
    32
  0
VERTEX
  8
0
  5
13B6
 10
161.528
 20
223.005
 30
0.000000
  70
    32
  0
VERTEX
  8
0
  5
13B7
 10
161.542
 20
222.985
 30
0.000000
  70
    32
  0
VERTEX
  8
0
  5
13B8
 10
161.555
 20
222.965
 30
0.000000
  70
    32
  0
VERTEX
  8
0
  5
13B9
 10
161.568
 20
222.944
 30
0.000000
  70
    32
  0
VERTEX
  8
0
  5
13BA
 10
161.579
 20
222.924
 30
0.000000
  70
    32
  0
VERTEX
  8
0
  5
13BB
 10
161.590
 20
222.903
 30
0.000000
  70
    32
  0
VERTEX
  8
0
  5
13BC
 10
161.601
 20
222.882
 30
0.000000
  70
    32
  0
VERTEX
  8
0
  5
13BD
 10
161.610
 20
222.860
 30
0.000000
  70
    32
  0
VERTEX
  8
0
  5
13BE
 10
161.619
 20
222.839
 30
0.000000
  70
    32
  0
VERTEX
  8
0
  5
13BF
 10
161.628
 20
222.817
 30
0.000000
  70
    32
  0
VERTEX
  8
0
  5
13C0
 10
161.635
 20
222.795
 30
0.000000
  70
    32
  0
VERTEX
  8
0
  5
13C1
 10
161.642
 20
222.773
 30
0.000000
  70
    32
  0
VERTEX
  8
0
  5
13C2
 10
161.648
 20
222.751
 30
0.000000
  70
    32
  0
VERTEX
  8
0
  5
13C3
 10
161.654
 20
222.729
 30
0.000000
  70
    32
  0
VERTEX
  8
0
  5
13C4
 10
161.658
 20
222.706
 30
0.000000
  70
    32
  0
VERTEX
  8
0
  5
13C5
 10
161.662
 20
222.684
 30
0.000000
  70
    32
  0
VERTEX
  8
0
  5
13C6
 10
161.666
 20
222.662
 30
0.000000
  70
    32
  0
VERTEX
  8
0
  5
13C7
 10
161.668
 20
222.639
 30
0.000000
  70
    32
  0
VERTEX
  8
0
  5
13C8
 10
161.670
 20
222.617
 30
0.000000
  70
    32
  0
VERTEX
  8
0
  5
13C9
 10
161.671
 20
222.594
 30
0.000000
  70
    32
  0
VERTEX
  8
0
  5
13CA
 10
161.672
 20
222.571
 30
0.000000
  70
    32
  0
VERTEX
  8
0
  5
13CB
 10
161.671
 20
222.549
 30
0.000000
  70
    32
  0
VERTEX
  8
0
  5
13CC
 10
161.670
 20
222.526
 30
0.000000
  70
    32
  0
VERTEX
  8
0
  5
13CD
 10
161.668
 20
222.504
 30
0.000000
  70
    32
  0
VERTEX
  8
0
  5
13CE
 10
161.666
 20
222.481
 30
0.000000
  70
    32
  0
VERTEX
  8
0
  5
13CF
 10
161.662
 20
222.459
 30
0.000000
  70
    32
  0
VERTEX
  8
0
  5
13D0
 10
161.658
 20
222.436
 30
0.000000
  70
    32
  0
VERTEX
  8
0
  5
13D1
 10
161.654
 20
222.414
 30
0.000000
  70
    32
  0
VERTEX
  8
0
  5
13D2
 10
161.648
 20
222.392
 30
0.000000
  70
    32
  0
VERTEX
  8
0
  5
13D3
 10
161.642
 20
222.370
 30
0.000000
  70
    32
  0
VERTEX
  8
0
  5
13D4
 10
161.635
 20
222.348
 30
0.000000
  70
    32
  0
VERTEX
  8
0
  5
13D5
 10
161.628
 20
222.326
 30
0.000000
  70
    32
  0
VERTEX
  8
0
  5
13D6
 10
161.619
 20
222.304
 30
0.000000
  70
    32
  0
VERTEX
  8
0
  5
13D7
 10
161.610
 20
222.283
 30
0.000000
  70
    32
  0
VERTEX
  8
0
  5
13D8
 10
161.601
 20
222.261
 30
0.000000
  70
    32
  0
VERTEX
  8
0
  5
13D9
 10
161.590
 20
222.240
 30
0.000000
  70
    32
  0
VERTEX
  8
0
  5
13DA
 10
161.579
 20
222.219
 30
0.000000
  70
    32
  0
VERTEX
  8
0
  5
13DB
 10
161.568
 20
222.198
 30
0.000000
  70
    32
  0
VERTEX
  8
0
  5
13DC
 10
161.555
 20
222.178
 30
0.000000
  70
    32
  0
VERTEX
  8
0
  5
13DD
 10
161.542
 20
222.158
 30
0.000000
  70
    32
  0
VERTEX
  8
0
  5
13DE
 10
161.528
 20
222.138
 30
0.000000
  70
    32
  0
VERTEX
  8
0
  5
13DF
 10
161.514
 20
222.118
 30
0.000000
  70
    32
  0
VERTEX
  8
0
  5
13E0
 10
161.499
 20
222.098
 30
0.000000
  70
    32
  0
VERTEX
  8
0
  5
13E1
 10
161.483
 20
222.079
 30
0.000000
  70
    32
  0
VERTEX
  8
0
  5
13E2
 10
161.467
 20
222.060
 30
0.000000
  70
    32
  0
VERTEX
  8
0
  5
13E3
 10
161.450
 20
222.041
 30
0.000000
  70
    32
  0
VERTEX
  8
0
  5
13E4
 10
161.433
 20
222.023
 30
0.000000
  70
    32
  0
VERTEX
  8
0
  5
13E5
 10
161.415
 20
222.005
 30
0.000000
  70
    32
  0
VERTEX
  8
0
  5
13E6
 10
161.396
 20
221.987
 30
0.000000
  70
    32
  0
VERTEX
  8
0
  5
13E7
 10
161.377
 20
221.970
 30
0.000000
  70
    32
  0
VERTEX
  8
0
  5
13E8
 10
161.357
 20
221.953
 30
0.000000
  70
    32
  0
VERTEX
  8
0
  5
13E9
 10
161.337
 20
221.937
 30
0.000000
  70
    32
  0
VERTEX
  8
0
  5
13EA
 10
161.316
 20
221.921
 30
0.000000
  70
    32
  0
VERTEX
  8
0
  5
13EB
 10
161.295
 20
221.905
 30
0.000000
  70
    32
  0
VERTEX
  8
0
  5
13EC
 10
161.273
 20
221.889
 30
0.000000
  70
    32
  0
VERTEX
  8
0
  5
13ED
 10
161.251
 20
221.874
 30
0.000000
  70
    32
  0
VERTEX
  8
0
  5
13EE
 10
161.228
 20
221.860
 30
0.000000
  70
    32
  0
VERTEX
  8
0
  5
13EF
 10
161.205
 20
221.846
 30
0.000000
  70
    32
  0
VERTEX
  8
0
  5
13F0
 10
161.181
 20
221.832
 30
0.000000
  70
    32
  0
VERTEX
  8
0
  5
13F1
 10
161.157
 20
221.819
 30
0.000000
  70
    32
  0
VERTEX
  8
0
  5
13F2
 10
161.132
 20
221.806
 30
0.000000
  70
    32
  0
VERTEX
  8
0
  5
13F3
 10
161.107
 20
221.794
 30
0.000000
  70
    32
  0
VERTEX
  8
0
  5
13F4
 10
161.082
 20
221.782
 30
0.000000
  70
    32
  0
VERTEX
  8
0
  5
13F5
 10
161.056
 20
221.771
 30
0.000000
  70
    32
  0
VERTEX
  8
0
  5
13F6
 10
161.030
 20
221.760
 30
0.000000
  70
    32
  0
VERTEX
  8
0
  5
13F7
 10
161.004
 20
221.749
 30
0.000000
  70
    32
  0
VERTEX
  8
0
  5
13F8
 10
160.977
 20
221.739
 30
0.000000
  70
    32
  0
VERTEX
  8
0
  5
13F9
 10
160.950
 20
221.730
 30
0.000000
  70
    32
  0
VERTEX
  8
0
  5
13FA
 10
160.923
 20
221.721
 30
0.000000
  70
    32
  0
VERTEX
  8
0
  5
13FB
 10
160.895
 20
221.713
 30
0.000000
  70
    32
  0
VERTEX
  8
0
  5
13FC
 10
160.867
 20
221.705
 30
0.000000
  70
    32
  0
VERTEX
  8
0
  5
13FD
 10
160.839
 20
221.697
 30
0.000000
  70
    32
  0
VERTEX
  8
0
  5
13FE
 10
160.811
 20
221.691
 30
0.000000
  70
    32
  0
VERTEX
  8
0
  5
13FF
 10
160.782
 20
221.684
 30
0.000000
  70
    32
  0
VERTEX
  8
0
  5
1400
 10
160.753
 20
221.679
 30
0.000000
  70
    32
  0
VERTEX
  8
0
  5
1401
 10
160.724
 20
221.673
 30
0.000000
  70
    32
  0
VERTEX
  8
0
  5
1402
 10
160.695
 20
221.669
 30
0.000000
  70
    32
  0
VERTEX
  8
0
  5
1403
 10
160.666
 20
221.664
 30
0.000000
  70
    32
  0
VERTEX
  8
0
  5
1404
 10
160.636
 20
221.661
 30
0.000000
  70
    32
  0
VERTEX
  8
0
  5
1405
 10
160.607
 20
221.658
 30
0.000000
  70
    32
  0
VERTEX
  8
0
  5
1406
 10
160.577
 20
221.655
 30
0.000000
  70
    32
  0
VERTEX
  8
0
  5
1407
 10
160.548
 20
221.653
 30
0.000000
  70
    32
  0
VERTEX
  8
0
  5
1408
 10
160.518
 20
221.652
 30
0.000000
  70
    32
  0
VERTEX
  8
0
  5
1409
 10
160.488
 20
221.651
 30
0.000000
  70
    32
  0
VERTEX
  8
0
  5
140A
 10
160.458
 20
221.651
 30
0.000000
  70
    32
  0
SEQEND
  8
0
  5
140B
  0
LINE
  5
AFC
  8
0
 10
161.67069192615901
 20
226.34319520435611
 30
0.0
 11
161.67069192615901
 21
226.34366417302999
 31
0.0
  0
POLYLINE
  5
AFD
  8
0
 10
160.45756169507081
 20
227.00193019776822
 30
0.0
 66
     1
 70
     8
  0
VERTEX
  8
0
  5
140C
 10
160.458
 20
227.002
 30
0.000000
  70
    32
  0
VERTEX
  8
0
  5
140D
 10
160.487
 20
227.002
 30
0.000000
  70
    32
  0
VERTEX
  8
0
  5
140E
 10
160.517
 20
227.001
 30
0.000000
  70
    32
  0
VERTEX
  8
0
  5
140F
 10
160.547
 20
227.000
 30
0.000000
  70
    32
  0
VERTEX
  8
0
  5
1410
 10
160.576
 20
226.999
 30
0.000000
  70
    32
  0
VERTEX
  8
0
  5
1411
 10
160.606
 20
226.997
 30
0.000000
  70
    32
  0
VERTEX
  8
0
  5
1412
 10
160.636
 20
226.995
 30
0.000000
  70
    32
  0
VERTEX
  8
0
  5
1413
 10
160.665
 20
226.992
 30
0.000000
  70
    32
  0
VERTEX
  8
0
  5
1414
 10
160.694
 20
226.989
 30
0.000000
  70
    32
  0
VERTEX
  8
0
  5
1415
 10
160.723
 20
226.986
 30
0.000000
  70
    32
  0
VERTEX
  8
0
  5
1416
 10
160.752
 20
226.982
 30
0.000000
  70
    32
  0
VERTEX
  8
0
  5
1417
 10
160.781
 20
226.978
 30
0.000000
  70
    32
  0
VERTEX
  8
0
  5
1418
 10
160.810
 20
226.974
 30
0.000000
  70
    32
  0
VERTEX
  8
0
  5
1419
 10
160.838
 20
226.969
 30
0.000000
  70
    32
  0
VERTEX
  8
0
  5
141A
 10
160.866
 20
226.963
 30
0.000000
  70
    32
  0
VERTEX
  8
0
  5
141B
 10
160.894
 20
226.958
 30
0.000000
  70
    32
  0
VERTEX
  8
0
  5
141C
 10
160.922
 20
226.952
 30
0.000000
  70
    32
  0
VERTEX
  8
0
  5
141D
 10
160.949
 20
226.945
 30
0.000000
  70
    32
  0
VERTEX
  8
0
  5
141E
 10
160.976
 20
226.939
 30
0.000000
  70
    32
  0
VERTEX
  8
0
  5
141F
 10
161.003
 20
226.932
 30
0.000000
  70
    32
  0
VERTEX
  8
0
  5
1420
 10
161.029
 20
226.924
 30
0.000000
  70
    32
  0
VERTEX
  8
0
  5
1421
 10
161.056
 20
226.916
 30
0.000000
  70
    32
  0
VERTEX
  8
0
  5
1422
 10
161.081
 20
226.908
 30
0.000000
  70
    32
  0
VERTEX
  8
0
  5
1423
 10
161.107
 20
226.900
 30
0.000000
  70
    32
  0
VERTEX
  8
0
  5
1424
 10
161.132
 20
226.891
 30
0.000000
  70
    32
  0
VERTEX
  8
0
  5
1425
 10
161.156
 20
226.882
 30
0.000000
  70
    32
  0
VERTEX
  8
0
  5
1426
 10
161.180
 20
226.872
 30
0.000000
  70
    32
  0
VERTEX
  8
0
  5
1427
 10
161.204
 20
226.863
 30
0.000000
  70
    32
  0
VERTEX
  8
0
  5
1428
 10
161.227
 20
226.852
 30
0.000000
  70
    32
  0
VERTEX
  8
0
  5
1429
 10
161.250
 20
226.842
 30
0.000000
  70
    32
  0
VERTEX
  8
0
  5
142A
 10
161.272
 20
226.831
 30
0.000000
  70
    32
  0
VERTEX
  8
0
  5
142B
 10
161.294
 20
226.820
 30
0.000000
  70
    32
  0
VERTEX
  8
0
  5
142C
 10
161.315
 20
226.809
 30
0.000000
  70
    32
  0
VERTEX
  8
0
  5
142D
 10
161.336
 20
226.797
 30
0.000000
  70
    32
  0
VERTEX
  8
0
  5
142E
 10
161.356
 20
226.786
 30
0.000000
  70
    32
  0
VERTEX
  8
0
  5
142F
 10
161.376
 20
226.774
 30
0.000000
  70
    32
  0
VERTEX
  8
0
  5
1430
 10
161.395
 20
226.761
 30
0.000000
  70
    32
  0
VERTEX
  8
0
  5
1431
 10
161.414
 20
226.749
 30
0.000000
  70
    32
  0
VERTEX
  8
0
  5
1432
 10
161.432
 20
226.736
 30
0.000000
  70
    32
  0
VERTEX
  8
0
  5
1433
 10
161.449
 20
226.723
 30
0.000000
  70
    32
  0
VERTEX
  8
0
  5
1434
 10
161.466
 20
226.709
 30
0.000000
  70
    32
  0
VERTEX
  8
0
  5
1435
 10
161.482
 20
226.696
 30
0.000000
  70
    32
  0
VERTEX
  8
0
  5
1436
 10
161.498
 20
226.682
 30
0.000000
  70
    32
  0
VERTEX
  8
0
  5
1437
 10
161.513
 20
226.668
 30
0.000000
  70
    32
  0
VERTEX
  8
0
  5
1438
 10
161.527
 20
226.654
 30
0.000000
  70
    32
  0
VERTEX
  8
0
  5
1439
 10
161.541
 20
226.639
 30
0.000000
  70
    32
  0
VERTEX
  8
0
  5
143A
 10
161.554
 20
226.625
 30
0.000000
  70
    32
  0
VERTEX
  8
0
  5
143B
 10
161.567
 20
226.610
 30
0.000000
  70
    32
  0
VERTEX
  8
0
  5
143C
 10
161.578
 20
226.595
 30
0.000000
  70
    32
  0
VERTEX
  8
0
  5
143D
 10
161.589
 20
226.580
 30
0.000000
  70
    32
  0
VERTEX
  8
0
  5
143E
 10
161.600
 20
226.565
 30
0.000000
  70
    32
  0
VERTEX
  8
0
  5
143F
 10
161.609
 20
226.550
 30
0.000000
  70
    32
  0
VERTEX
  8
0
  5
1440
 10
161.618
 20
226.535
 30
0.000000
  70
    32
  0
VERTEX
  8
0
  5
1441
 10
161.627
 20
226.519
 30
0.000000
  70
    32
  0
VERTEX
  8
0
  5
1442
 10
161.634
 20
226.503
 30
0.000000
  70
    32
  0
VERTEX
  8
0
  5
1443
 10
161.641
 20
226.488
 30
0.000000
  70
    32
  0
VERTEX
  8
0
  5
1444
 10
161.647
 20
226.472
 30
0.000000
  70
    32
  0
VERTEX
  8
0
  5
1445
 10
161.653
 20
226.456
 30
0.000000
  70
    32
  0
VERTEX
  8
0
  5
1446
 10
161.658
 20
226.440
 30
0.000000
  70
    32
  0
VERTEX
  8
0
  5
1447
 10
161.662
 20
226.424
 30
0.000000
  70
    32
  0
VERTEX
  8
0
  5
1448
 10
161.665
 20
226.408
 30
0.000000
  70
    32
  0
VERTEX
  8
0
  5
1449
 10
161.667
 20
226.392
 30
0.000000
  70
    32
  0
VERTEX
  8
0
  5
144A
 10
161.669
 20
226.376
 30
0.000000
  70
    32
  0
VERTEX
  8
0
  5
144B
 10
161.670
 20
226.360
 30
0.000000
  70
    32
  0
VERTEX
  8
0
  5
144C
 10
161.671
 20
226.343
 30
0.000000
  70
    32
  0
VERTEX
  8
0
  5
144D
 10
161.670
 20
226.327
 30
0.000000
  70
    32
  0
VERTEX
  8
0
  5
144E
 10
161.669
 20
226.311
 30
0.000000
  70
    32
  0
VERTEX
  8
0
  5
144F
 10
161.667
 20
226.295
 30
0.000000
  70
    32
  0
VERTEX
  8
0
  5
1450
 10
161.665
 20
226.279
 30
0.000000
  70
    32
  0
VERTEX
  8
0
  5
1451
 10
161.662
 20
226.263
 30
0.000000
  70
    32
  0
VERTEX
  8
0
  5
1452
 10
161.658
 20
226.247
 30
0.000000
  70
    32
  0
VERTEX
  8
0
  5
1453
 10
161.653
 20
226.231
 30
0.000000
  70
    32
  0
VERTEX
  8
0
  5
1454
 10
161.647
 20
226.215
 30
0.000000
  70
    32
  0
VERTEX
  8
0
  5
1455
 10
161.641
 20
226.199
 30
0.000000
  70
    32
  0
VERTEX
  8
0
  5
1456
 10
161.634
 20
226.183
 30
0.000000
  70
    32
  0
VERTEX
  8
0
  5
1457
 10
161.627
 20
226.168
 30
0.000000
  70
    32
  0
VERTEX
  8
0
  5
1458
 10
161.618
 20
226.152
 30
0.000000
  70
    32
  0
VERTEX
  8
0
  5
1459
 10
161.609
 20
226.137
 30
0.000000
  70
    32
  0
VERTEX
  8
0
  5
145A
 10
161.600
 20
226.122
 30
0.000000
  70
    32
  0
VERTEX
  8
0
  5
145B
 10
161.589
 20
226.106
 30
0.000000
  70
    32
  0
VERTEX
  8
0
  5
145C
 10
161.578
 20
226.091
 30
0.000000
  70
    32
  0
VERTEX
  8
0
  5
145D
 10
161.567
 20
226.077
 30
0.000000
  70
    32
  0
VERTEX
  8
0
  5
145E
 10
161.554
 20
226.062
 30
0.000000
  70
    32
  0
VERTEX
  8
0
  5
145F
 10
161.541
 20
226.047
 30
0.000000
  70
    32
  0
VERTEX
  8
0
  5
1460
 10
161.527
 20
226.033
 30
0.000000
  70
    32
  0
VERTEX
  8
0
  5
1461
 10
161.513
 20
226.019
 30
0.000000
  70
    32
  0
VERTEX
  8
0
  5
1462
 10
161.498
 20
226.005
 30
0.000000
  70
    32
  0
VERTEX
  8
0
  5
1463
 10
161.482
 20
225.991
 30
0.000000
  70
    32
  0
VERTEX
  8
0
  5
1464
 10
161.466
 20
225.978
 30
0.000000
  70
    32
  0
VERTEX
  8
0
  5
1465
 10
161.449
 20
225.964
 30
0.000000
  70
    32
  0
VERTEX
  8
0
  5
1466
 10
161.432
 20
225.951
 30
0.000000
  70
    32
  0
VERTEX
  8
0
  5
1467
 10
161.414
 20
225.938
 30
0.000000
  70
    32
  0
VERTEX
  8
0
  5
1468
 10
161.395
 20
225.926
 30
0.000000
  70
    32
  0
VERTEX
  8
0
  5
1469
 10
161.376
 20
225.913
 30
0.000000
  70
    32
  0
VERTEX
  8
0
  5
146A
 10
161.356
 20
225.901
 30
0.000000
  70
    32
  0
VERTEX
  8
0
  5
146B
 10
161.336
 20
225.889
 30
0.000000
  70
    32
  0
VERTEX
  8
0
  5
146C
 10
161.315
 20
225.878
 30
0.000000
  70
    32
  0
VERTEX
  8
0
  5
146D
 10
161.294
 20
225.867
 30
0.000000
  70
    32
  0
VERTEX
  8
0
  5
146E
 10
161.272
 20
225.856
 30
0.000000
  70
    32
  0
VERTEX
  8
0
  5
146F
 10
161.250
 20
225.845
 30
0.000000
  70
    32
  0
VERTEX
  8
0
  5
1470
 10
161.227
 20
225.834
 30
0.000000
  70
    32
  0
VERTEX
  8
0
  5
1471
 10
161.204
 20
225.824
 30
0.000000
  70
    32
  0
VERTEX
  8
0
  5
1472
 10
161.180
 20
225.815
 30
0.000000
  70
    32
  0
VERTEX
  8
0
  5
1473
 10
161.156
 20
225.805
 30
0.000000
  70
    32
  0
VERTEX
  8
0
  5
1474
 10
161.132
 20
225.796
 30
0.000000
  70
    32
  0
VERTEX
  8
0
  5
1475
 10
161.107
 20
225.787
 30
0.000000
  70
    32
  0
VERTEX
  8
0
  5
1476
 10
161.081
 20
225.779
 30
0.000000
  70
    32
  0
VERTEX
  8
0
  5
1477
 10
161.056
 20
225.770
 30
0.000000
  70
    32
  0
VERTEX
  8
0
  5
1478
 10
161.029
 20
225.763
 30
0.000000
  70
    32
  0
VERTEX
  8
0
  5
1479
 10
161.003
 20
225.755
 30
0.000000
  70
    32
  0
VERTEX
  8
0
  5
147A
 10
160.976
 20
225.748
 30
0.000000
  70
    32
  0
VERTEX
  8
0
  5
147B
 10
160.949
 20
225.741
 30
0.000000
  70
    32
  0
VERTEX
  8
0
  5
147C
 10
160.922
 20
225.735
 30
0.000000
  70
    32
  0
VERTEX
  8
0
  5
147D
 10
160.894
 20
225.729
 30
0.000000
  70
    32
  0
VERTEX
  8
0
  5
147E
 10
160.866
 20
225.723
 30
0.000000
  70
    32
  0
VERTEX
  8
0
  5
147F
 10
160.838
 20
225.718
 30
0.000000
  70
    32
  0
VERTEX
  8
0
  5
1480
 10
160.810
 20
225.713
 30
0.000000
  70
    32
  0
VERTEX
  8
0
  5
1481
 10
160.781
 20
225.709
 30
0.000000
  70
    32
  0
VERTEX
  8
0
  5
1482
 10
160.752
 20
225.705
 30
0.000000
  70
    32
  0
VERTEX
  8
0
  5
1483
 10
160.723
 20
225.701
 30
0.000000
  70
    32
  0
VERTEX
  8
0
  5
1484
 10
160.694
 20
225.698
 30
0.000000
  70
    32
  0
VERTEX
  8
0
  5
1485
 10
160.665
 20
225.695
 30
0.000000
  70
    32
  0
VERTEX
  8
0
  5
1486
 10
160.636
 20
225.692
 30
0.000000
  70
    32
  0
VERTEX
  8
0
  5
1487
 10
160.606
 20
225.690
 30
0.000000
  70
    32
  0
VERTEX
  8
0
  5
1488
 10
160.576
 20
225.688
 30
0.000000
  70
    32
  0
VERTEX
  8
0
  5
1489
 10
160.547
 20
225.687
 30
0.000000
  70
    32
  0
VERTEX
  8
0
  5
148A
 10
160.517
 20
225.686
 30
0.000000
  70
    32
  0
VERTEX
  8
0
  5
148B
 10
160.487
 20
225.685
 30
0.000000
  70
    32
  0
VERTEX
  8
0
  5
148C
 10
160.458
 20
225.685
 30
0.000000
  70
    32
  0
SEQEND
  8
0
  5
148D
  0
LINE
  5
AFE
  8
0
 10
163.19387018685879
 20
228.3191241781453
 30
0.0
 11
162.19387018685879
 21
229.3191241781453
 31
0.0
1001
GENIUS_GENFIL_13
1070
     0
1040
1.0
1040
1.0
1040
20.0
1040
0.0
1002
{
1002
}
1001
GENIUS_GENODEF_13
1002
{
1000
HIER
1070
     0
1002
}
1002
{
1000
MANEDIT
1070
     0
1002
}
1002
{
1000
NOSEL
1070
     0
1002
}
1002
{
1000
BEHIND
1070
     0
1002
}
1002
{
1000
REACTOR
1002
}
1001
GENIUS_GENOBJ-N-CHA_13
1002
{
1000
OWNER
1000
GEN
1002
}
  0
LINE
  5
AFF
  8
0
 10
161.69857325339771
 20
228.90388146144821
 30
0.0
 11
161.69857325339771
 21
228.90449886578131
 31
0.0
  0
POLYLINE
  5
B00
  8
0
 10
160.52521638029856
 20
229.23063490419909
 30
0.0
 66
     1
 70
     8
  0
VERTEX
  8
0
  5
148E
 10
160.525
 20
229.231
 30
0.000000
  70
    32
  0
VERTEX
  8
0
  5
148F
 10
160.555
 20
229.230
 30
0.000000
  70
    32
  0
VERTEX
  8
0
  5
1490
 10
160.584
 20
229.230
 30
0.000000
  70
    32
  0
VERTEX
  8
0
  5
1491
 10
160.613
 20
229.229
 30
0.000000
  70
    32
  0
VERTEX
  8
0
  5
1492
 10
160.643
 20
229.228
 30
0.000000
  70
    32
  0
VERTEX
  8
0
  5
1493
 10
160.672
 20
229.227
 30
0.000000
  70
    32
  0
VERTEX
  8
0
  5
1494
 10
160.701
 20
229.225
 30
0.000000
  70
    32
  0
VERTEX
  8
0
  5
1495
 10
160.730
 20
229.224
 30
0.000000
  70
    32
  0
VERTEX
  8
0
  5
1496
 10
160.759
 20
229.222
 30
0.000000
  70
    32
  0
VERTEX
  8
0
  5
1497
 10
160.787
 20
229.220
 30
0.000000
  70
    32
  0
VERTEX
  8
0
  5
1498
 10
160.816
 20
229.218
 30
0.000000
  70
    32
  0
VERTEX
  8
0
  5
1499
 10
160.844
 20
229.216
 30
0.000000
  70
    32
  0
VERTEX
  8
0
  5
149A
 10
160.872
 20
229.213
 30
0.000000
  70
    32
  0
VERTEX
  8
0
  5
149B
 10
160.900
 20
229.210
 30
0.000000
  70
    32
  0
VERTEX
  8
0
  5
149C
 10
160.927
 20
229.207
 30
0.000000
  70
    32
  0
VERTEX
  8
0
  5
149D
 10
160.955
 20
229.204
 30
0.000000
  70
    32
  0
VERTEX
  8
0
  5
149E
 10
160.982
 20
229.201
 30
0.000000
  70
    32
  0
VERTEX
  8
0
  5
149F
 10
161.008
 20
229.197
 30
0.000000
  70
    32
  0
VERTEX
  8
0
  5
14A0
 10
161.035
 20
229.194
 30
0.000000
  70
    32
  0
VERTEX
  8
0
  5
14A1
 10
161.061
 20
229.190
 30
0.000000
  70
    32
  0
VERTEX
  8
0
  5
14A2
 10
161.087
 20
229.186
 30
0.000000
  70
    32
  0
VERTEX
  8
0
  5
14A3
 10
161.112
 20
229.182
 30
0.000000
  70
    32
  0
VERTEX
  8
0
  5
14A4
 10
161.137
 20
229.177
 30
0.000000
  70
    32
  0
VERTEX
  8
0
  5
14A5
 10
161.162
 20
229.173
 30
0.000000
  70
    32
  0
VERTEX
  8
0
  5
14A6
 10
161.186
 20
229.168
 30
0.000000
  70
    32
  0
VERTEX
  8
0
  5
14A7
 10
161.210
 20
229.163
 30
0.000000
  70
    32
  0
VERTEX
  8
0
  5
14A8
 10
161.233
 20
229.158
 30
0.000000
  70
    32
  0
VERTEX
  8
0
  5
14A9
 10
161.256
 20
229.153
 30
0.000000
  70
    32
  0
VERTEX
  8
0
  5
14AA
 10
161.279
 20
229.147
 30
0.000000
  70
    32
  0
VERTEX
  8
0
  5
14AB
 10
161.301
 20
229.142
 30
0.000000
  70
    32
  0
VERTEX
  8
0
  5
14AC
 10
161.323
 20
229.136
 30
0.000000
  70
    32
  0
VERTEX
  8
0
  5
14AD
 10
161.344
 20
229.130
 30
0.000000
  70
    32
  0
VERTEX
  8
0
  5
14AE
 10
161.364
 20
229.124
 30
0.000000
  70
    32
  0
VERTEX
  8
0
  5
14AF
 10
161.384
 20
229.118
 30
0.000000
  70
    32
  0
VERTEX
  8
0
  5
14B0
 10
161.404
 20
229.112
 30
0.000000
  70
    32
  0
VERTEX
  8
0
  5
14B1
 10
161.423
 20
229.106
 30
0.000000
  70
    32
  0
VERTEX
  8
0
  5
14B2
 10
161.441
 20
229.099
 30
0.000000
  70
    32
  0
VERTEX
  8
0
  5
14B3
 10
161.459
 20
229.093
 30
0.000000
  70
    32
  0
VERTEX
  8
0
  5
14B4
 10
161.476
 20
229.086
 30
0.000000
  70
    32
  0
VERTEX
  8
0
  5
14B5
 10
161.493
 20
229.079
 30
0.000000
  70
    32
  0
VERTEX
  8
0
  5
14B6
 10
161.509
 20
229.072
 30
0.000000
  70
    32
  0
VERTEX
  8
0
  5
14B7
 10
161.525
 20
229.065
 30
0.000000
  70
    32
  0
VERTEX
  8
0
  5
14B8
 10
161.540
 20
229.058
 30
0.000000
  70
    32
  0
VERTEX
  8
0
  5
14B9
 10
161.554
 20
229.051
 30
0.000000
  70
    32
  0
VERTEX
  8
0
  5
14BA
 10
161.567
 20
229.043
 30
0.000000
  70
    32
  0
VERTEX
  8
0
  5
14BB
 10
161.580
 20
229.036
 30
0.000000
  70
    32
  0
VERTEX
  8
0
  5
14BC
 10
161.593
 20
229.028
 30
0.000000
  70
    32
  0
VERTEX
  8
0
  5
14BD
 10
161.605
 20
229.021
 30
0.000000
  70
    32
  0
VERTEX
  8
0
  5
14BE
 10
161.616
 20
229.013
 30
0.000000
  70
    32
  0
VERTEX
  8
0
  5
14BF
 10
161.626
 20
229.005
 30
0.000000
  70
    32
  0
VERTEX
  8
0
  5
14C0
 10
161.636
 20
228.997
 30
0.000000
  70
    32
  0
VERTEX
  8
0
  5
14C1
 10
161.645
 20
228.989
 30
0.000000
  70
    32
  0
VERTEX
  8
0
  5
14C2
 10
161.653
 20
228.981
 30
0.000000
  70
    32
  0
VERTEX
  8
0
  5
14C3
 10
161.661
 20
228.973
 30
0.000000
  70
    32
  0
VERTEX
  8
0
  5
14C4
 10
161.668
 20
228.965
 30
0.000000
  70
    32
  0
VERTEX
  8
0
  5
14C5
 10
161.674
 20
228.957
 30
0.000000
  70
    32
  0
VERTEX
  8
0
  5
14C6
 10
161.680
 20
228.949
 30
0.000000
  70
    32
  0
VERTEX
  8
0
  5
14C7
 10
161.684
 20
228.941
 30
0.000000
  70
    32
  0
VERTEX
  8
0
  5
14C8
 10
161.689
 20
228.933
 30
0.000000
  70
    32
  0
VERTEX
  8
0
  5
14C9
 10
161.692
 20
228.924
 30
0.000000
  70
    32
  0
VERTEX
  8
0
  5
14CA
 10
161.695
 20
228.916
 30
0.000000
  70
    32
  0
VERTEX
  8
0
  5
14CB
 10
161.697
 20
228.908
 30
0.000000
  70
    32
  0
VERTEX
  8
0
  5
14CC
 10
161.698
 20
228.899
 30
0.000000
  70
    32
  0
VERTEX
  8
0
  5
14CD
 10
161.699
 20
228.891
 30
0.000000
  70
    32
  0
VERTEX
  8
0
  5
14CE
 10
161.699
 20
228.883
 30
0.000000
  70
    32
  0
VERTEX
  8
0
  5
14CF
 10
161.698
 20
228.874
 30
0.000000
  70
    32
  0
VERTEX
  8
0
  5
14D0
 10
161.696
 20
228.866
 30
0.000000
  70
    32
  0
VERTEX
  8
0
  5
14D1
 10
161.694
 20
228.858
 30
0.000000
  70
    32
  0
VERTEX
  8
0
  5
14D2
 10
161.691
 20
228.850
 30
0.000000
  70
    32
  0
VERTEX
  8
0
  5
14D3
 10
161.687
 20
228.841
 30
0.000000
  70
    32
  0
VERTEX
  8
0
  5
14D4
 10
161.683
 20
228.833
 30
0.000000
  70
    32
  0
VERTEX
  8
0
  5
14D5
 10
161.678
 20
228.825
 30
0.000000
  70
    32
  0
VERTEX
  8
0
  5
14D6
 10
161.672
 20
228.817
 30
0.000000
  70
    32
  0
VERTEX
  8
0
  5
14D7
 10
161.665
 20
228.809
 30
0.000000
  70
    32
  0
VERTEX
  8
0
  5
14D8
 10
161.658
 20
228.801
 30
0.000000
  70
    32
  0
VERTEX
  8
0
  5
14D9
 10
161.650
 20
228.793
 30
0.000000
  70
    32
  0
VERTEX
  8
0
  5
14DA
 10
161.642
 20
228.785
 30
0.000000
  70
    32
  0
VERTEX
  8
0
  5
14DB
 10
161.632
 20
228.777
 30
0.000000
  70
    32
  0
VERTEX
  8
0
  5
14DC
 10
161.622
 20
228.769
 30
0.000000
  70
    32
  0
VERTEX
  8
0
  5
14DD
 10
161.612
 20
228.761
 30
0.000000
  70
    32
  0
VERTEX
  8
0
  5
14DE
 10
161.601
 20
228.753
 30
0.000000
  70
    32
  0
VERTEX
  8
0
  5
14DF
 10
161.589
 20
228.746
 30
0.000000
  70
    32
  0
VERTEX
  8
0
  5
14E0
 10
161.576
 20
228.738
 30
0.000000
  70
    32
  0
VERTEX
  8
0
  5
14E1
 10
161.563
 20
228.731
 30
0.000000
  70
    32
  0
VERTEX
  8
0
  5
14E2
 10
161.549
 20
228.724
 30
0.000000
  70
    32
  0
VERTEX
  8
0
  5
14E3
 10
161.534
 20
228.716
 30
0.000000
  70
    32
  0
VERTEX
  8
0
  5
14E4
 10
161.519
 20
228.709
 30
0.000000
  70
    32
  0
VERTEX
  8
0
  5
14E5
 10
161.504
 20
228.702
 30
0.000000
  70
    32
  0
VERTEX
  8
0
  5
14E6
 10
161.487
 20
228.695
 30
0.000000
  70
    32
  0
VERTEX
  8
0
  5
14E7
 10
161.470
 20
228.688
 30
0.000000
  70
    32
  0
VERTEX
  8
0
  5
14E8
 10
161.453
 20
228.682
 30
0.000000
  70
    32
  0
VERTEX
  8
0
  5
14E9
 10
161.435
 20
228.675
 30
0.000000
  70
    32
  0
VERTEX
  8
0
  5
14EA
 10
161.416
 20
228.669
 30
0.000000
  70
    32
  0
VERTEX
  8
0
  5
14EB
 10
161.397
 20
228.662
 30
0.000000
  70
    32
  0
VERTEX
  8
0
  5
14EC
 10
161.377
 20
228.656
 30
0.000000
  70
    32
  0
VERTEX
  8
0
  5
14ED
 10
161.357
 20
228.650
 30
0.000000
  70
    32
  0
VERTEX
  8
0
  5
14EE
 10
161.336
 20
228.644
 30
0.000000
  70
    32
  0
VERTEX
  8
0
  5
14EF
 10
161.315
 20
228.639
 30
0.000000
  70
    32
  0
VERTEX
  8
0
  5
14F0
 10
161.293
 20
228.633
 30
0.000000
  70
    32
  0
VERTEX
  8
0
  5
14F1
 10
161.271
 20
228.627
 30
0.000000
  70
    32
  0
VERTEX
  8
0
  5
14F2
 10
161.248
 20
228.622
 30
0.000000
  70
    32
  0
VERTEX
  8
0
  5
14F3
 10
161.225
 20
228.617
 30
0.000000
  70
    32
  0
VERTEX
  8
0
  5
14F4
 10
161.202
 20
228.612
 30
0.000000
  70
    32
  0
VERTEX
  8
0
  5
14F5
 10
161.178
 20
228.607
 30
0.000000
  70
    32
  0
VERTEX
  8
0
  5
14F6
 10
161.153
 20
228.603
 30
0.000000
  70
    32
  0
VERTEX
  8
0
  5
14F7
 10
161.128
 20
228.598
 30
0.000000
  70
    32
  0
VERTEX
  8
0
  5
14F8
 10
161.103
 20
228.594
 30
0.000000
  70
    32
  0
VERTEX
  8
0
  5
14F9
 10
161.078
 20
228.590
 30
0.000000
  70
    32
  0
VERTEX
  8
0
  5
14FA
 10
161.052
 20
228.586
 30
0.000000
  70
    32
  0
VERTEX
  8
0
  5
14FB
 10
161.026
 20
228.582
 30
0.000000
  70
    32
  0
VERTEX
  8
0
  5
14FC
 10
160.999
 20
228.578
 30
0.000000
  70
    32
  0
VERTEX
  8
0
  5
14FD
 10
160.972
 20
228.575
 30
0.000000
  70
    32
  0
VERTEX
  8
0
  5
14FE
 10
160.945
 20
228.572
 30
0.000000
  70
    32
  0
VERTEX
  8
0
  5
14FF
 10
160.918
 20
228.568
 30
0.000000
  70
    32
  0
VERTEX
  8
0
  5
1500
 10
160.890
 20
228.566
 30
0.000000
  70
    32
  0
VERTEX
  8
0
  5
1501
 10
160.862
 20
228.563
 30
0.000000
  70
    32
  0
VERTEX
  8
0
  5
1502
 10
160.834
 20
228.560
 30
0.000000
  70
    32
  0
VERTEX
  8
0
  5
1503
 10
160.806
 20
228.558
 30
0.000000
  70
    32
  0
VERTEX
  8
0
  5
1504
 10
160.777
 20
228.556
 30
0.000000
  70
    32
  0
VERTEX
  8
0
  5
1505
 10
160.749
 20
228.554
 30
0.000000
  70
    32
  0
VERTEX
  8
0
  5
1506
 10
160.720
 20
228.552
 30
0.000000
  70
    32
  0
VERTEX
  8
0
  5
1507
 10
160.691
 20
228.551
 30
0.000000
  70
    32
  0
VERTEX
  8
0
  5
1508
 10
160.662
 20
228.550
 30
0.000000
  70
    32
  0
VERTEX
  8
0
  5
1509
 10
160.632
 20
228.549
 30
0.000000
  70
    32
  0
VERTEX
  8
0
  5
150A
 10
160.603
 20
228.548
 30
0.000000
  70
    32
  0
VERTEX
  8
0
  5
150B
 10
160.574
 20
228.547
 30
0.000000
  70
    32
  0
VERTEX
  8
0
  5
150C
 10
160.544
 20
228.546
 30
0.000000
  70
    32
  0
VERTEX
  8
0
  5
150D
 10
160.515
 20
228.546
 30
0.000000
  70
    32
  0
VERTEX
  8
0
  5
150E
 10
160.485
 20
228.546
 30
0.000000
  70
    32
  0
SEQEND
  8
0
  5
150F
  0
LINE
  5
B01
  8
0
 10
150.77685902761991
 20
225.68492934163871
 30
0.0
 11
150.77685902761991
 21
223.49193324432159
 31
0.0
  0
ARC
  5
B02
  8
0
 10
151.1290223429331
 20
217.727496180423
 30
0.0
 40
1.1641633157064071
 50
107.6080229805555
 51
252.39197701943081
  0
ARC
  5
B03
  8
0
 10
150.8888949499545
 20
222.5714302628505
 30
0.0
 40
0.9272959542617094
 50
96.939431023527305
 51
263.06056897654491
  0
LINE
  5
B04
  8
0
 10
150.77685902761991
 20
221.6509272813793
 30
0.0
 11
150.77685902761951
 21
218.83711648709701
 31
0.0
  0
ARC
  5
B05
  8
0
 10
152.67652838394821
 20
224.38724289913051
 30
0.0
 40
3.231924233102454
 50
125.99982372209919
 51
136.1317660576149
  0
ARC
  5
B06
  8
0
 10
151.3861334574448
 20
223.9884071319677
 30
0.0
 40
1.8026100351283409
 50
109.7548078776714
 51
124.6939180805755
  0
ARC
  5
B07
  8
0
 10
150.26745681229511
 20
225.76058520856461
 30
0.0
 40
0.3044999999695499
 50
185.57711212173629
 51
287.71321735499703
1001
GENIUS_GENODEF_13
1002
{
1000
HIER
1070
     0
1002
}
1002
{
1000
MANEDIT
1070
     0
1002
}
1002
{
1000
NOSEL
1070
     0
1002
}
1002
{
1000
BEHIND
1070
     0
1002
}
1002
{
1000
REACTOR
1002
}
1001
GENIUS_GENOBJ-N-FIL_13
1002
{
1000
OWNER
1000
GEN
1002
}
  0
ARC
  5
B08
  8
0
 10
150.97459351972509
 20
225.82963538527719
 30
0.0
 40
1.0149999998984991
 50
128.22797129025031
 51
180.0
1001
GENIUS_GENODEF_13
1002
{
1000
HIER
1070
     0
1002
}
1002
{
1000
MANEDIT
1070
     0
1002
}
1002
{
1000
NOSEL
1070
     0
1002
}
1002
{
1000
BEHIND
1070
     0
1002
}
1002
{
1000
REACTOR
1002
}
1001
GENIUS_GENOBJ-N-FIL_13
1002
{
1000
OWNER
1000
GEN
1002
}
  0
LINE
  5
B09
  8
0
 10
149.96439822339639
 20
225.73099227568741
 30
0.0
 11
149.9595935198264
 21
225.82963538527719
 31
0.0
  0
LINE
  5
B0A
  8
0
 10
150.6938702024901
 20
229.3191241781453
 30
0.0
 11
149.1938702024901
 21
227.8191241781453
 31
0.0
1001
GENIUS_GENFIL_13
1070
     0
1040
1.5
1040
1.5
1040
20.0
1040
0.0
1002
{
1002
}
1001
GENIUS_GENODEF_13
1002
{
1000
HIER
1070
     0
1002
}
1002
{
1000
MANEDIT
1070
     0
1002
}
1002
{
1000
NOSEL
1070
     0
1002
}
1002
{
1000
BEHIND
1070
     0
1002
}
1002
{
1000
REACTOR
1002
}
1001
GENIUS_GENOBJ-N-CHA_13
1002
{
1000
OWNER
1000
GEN
1002
}
  0
ARC
  5
B0B
  8
0
 10
151.14557880215111
 20
226.70057273346649
 30
0.0
 40
1.6964505739908811
 50
102.5533032395566
 51
124.2421754099238
  0
ARC
  5
B0C
  8
0
 10
150.86851701471809
 20
228.0278029859748
 30
0.0
 40
1.0149999998984991
 50
91.038560809579295
 51
95.181063751371042
1001
GENIUS_GENODEF_13
1002
{
1000
HIER
1070
     0
1002
}
1002
{
1000
MANEDIT
1070
     0
1002
}
1002
{
1000
NOSEL
1070
     0
1002
}
1002
{
1000
BEHIND
1070
     0
1002
}
1002
{
1000
REACTOR
1002
}
1001
GENIUS_GENOBJ-N-FIL_13
1002
{
1000
OWNER
1000
GEN
1002
}
  0
ARC
  5
B0D
  8
0
 10
151.93326396611391
 20
226.8141067951062
 30
0.0
 40
2.5071680320029488
 50
117.46711936526479
 51
140.27625467007721
  0
ARC
  5
B0E
  8
0
 10
150.15216386215781
 20
228.2918709697735
 30
0.0
 40
0.192849999980715
 50
139.7778736265154
 51
281.61754003648321
1001
GENIUS_GENODEF_13
1002
{
1000
HIER
1070
     0
1002
}
1002
{
1000
MANEDIT
1070
     0
1002
}
1002
{
1000
NOSEL
1070
     0
1002
}
1002
{
1000
BEHIND
1070
     0
1002
}
1002
{
1000
REACTOR
1002
}
1001
GENIUS_GENOBJ-N-FIL_13
1002
{
1000
OWNER
1000
GEN
1002
}
  0
LINE
  5
B0F
  8
0
 10
150.77685902762039
 20
228.3564683454735
 30
0.0
 11
150.77685902762039
 21
227.00193037282881
 31
0.0
  0
LINE
  5
B10
  8
0
 10
150.6938702024901
 20
229.3191241781453
 30
0.0
 11
162.19387018685879
 21
229.3191241781453
 31
0.0
  0
LINE
  5
B11
  8
0
 10
163.19387018685879
 20
190.31912417814519
 30
0.0
 11
162.19387018685879
 21
189.3191241781453
 31
0.0
1001
GENIUS_GENFIL_13
1070
     0
1040
1.0
1040
1.0
1040
20.0
1040
0.0
1002
{
1002
}
1001
GENIUS_GENODEF_13
1002
{
1000
HIER
1070
     0
1002
}
1002
{
1000
MANEDIT
1070
     0
1002
}
1002
{
1000
NOSEL
1070
     0
1002
}
1002
{
1000
BEHIND
1070
     0
1002
}
1002
{
1000
REACTOR
1002
}
1001
GENIUS_GENOBJ-N-CHA_13
1002
{
1000
OWNER
1000
GEN
1002
}
  0
LINE
  5
B12
  8
0
 10
150.6938702024901
 20
189.3191241781453
 30
0.0
 11
162.19387018685879
 21
189.3191241781453
 31
0.0
  0
LINE
  5
B13
  8
0
 10
150.6938702024901
 20
189.3191241781453
 30
0.0
 11
149.1938702024901
 21
190.8191241781453
 31
0.0
1001
GENIUS_GENFIL_13
1070
     0
1040
1.5
1040
1.5
1040
20.0
1040
0.0
1002
{
1002
}
1001
GENIUS_GENODEF_13
1002
{
1000
HIER
1070
     0
1002
}
1002
{
1000
MANEDIT
1070
     0
1002
}
1002
{
1000
NOSEL
1070
     0
1002
}
1002
{
1000
BEHIND
1070
     0
1002
}
1002
{
1000
REACTOR
1002
}
1001
GENIUS_GENOBJ-N-CHA_13
1002
{
1000
OWNER
1000
GEN
1002
}
  0
LINE
  5
B14
  8
0
 10
163.1938701868589
 20
218.8191241781453
 30
0.0
 11
174.393870186859
 21
218.8191241781453
 31
0.0
  0
LINE
  5
B15
  8
0
 10
163.1938701868589
 20
199.81912417814519
 30
0.0
 11
174.393870186859
 21
199.81912417814519
 31
0.0
  0
LINE
  5
B16
  8
0
 10
174.393870186859
 20
199.81912417814519
 30
0.0
 11
175.893870186859
 21
201.3191241781453
 31
0.0
1001
GENIUS_GENFIL_13
1070
     0
1040
1.5
1040
1.5
1040
20.0
1040
0.0
1002
{
1002
}
1001
GENIUS_GENODEF_13
1002
{
1000
HIER
1070
     0
1002
}
1002
{
1000
MANEDIT
1070
     0
1002
}
1002
{
1000
NOSEL
1070
     0
1002
}
1002
{
1000
BEHIND
1070
     0
1002
}
1002
{
1000
REACTOR
1002
}
1001
GENIUS_GENOBJ-N-CHA_13
1002
{
1000
OWNER
1000
GEN
1002
}
  0
LINE
  5
B17
  8
2
 10
176.1938701868591
 20
214.3191241781453
 30
0.0
 11
156.1938701868591
 21
214.3191241781453
 31
0.0
  0
LINE
  5
B18
  8
2
 10
176.1938701868591
 20
213.5071241781454
 30
0.0
 11
156.1938701868591
 21
213.5071241781454
 31
0.0
  0
LINE
  5
B19
  8
2
 10
176.1938701868591
 20
205.1311241781452
 30
0.0
 11
156.1938701868591
 21
205.1311241781452
 31
0.0
  0
LINE
  5
B1A
  8
2
 10
176.1938701868591
 20
204.3191241781453
 30
0.0
 11
156.1938701868591
 21
204.3191241781453
 31
0.0
  0
LINE
  5
B1B
  8
2
 10
154.47187019668439
 20
221.8191241781453
 30
0.0
 11
149.19387020248999
 21
226.5691241781453
 31
0.0
  0
LINE
  5
B1C
  8
2
 10
154.47187019668439
 20
196.8191241781453
 30
0.0
 11
149.19387020248999
 21
192.0691241781453
 31
0.0
  0
CIRCLE
  5
B1D
  8
0
 10
89.193870202490075
 20
139.31912417814519
 30
0.0
 40
12.499999999995
  0
CIRCLE
  5
B1E
  8
0
 10
89.193870202490075
 20
139.31912417814519
 30
0.0
 40
6.9999999999948841
  0
CIRCLE
  5
B1F
  8
0
 10
89.193870202490075
 20
139.31912417814519
 30
0.0
 40
17.24999999999498
  0
LINE
  5
B20
  8
2
 10
154.47187019668439
 20
126.8191241781452
 30
0.0
 11
149.19387020248999
 21
122.0691241781453
 31
0.0
  0
LINE
  5
B21
  8
2
 10
154.47187019668439
 20
151.81912417814519
 30
0.0
 11
149.19387020248999
 21
156.56912417814519
 31
0.0
  0
CIRCLE
  5
B22
  8
0
 10
236.1938701868591
 20
139.31912417814519
 30
0.0
 40
18.999999999994539
  0
LINE
  5
B23
  8
1
 10
261.1938701868591
 20
139.31912417814519
 30
0.0
 11
211.1938701868591
 21
139.31912417814519
 31
0.0
  0
LINE
  5
B24
  8
1
 10
236.1938701868591
 20
164.31912417814519
 30
0.0
 11
236.1938701868591
 21
114.3191241781453
 31
0.0
  0
LINE
  5
B25
  8
1
 10
114.19387020249
 20
139.31912417814519
 30
0.0
 11
64.193870202490075
 21
139.31912417814519
 31
0.0
  0
LINE
  5
B26
  8
1
 10
89.193870202490075
 20
164.31912417814519
 30
0.0
 11
89.193870202490075
 21
114.3191241781452
 31
0.0
  0
CIRCLE
  5
B27
  8
0
 10
89.193870202490075
 20
139.31912417814519
 30
0.0
 40
4.1879999999950854
  0
CIRCLE
  5
B28
  8
3
 10
89.193870202490075
 20
139.31912417814021
 30
0.0
 40
5.0
  0
CIRCLE
  5
B29
  8
0
 10
236.1938701868591
 20
139.31912417814519
 30
0.0
 40
9.4999999999950102
  0
CIRCLE
  5
B2A
  8
0
 10
236.1938701868591
 20
139.31912417814021
 30
0.0
 40
8.0000000000000142
  0
CIRCLE
  5
B2B
  8
0
 10
236.1938701868591
 20
139.31912417814021
 30
0.0
 40
7.0
  0
CIRCLE
  5
B2C
  8
3
 10
236.1938701868591
 20
139.31912417814021
 30
0.0
 40
5.0
  0
CIRCLE
  5
B2D
  8
0
 10
236.1938701868591
 20
139.31912417814519
 30
0.0
 40
4.1879999999950854
  0
LINE
  5
B2E
  8
2
 10
176.1938701868591
 20
134.31912417814519
 30
0.0
 11
156.1938701868591
 21
134.31912417814519
 31
0.0
  0
LINE
  5
B2F
  8
2
 10
176.1938701868591
 20
135.13112417814509
 30
0.0
 11
156.1938701868591
 21
135.13112417814509
 31
0.0
  0
LINE
  5
B30
  8
2
 10
176.1938701868591
 20
143.50712417814529
 30
0.0
 11
156.1938701868591
 21
143.50712417814529
 31
0.0
  0
LINE
  5
B31
  8
2
 10
176.1938701868591
 20
144.3191241781453
 30
0.0
 11
156.1938701868591
 21
144.3191241781453
 31
0.0
  0
LINE
  5
B32
  8
0
 10
174.393870186859
 20
129.81912417814519
 30
0.0
 11
175.893870186859
 21
131.3191241781453
 31
0.0
1001
GENIUS_GENFIL_13
1070
     0
1040
1.5
1040
1.5
1040
20.0
1040
0.0
1002
{
1002
}
1001
GENIUS_GENODEF_13
1002
{
1000
HIER
1070
     0
1002
}
1002
{
1000
MANEDIT
1070
     0
1002
}
1002
{
1000
NOSEL
1070
     0
1002
}
1002
{
1000
BEHIND
1070
     0
1002
}
1002
{
1000
REACTOR
1002
}
1001
GENIUS_GENOBJ-N-CHA_13
1002
{
1000
OWNER
1000
GEN
1002
}
  0
LINE
  5
B33
  8
0
 10
163.1938701868589
 20
129.81912417814519
 30
0.0
 11
174.393870186859
 21
129.81912417814519
 31
0.0
  0
LINE
  5
B34
  8
0
 10
163.1938701868589
 20
148.81912417814519
 30
0.0
 11
174.393870186859
 21
148.81912417814519
 31
0.0
  0
LINE
  5
B35
  8
0
 10
150.6938702024901
 20
119.3191241781452
 30
0.0
 11
149.1938702024901
 21
120.8191241781452
 31
0.0
1001
GENIUS_GENFIL_13
1070
     0
1040
1.5
1040
1.5
1040
20.0
1040
0.0
1002
{
1002
}
1001
GENIUS_GENODEF_13
1002
{
1000
HIER
1070
     0
1002
}
1002
{
1000
MANEDIT
1070
     0
1002
}
1002
{
1000
NOSEL
1070
     0
1002
}
1002
{
1000
BEHIND
1070
     0
1002
}
1002
{
1000
REACTOR
1002
}
1001
GENIUS_GENOBJ-N-CHA_13
1002
{
1000
OWNER
1000
GEN
1002
}
  0
LINE
  5
B36
  8
0
 10
150.6938702024901
 20
119.3191241781452
 30
0.0
 11
162.19387018685879
 21
119.3191241781452
 31
0.0
  0
LINE
  5
B37
  8
0
 10
163.19387018685879
 20
120.3191241781452
 30
0.0
 11
162.19387018685879
 21
119.3191241781452
 31
0.0
1001
GENIUS_GENFIL_13
1070
     0
1040
1.0
1040
1.0
1040
20.0
1040
0.0
1002
{
1002
}
1001
GENIUS_GENODEF_13
1002
{
1000
HIER
1070
     0
1002
}
1002
{
1000
MANEDIT
1070
     0
1002
}
1002
{
1000
NOSEL
1070
     0
1002
}
1002
{
1000
BEHIND
1070
     0
1002
}
1002
{
1000
REACTOR
1002
}
1001
GENIUS_GENOBJ-N-CHA_13
1002
{
1000
OWNER
1000
GEN
1002
}
  0
LINE
  5
B38
  8
0
 10
150.6938702024901
 20
159.31912417814519
 30
0.0
 11
162.19387018685879
 21
159.31912417814519
 31
0.0
  0
ARC
  5
B39
  8
0
 10
73.413605818157407
 20
152.99280110400301
 30
0.0
 40
1.369999999862999
 50
270.52847330303752
 51
7.6533448787823541
  0
ARC
  5
B3A
  8
0
 10
77.905137365689257
 20
156.8847353446123
 30
0.0
 40
1.369999999862999
 50
254.16483693940819
 51
351.28970851514049
  0
ARC
  5
B3B
  8
0
 10
70.200497442197843
 20
147.99310687934911
 30
0.0
 40
1.369999999862999
 50
286.89210966670151
 51
24.016981242391559
  0
ARC
  5
B3C
  8
0
 10
70.200497442198284
 20
130.64514147694189
 30
0.0
 40
1.369999999862999
 50
335.98301875758079
 51
73.107890333331
  0
ARC
  5
B3D
  8
0
 10
68.526119169340632
 20
136.34755019388621
 30
0.0
 40
1.369999999862999
 50
319.6193823939451
 51
56.744253969689197
  0
ARC
  5
B3E
  8
0
 10
68.526119169340859
 20
142.29069816240431
 30
0.0
 40
1.369999999862999
 50
303.25574603029901
 51
40.380617606062437
  0
ARC
  5
B3F
  8
0
 10
73.413605818157407
 20
125.6454472522875
 30
0.0
 40
1.369999999862999
 50
352.34665512121768
 51
89.471526696962485
  0
ARC
  5
B40
  8
0
 10
77.905137365689484
 20
121.75351301167819
 30
0.0
 40
1.369999999862999
 50
8.710291484853073
 51
105.8351630605985
  0
ARC
  5
B41
  8
0
 10
89.19387020248962
 20
160.19940637720049
 30
0.0
 40
1.369999999862999
 50
221.4375642121413
 51
318.56243578785882
  0
ARC
  5
B42
  8
0
 10
95.076525494000975
 20
159.35360823522629
 30
0.0
 40
1.369999999862999
 50
205.0739278484933
 51
302.19879942423069
  0
ARC
  5
B43
  8
0
 10
104.9741345868225
 20
152.99280110400349
 30
0.0
 40
1.369999999862999
 50
172.3466551212243
 51
269.47152669695589
  0
ARC
  5
B44
  8
0
 10
100.48260303929059
 20
156.8847353446123
 30
0.0
 40
1.369999999862999
 50
188.71029148485309
 51
285.83516306059852
  0
ARC
  5
B45
  8
0
 10
108.1872429627818
 20
147.99310687934951
 30
0.0
 40
1.369999999862999
 50
155.9830187576018
 51
253.107890333314
  0
ARC
  5
B46
  8
0
 10
109.8616212356395
 20
142.29069816240431
 30
0.0
 40
1.369999999862999
 50
139.61938239394499
 51
236.7442539696892
  0
ARC
  5
B47
  8
0
 10
109.86162123564
 20
136.3475501938866
 30
0.0
 40
1.369999999862999
 50
123.25574603033419
 51
220.3806176060325
  0
ARC
  5
B48
  8
0
 10
108.18724296278231
 20
130.64514147694189
 30
0.0
 40
1.369999999862999
 50
106.89210966668939
 51
204.01698124239809
  0
ARC
  5
B49
  8
0
 10
89.193870202490075
 20
118.43884197909
 30
0.0
 40
1.369999999862999
 50
41.437564212141247
 51
138.5624357878587
  0
ARC
  5
B4A
  8
0
 10
95.076525494000521
 20
119.2846401210637
 30
0.0
 40
1.369999999862999
 50
57.801200575782872
 51
154.92607215149209
  0
ARC
  5
B4B
  8
0
 10
104.9741345868229
 20
125.6454472522875
 30
0.0
 40
1.369999999862999
 50
90.528473303047264
 51
187.6533448787757
  0
ARC
  5
B4C
  8
0
 10
100.48260303929089
 20
121.75351301167819
 30
0.0
 40
1.369999999862999
 50
74.164836939408175
 51
171.28970851514049
  0
CIRCLE
  5
B4D
  8
0
 10
89.193870202490075
 20
139.31912417814519
 30
0.0
 40
18.502408086044621
  0
CIRCLE
  5
B4E
  8
0
 10
89.193870202490075
 20
139.31912417814519
 30
0.0
 40
20.0
  0
ARC
  5
B4F
  8
0
 10
83.311214910979629
 20
119.2846401210642
 30
0.0
 40
1.369999999862999
 50
25.073927848486068
 51
122.19879942424021
  0
ARC
  5
B50
  8
0
 10
83.311214910979629
 20
159.35360823522629
 30
0.0
 40
1.369999999862999
 50
237.80120057575979
 51
334.92607215151401
  0
LINE
  5
B51
  8
0
 10
150.77685902762039
 20
158.3564683454735
 30
0.0
 11
150.77685902762039
 21
157.00193037282881
 31
0.0
  0
ARC
  5
B52
  8
0
 10
150.15216386215781
 20
158.29187096977341
 30
0.0
 40
0.192849999980715
 50
139.7778736265154
 51
281.61754003648321
1001
GENIUS_GENODEF_13
1002
{
1000
HIER
1070
     0
1002
}
1002
{
1000
MANEDIT
1070
     0
1002
}
1002
{
1000
NOSEL
1070
     0
1002
}
1002
{
1000
BEHIND
1070
     0
1002
}
1002
{
1000
REACTOR
1002
}
1001
GENIUS_GENOBJ-N-FIL_13
1002
{
1000
OWNER
1000
GEN
1002
}
  0
ARC
  5
B53
  8
0
 10
151.93326396611391
 20
156.81410679510611
 30
0.0
 40
2.5071680320029488
 50
117.46711936526479
 51
140.27625467007721
  0
ARC
  5
B54
  8
0
 10
150.86851701471809
 20
158.0278029859748
 30
0.0
 40
1.0149999998984991
 50
91.038560809579295
 51
95.181063751371042
1001
GENIUS_GENODEF_13
1002
{
1000
HIER
1070
     0
1002
}
1002
{
1000
MANEDIT
1070
     0
1002
}
1002
{
1000
NOSEL
1070
     0
1002
}
1002
{
1000
BEHIND
1070
     0
1002
}
1002
{
1000
REACTOR
1002
}
1001
GENIUS_GENOBJ-N-FIL_13
1002
{
1000
OWNER
1000
GEN
1002
}
  0
ARC
  5
B55
  8
0
 10
151.14557880215111
 20
156.7005727334664
 30
0.0
 40
1.6964505739908811
 50
102.5533032395566
 51
124.2421754099238
  0
LINE
  5
B56
  8
0
 10
150.6938702024901
 20
159.31912417814519
 30
0.0
 11
149.1938702024901
 21
157.81912417814519
 31
0.0
1001
GENIUS_GENFIL_13
1070
     0
1040
1.5
1040
1.5
1040
20.0
1040
0.0
1002
{
1002
}
1001
GENIUS_GENODEF_13
1002
{
1000
HIER
1070
     0
1002
}
1002
{
1000
MANEDIT
1070
     0
1002
}
1002
{
1000
NOSEL
1070
     0
1002
}
1002
{
1000
BEHIND
1070
     0
1002
}
1002
{
1000
REACTOR
1002
}
1001
GENIUS_GENOBJ-N-CHA_13
1002
{
1000
OWNER
1000
GEN
1002
}
  0
LINE
  5
B57
  8
0
 10
149.96439822339639
 20
155.7309922756873
 30
0.0
 11
149.9595935198264
 21
155.82963538527719
 31
0.0
  0
ARC
  5
B58
  8
0
 10
150.97459351972509
 20
155.82963538527719
 30
0.0
 40
1.0149999998984991
 50
128.22797129025031
 51
180.0
1001
GENIUS_GENODEF_13
1002
{
1000
HIER
1070
     0
1002
}
1002
{
1000
MANEDIT
1070
     0
1002
}
1002
{
1000
NOSEL
1070
     0
1002
}
1002
{
1000
BEHIND
1070
     0
1002
}
1002
{
1000
REACTOR
1002
}
1001
GENIUS_GENOBJ-N-FIL_13
1002
{
1000
OWNER
1000
GEN
1002
}
  0
ARC
  5
B59
  8
0
 10
150.26745681229511
 20
155.76058520856449
 30
0.0
 40
0.3044999999695499
 50
185.57711212173629
 51
287.71321735499703
1001
GENIUS_GENODEF_13
1002
{
1000
HIER
1070
     0
1002
}
1002
{
1000
MANEDIT
1070
     0
1002
}
1002
{
1000
NOSEL
1070
     0
1002
}
1002
{
1000
BEHIND
1070
     0
1002
}
1002
{
1000
REACTOR
1002
}
1001
GENIUS_GENOBJ-N-FIL_13
1002
{
1000
OWNER
1000
GEN
1002
}
  0
ARC
  5
B5A
  8
0
 10
151.3861334574448
 20
153.9884071319677
 30
0.0
 40
1.8026100351283409
 50
109.7548078776714
 51
124.6939180805755
  0
ARC
  5
B5B
  8
0
 10
152.67652838394821
 20
154.38724289913051
 30
0.0
 40
3.231924233102454
 50
125.99982372209919
 51
136.1317660576149
  0
LINE
  5
B5C
  8
0
 10
150.77685902761991
 20
151.6509272813793
 30
0.0
 11
150.77685902761951
 21
148.83711648709701
 31
0.0
  0
ARC
  5
B5D
  8
0
 10
150.8888949499545
 20
152.57143026285041
 30
0.0
 40
0.9272959542617094
 50
96.939431023527305
 51
263.06056897654491
  0
ARC
  5
B5E
  8
0
 10
151.1290223429331
 20
147.727496180423
 30
0.0
 40
1.1641633157064071
 50
107.6080229805555
 51
252.39197701943081
  0
LINE
  5
B5F
  8
0
 10
150.77685902761991
 20
155.68492934163871
 30
0.0
 11
150.77685902761991
 21
153.49193324432159
 31
0.0
  0
POLYLINE
  5
B60
  8
0
 10
160.52521638029856
 20
159.23063490419909
 30
0.0
 66
     1
 70
     8
  0
VERTEX
  8
0
  5
1510
 10
160.525
 20
159.231
 30
0.000000
  70
    32
  0
VERTEX
  8
0
  5
1511
 10
160.555
 20
159.230
 30
0.000000
  70
    32
  0
VERTEX
  8
0
  5
1512
 10
160.584
 20
159.230
 30
0.000000
  70
    32
  0
VERTEX
  8
0
  5
1513
 10
160.613
 20
159.229
 30
0.000000
  70
    32
  0
VERTEX
  8
0
  5
1514
 10
160.643
 20
159.228
 30
0.000000
  70
    32
  0
VERTEX
  8
0
  5
1515
 10
160.672
 20
159.227
 30
0.000000
  70
    32
  0
VERTEX
  8
0
  5
1516
 10
160.701
 20
159.225
 30
0.000000
  70
    32
  0
VERTEX
  8
0
  5
1517
 10
160.730
 20
159.224
 30
0.000000
  70
    32
  0
VERTEX
  8
0
  5
1518
 10
160.759
 20
159.222
 30
0.000000
  70
    32
  0
VERTEX
  8
0
  5
1519
 10
160.787
 20
159.220
 30
0.000000
  70
    32
  0
VERTEX
  8
0
  5
151A
 10
160.816
 20
159.218
 30
0.000000
  70
    32
  0
VERTEX
  8
0
  5
151B
 10
160.844
 20
159.216
 30
0.000000
  70
    32
  0
VERTEX
  8
0
  5
151C
 10
160.872
 20
159.213
 30
0.000000
  70
    32
  0
VERTEX
  8
0
  5
151D
 10
160.900
 20
159.210
 30
0.000000
  70
    32
  0
VERTEX
  8
0
  5
151E
 10
160.927
 20
159.207
 30
0.000000
  70
    32
  0
VERTEX
  8
0
  5
151F
 10
160.955
 20
159.204
 30
0.000000
  70
    32
  0
VERTEX
  8
0
  5
1520
 10
160.982
 20
159.201
 30
0.000000
  70
    32
  0
VERTEX
  8
0
  5
1521
 10
161.008
 20
159.197
 30
0.000000
  70
    32
  0
VERTEX
  8
0
  5
1522
 10
161.035
 20
159.194
 30
0.000000
  70
    32
  0
VERTEX
  8
0
  5
1523
 10
161.061
 20
159.190
 30
0.000000
  70
    32
  0
VERTEX
  8
0
  5
1524
 10
161.087
 20
159.186
 30
0.000000
  70
    32
  0
VERTEX
  8
0
  5
1525
 10
161.112
 20
159.182
 30
0.000000
  70
    32
  0
VERTEX
  8
0
  5
1526
 10
161.137
 20
159.177
 30
0.000000
  70
    32
  0
VERTEX
  8
0
  5
1527
 10
161.162
 20
159.173
 30
0.000000
  70
    32
  0
VERTEX
  8
0
  5
1528
 10
161.186
 20
159.168
 30
0.000000
  70
    32
  0
VERTEX
  8
0
  5
1529
 10
161.210
 20
159.163
 30
0.000000
  70
    32
  0
VERTEX
  8
0
  5
152A
 10
161.233
 20
159.158
 30
0.000000
  70
    32
  0
VERTEX
  8
0
  5
152B
 10
161.256
 20
159.153
 30
0.000000
  70
    32
  0
VERTEX
  8
0
  5
152C
 10
161.279
 20
159.147
 30
0.000000
  70
    32
  0
VERTEX
  8
0
  5
152D
 10
161.301
 20
159.142
 30
0.000000
  70
    32
  0
VERTEX
  8
0
  5
152E
 10
161.323
 20
159.136
 30
0.000000
  70
    32
  0
VERTEX
  8
0
  5
152F
 10
161.344
 20
159.130
 30
0.000000
  70
    32
  0
VERTEX
  8
0
  5
1530
 10
161.364
 20
159.124
 30
0.000000
  70
    32
  0
VERTEX
  8
0
  5
1531
 10
161.384
 20
159.118
 30
0.000000
  70
    32
  0
VERTEX
  8
0
  5
1532
 10
161.404
 20
159.112
 30
0.000000
  70
    32
  0
VERTEX
  8
0
  5
1533
 10
161.423
 20
159.106
 30
0.000000
  70
    32
  0
VERTEX
  8
0
  5
1534
 10
161.441
 20
159.099
 30
0.000000
  70
    32
  0
VERTEX
  8
0
  5
1535
 10
161.459
 20
159.093
 30
0.000000
  70
    32
  0
VERTEX
  8
0
  5
1536
 10
161.476
 20
159.086
 30
0.000000
  70
    32
  0
VERTEX
  8
0
  5
1537
 10
161.493
 20
159.079
 30
0.000000
  70
    32
  0
VERTEX
  8
0
  5
1538
 10
161.509
 20
159.072
 30
0.000000
  70
    32
  0
VERTEX
  8
0
  5
1539
 10
161.525
 20
159.065
 30
0.000000
  70
    32
  0
VERTEX
  8
0
  5
153A
 10
161.540
 20
159.058
 30
0.000000
  70
    32
  0
VERTEX
  8
0
  5
153B
 10
161.554
 20
159.051
 30
0.000000
  70
    32
  0
VERTEX
  8
0
  5
153C
 10
161.567
 20
159.043
 30
0.000000
  70
    32
  0
VERTEX
  8
0
  5
153D
 10
161.580
 20
159.036
 30
0.000000
  70
    32
  0
VERTEX
  8
0
  5
153E
 10
161.593
 20
159.028
 30
0.000000
  70
    32
  0
VERTEX
  8
0
  5
153F
 10
161.605
 20
159.021
 30
0.000000
  70
    32
  0
VERTEX
  8
0
  5
1540
 10
161.616
 20
159.013
 30
0.000000
  70
    32
  0
VERTEX
  8
0
  5
1541
 10
161.626
 20
159.005
 30
0.000000
  70
    32
  0
VERTEX
  8
0
  5
1542
 10
161.636
 20
158.997
 30
0.000000
  70
    32
  0
VERTEX
  8
0
  5
1543
 10
161.645
 20
158.989
 30
0.000000
  70
    32
  0
VERTEX
  8
0
  5
1544
 10
161.653
 20
158.981
 30
0.000000
  70
    32
  0
VERTEX
  8
0
  5
1545
 10
161.661
 20
158.973
 30
0.000000
  70
    32
  0
VERTEX
  8
0
  5
1546
 10
161.668
 20
158.965
 30
0.000000
  70
    32
  0
VERTEX
  8
0
  5
1547
 10
161.674
 20
158.957
 30
0.000000
  70
    32
  0
VERTEX
  8
0
  5
1548
 10
161.680
 20
158.949
 30
0.000000
  70
    32
  0
VERTEX
  8
0
  5
1549
 10
161.684
 20
158.941
 30
0.000000
  70
    32
  0
VERTEX
  8
0
  5
154A
 10
161.689
 20
158.933
 30
0.000000
  70
    32
  0
VERTEX
  8
0
  5
154B
 10
161.692
 20
158.924
 30
0.000000
  70
    32
  0
VERTEX
  8
0
  5
154C
 10
161.695
 20
158.916
 30
0.000000
  70
    32
  0
VERTEX
  8
0
  5
154D
 10
161.697
 20
158.908
 30
0.000000
  70
    32
  0
VERTEX
  8
0
  5
154E
 10
161.698
 20
158.899
 30
0.000000
  70
    32
  0
VERTEX
  8
0
  5
154F
 10
161.699
 20
158.891
 30
0.000000
  70
    32
  0
VERTEX
  8
0
  5
1550
 10
161.699
 20
158.883
 30
0.000000
  70
    32
  0
VERTEX
  8
0
  5
1551
 10
161.698
 20
158.874
 30
0.000000
  70
    32
  0
VERTEX
  8
0
  5
1552
 10
161.696
 20
158.866
 30
0.000000
  70
    32
  0
VERTEX
  8
0
  5
1553
 10
161.694
 20
158.858
 30
0.000000
  70
    32
  0
VERTEX
  8
0
  5
1554
 10
161.691
 20
158.850
 30
0.000000
  70
    32
  0
VERTEX
  8
0
  5
1555
 10
161.687
 20
158.841
 30
0.000000
  70
    32
  0
VERTEX
  8
0
  5
1556
 10
161.683
 20
158.833
 30
0.000000
  70
    32
  0
VERTEX
  8
0
  5
1557
 10
161.678
 20
158.825
 30
0.000000
  70
    32
  0
VERTEX
  8
0
  5
1558
 10
161.672
 20
158.817
 30
0.000000
  70
    32
  0
VERTEX
  8
0
  5
1559
 10
161.665
 20
158.809
 30
0.000000
  70
    32
  0
VERTEX
  8
0
  5
155A
 10
161.658
 20
158.801
 30
0.000000
  70
    32
  0
VERTEX
  8
0
  5
155B
 10
161.650
 20
158.793
 30
0.000000
  70
    32
  0
VERTEX
  8
0
  5
155C
 10
161.642
 20
158.785
 30
0.000000
  70
    32
  0
VERTEX
  8
0
  5
155D
 10
161.632
 20
158.777
 30
0.000000
  70
    32
  0
VERTEX
  8
0
  5
155E
 10
161.622
 20
158.769
 30
0.000000
  70
    32
  0
VERTEX
  8
0
  5
155F
 10
161.612
 20
158.761
 30
0.000000
  70
    32
  0
VERTEX
  8
0
  5
1560
 10
161.601
 20
158.753
 30
0.000000
  70
    32
  0
VERTEX
  8
0
  5
1561
 10
161.589
 20
158.746
 30
0.000000
  70
    32
  0
VERTEX
  8
0
  5
1562
 10
161.576
 20
158.738
 30
0.000000
  70
    32
  0
VERTEX
  8
0
  5
1563
 10
161.563
 20
158.731
 30
0.000000
  70
    32
  0
VERTEX
  8
0
  5
1564
 10
161.549
 20
158.724
 30
0.000000
  70
    32
  0
VERTEX
  8
0
  5
1565
 10
161.534
 20
158.716
 30
0.000000
  70
    32
  0
VERTEX
  8
0
  5
1566
 10
161.519
 20
158.709
 30
0.000000
  70
    32
  0
VERTEX
  8
0
  5
1567
 10
161.504
 20
158.702
 30
0.000000
  70
    32
  0
VERTEX
  8
0
  5
1568
 10
161.487
 20
158.695
 30
0.000000
  70
    32
  0
VERTEX
  8
0
  5
1569
 10
161.470
 20
158.688
 30
0.000000
  70
    32
  0
VERTEX
  8
0
  5
156A
 10
161.453
 20
158.682
 30
0.000000
  70
    32
  0
VERTEX
  8
0
  5
156B
 10
161.435
 20
158.675
 30
0.000000
  70
    32
  0
VERTEX
  8
0
  5
156C
 10
161.416
 20
158.669
 30
0.000000
  70
    32
  0
VERTEX
  8
0
  5
156D
 10
161.397
 20
158.662
 30
0.000000
  70
    32
  0
VERTEX
  8
0
  5
156E
 10
161.377
 20
158.656
 30
0.000000
  70
    32
  0
VERTEX
  8
0
  5
156F
 10
161.357
 20
158.650
 30
0.000000
  70
    32
  0
VERTEX
  8
0
  5
1570
 10
161.336
 20
158.644
 30
0.000000
  70
    32
  0
VERTEX
  8
0
  5
1571
 10
161.315
 20
158.639
 30
0.000000
  70
    32
  0
VERTEX
  8
0
  5
1572
 10
161.293
 20
158.633
 30
0.000000
  70
    32
  0
VERTEX
  8
0
  5
1573
 10
161.271
 20
158.627
 30
0.000000
  70
    32
  0
VERTEX
  8
0
  5
1574
 10
161.248
 20
158.622
 30
0.000000
  70
    32
  0
VERTEX
  8
0
  5
1575
 10
161.225
 20
158.617
 30
0.000000
  70
    32
  0
VERTEX
  8
0
  5
1576
 10
161.202
 20
158.612
 30
0.000000
  70
    32
  0
VERTEX
  8
0
  5
1577
 10
161.178
 20
158.607
 30
0.000000
  70
    32
  0
VERTEX
  8
0
  5
1578
 10
161.153
 20
158.603
 30
0.000000
  70
    32
  0
VERTEX
  8
0
  5
1579
 10
161.128
 20
158.598
 30
0.000000
  70
    32
  0
VERTEX
  8
0
  5
157A
 10
161.103
 20
158.594
 30
0.000000
  70
    32
  0
VERTEX
  8
0
  5
157B
 10
161.078
 20
158.590
 30
0.000000
  70
    32
  0
VERTEX
  8
0
  5
157C
 10
161.052
 20
158.586
 30
0.000000
  70
    32
  0
VERTEX
  8
0
  5
157D
 10
161.026
 20
158.582
 30
0.000000
  70
    32
  0
VERTEX
  8
0
  5
157E
 10
160.999
 20
158.578
 30
0.000000
  70
    32
  0
VERTEX
  8
0
  5
157F
 10
160.972
 20
158.575
 30
0.000000
  70
    32
  0
VERTEX
  8
0
  5
1580
 10
160.945
 20
158.572
 30
0.000000
  70
    32
  0
VERTEX
  8
0
  5
1581
 10
160.918
 20
158.568
 30
0.000000
  70
    32
  0
VERTEX
  8
0
  5
1582
 10
160.890
 20
158.566
 30
0.000000
  70
    32
  0
VERTEX
  8
0
  5
1583
 10
160.862
 20
158.563
 30
0.000000
  70
    32
  0
VERTEX
  8
0
  5
1584
 10
160.834
 20
158.560
 30
0.000000
  70
    32
  0
VERTEX
  8
0
  5
1585
 10
160.806
 20
158.558
 30
0.000000
  70
    32
  0
VERTEX
  8
0
  5
1586
 10
160.777
 20
158.556
 30
0.000000
  70
    32
  0
VERTEX
  8
0
  5
1587
 10
160.749
 20
158.554
 30
0.000000
  70
    32
  0
VERTEX
  8
0
  5
1588
 10
160.720
 20
158.552
 30
0.000000
  70
    32
  0
VERTEX
  8
0
  5
1589
 10
160.691
 20
158.551
 30
0.000000
  70
    32
  0
VERTEX
  8
0
  5
158A
 10
160.662
 20
158.550
 30
0.000000
  70
    32
  0
VERTEX
  8
0
  5
158B
 10
160.632
 20
158.549
 30
0.000000
  70
    32
  0
VERTEX
  8
0
  5
158C
 10
160.603
 20
158.548
 30
0.000000
  70
    32
  0
VERTEX
  8
0
  5
158D
 10
160.574
 20
158.547
 30
0.000000
  70
    32
  0
VERTEX
  8
0
  5
158E
 10
160.544
 20
158.546
 30
0.000000
  70
    32
  0
VERTEX
  8
0
  5
158F
 10
160.515
 20
158.546
 30
0.000000
  70
    32
  0
VERTEX
  8
0
  5
1590
 10
160.485
 20
158.546
 30
0.000000
  70
    32
  0
SEQEND
  8
0
  5
1591
  0
LINE
  5
B61
  8
0
 10
161.69857325339771
 20
158.90388146144821
 30
0.0
 11
161.69857325339771
 21
158.90449886578119
 31
0.0
  0
LINE
  5
B62
  8
0
 10
163.19387018685879
 20
158.3191241781453
 30
0.0
 11
162.19387018685879
 21
159.31912417814519
 31
0.0
1001
GENIUS_GENFIL_13
1070
     0
1040
1.0
1040
1.0
1040
20.0
1040
0.0
1002
{
1002
}
1001
GENIUS_GENODEF_13
1002
{
1000
HIER
1070
     0
1002
}
1002
{
1000
MANEDIT
1070
     0
1002
}
1002
{
1000
NOSEL
1070
     0
1002
}
1002
{
1000
BEHIND
1070
     0
1002
}
1002
{
1000
REACTOR
1002
}
1001
GENIUS_GENOBJ-N-CHA_13
1002
{
1000
OWNER
1000
GEN
1002
}
  0
POLYLINE
  5
B63
  8
0
 10
160.45756169507081
 20
157.00193019776822
 30
0.0
 66
     1
 70
     8
  0
VERTEX
  8
0
  5
1592
 10
160.458
 20
157.002
 30
0.000000
  70
    32
  0
VERTEX
  8
0
  5
1593
 10
160.487
 20
157.002
 30
0.000000
  70
    32
  0
VERTEX
  8
0
  5
1594
 10
160.517
 20
157.001
 30
0.000000
  70
    32
  0
VERTEX
  8
0
  5
1595
 10
160.547
 20
157.000
 30
0.000000
  70
    32
  0
VERTEX
  8
0
  5
1596
 10
160.576
 20
156.999
 30
0.000000
  70
    32
  0
VERTEX
  8
0
  5
1597
 10
160.606
 20
156.997
 30
0.000000
  70
    32
  0
VERTEX
  8
0
  5
1598
 10
160.636
 20
156.995
 30
0.000000
  70
    32
  0
VERTEX
  8
0
  5
1599
 10
160.665
 20
156.992
 30
0.000000
  70
    32
  0
VERTEX
  8
0
  5
159A
 10
160.694
 20
156.989
 30
0.000000
  70
    32
  0
VERTEX
  8
0
  5
159B
 10
160.723
 20
156.986
 30
0.000000
  70
    32
  0
VERTEX
  8
0
  5
159C
 10
160.752
 20
156.982
 30
0.000000
  70
    32
  0
VERTEX
  8
0
  5
159D
 10
160.781
 20
156.978
 30
0.000000
  70
    32
  0
VERTEX
  8
0
  5
159E
 10
160.810
 20
156.974
 30
0.000000
  70
    32
  0
VERTEX
  8
0
  5
159F
 10
160.838
 20
156.969
 30
0.000000
  70
    32
  0
VERTEX
  8
0
  5
15A0
 10
160.866
 20
156.963
 30
0.000000
  70
    32
  0
VERTEX
  8
0
  5
15A1
 10
160.894
 20
156.958
 30
0.000000
  70
    32
  0
VERTEX
  8
0
  5
15A2
 10
160.922
 20
156.952
 30
0.000000
  70
    32
  0
VERTEX
  8
0
  5
15A3
 10
160.949
 20
156.945
 30
0.000000
  70
    32
  0
VERTEX
  8
0
  5
15A4
 10
160.976
 20
156.939
 30
0.000000
  70
    32
  0
VERTEX
  8
0
  5
15A5
 10
161.003
 20
156.932
 30
0.000000
  70
    32
  0
VERTEX
  8
0
  5
15A6
 10
161.029
 20
156.924
 30
0.000000
  70
    32
  0
VERTEX
  8
0
  5
15A7
 10
161.056
 20
156.916
 30
0.000000
  70
    32
  0
VERTEX
  8
0
  5
15A8
 10
161.081
 20
156.908
 30
0.000000
  70
    32
  0
VERTEX
  8
0
  5
15A9
 10
161.107
 20
156.900
 30
0.000000
  70
    32
  0
VERTEX
  8
0
  5
15AA
 10
161.132
 20
156.891
 30
0.000000
  70
    32
  0
VERTEX
  8
0
  5
15AB
 10
161.156
 20
156.882
 30
0.000000
  70
    32
  0
VERTEX
  8
0
  5
15AC
 10
161.180
 20
156.872
 30
0.000000
  70
    32
  0
VERTEX
  8
0
  5
15AD
 10
161.204
 20
156.863
 30
0.000000
  70
    32
  0
VERTEX
  8
0
  5
15AE
 10
161.227
 20
156.852
 30
0.000000
  70
    32
  0
VERTEX
  8
0
  5
15AF
 10
161.250
 20
156.842
 30
0.000000
  70
    32
  0
VERTEX
  8
0
  5
15B0
 10
161.272
 20
156.831
 30
0.000000
  70
    32
  0
VERTEX
  8
0
  5
15B1
 10
161.294
 20
156.820
 30
0.000000
  70
    32
  0
VERTEX
  8
0
  5
15B2
 10
161.315
 20
156.809
 30
0.000000
  70
    32
  0
VERTEX
  8
0
  5
15B3
 10
161.336
 20
156.797
 30
0.000000
  70
    32
  0
VERTEX
  8
0
  5
15B4
 10
161.356
 20
156.786
 30
0.000000
  70
    32
  0
VERTEX
  8
0
  5
15B5
 10
161.376
 20
156.774
 30
0.000000
  70
    32
  0
VERTEX
  8
0
  5
15B6
 10
161.395
 20
156.761
 30
0.000000
  70
    32
  0
VERTEX
  8
0
  5
15B7
 10
161.414
 20
156.749
 30
0.000000
  70
    32
  0
VERTEX
  8
0
  5
15B8
 10
161.432
 20
156.736
 30
0.000000
  70
    32
  0
VERTEX
  8
0
  5
15B9
 10
161.449
 20
156.723
 30
0.000000
  70
    32
  0
VERTEX
  8
0
  5
15BA
 10
161.466
 20
156.709
 30
0.000000
  70
    32
  0
VERTEX
  8
0
  5
15BB
 10
161.482
 20
156.696
 30
0.000000
  70
    32
  0
VERTEX
  8
0
  5
15BC
 10
161.498
 20
156.682
 30
0.000000
  70
    32
  0
VERTEX
  8
0
  5
15BD
 10
161.513
 20
156.668
 30
0.000000
  70
    32
  0
VERTEX
  8
0
  5
15BE
 10
161.527
 20
156.654
 30
0.000000
  70
    32
  0
VERTEX
  8
0
  5
15BF
 10
161.541
 20
156.639
 30
0.000000
  70
    32
  0
VERTEX
  8
0
  5
15C0
 10
161.554
 20
156.625
 30
0.000000
  70
    32
  0
VERTEX
  8
0
  5
15C1
 10
161.567
 20
156.610
 30
0.000000
  70
    32
  0
VERTEX
  8
0
  5
15C2
 10
161.578
 20
156.595
 30
0.000000
  70
    32
  0
VERTEX
  8
0
  5
15C3
 10
161.589
 20
156.580
 30
0.000000
  70
    32
  0
VERTEX
  8
0
  5
15C4
 10
161.600
 20
156.565
 30
0.000000
  70
    32
  0
VERTEX
  8
0
  5
15C5
 10
161.609
 20
156.550
 30
0.000000
  70
    32
  0
VERTEX
  8
0
  5
15C6
 10
161.618
 20
156.535
 30
0.000000
  70
    32
  0
VERTEX
  8
0
  5
15C7
 10
161.627
 20
156.519
 30
0.000000
  70
    32
  0
VERTEX
  8
0
  5
15C8
 10
161.634
 20
156.503
 30
0.000000
  70
    32
  0
VERTEX
  8
0
  5
15C9
 10
161.641
 20
156.488
 30
0.000000
  70
    32
  0
VERTEX
  8
0
  5
15CA
 10
161.647
 20
156.472
 30
0.000000
  70
    32
  0
VERTEX
  8
0
  5
15CB
 10
161.653
 20
156.456
 30
0.000000
  70
    32
  0
VERTEX
  8
0
  5
15CC
 10
161.658
 20
156.440
 30
0.000000
  70
    32
  0
VERTEX
  8
0
  5
15CD
 10
161.662
 20
156.424
 30
0.000000
  70
    32
  0
VERTEX
  8
0
  5
15CE
 10
161.665
 20
156.408
 30
0.000000
  70
    32
  0
VERTEX
  8
0
  5
15CF
 10
161.667
 20
156.392
 30
0.000000
  70
    32
  0
VERTEX
  8
0
  5
15D0
 10
161.669
 20
156.376
 30
0.000000
  70
    32
  0
VERTEX
  8
0
  5
15D1
 10
161.670
 20
156.360
 30
0.000000
  70
    32
  0
VERTEX
  8
0
  5
15D2
 10
161.671
 20
156.343
 30
0.000000
  70
    32
  0
VERTEX
  8
0
  5
15D3
 10
161.670
 20
156.327
 30
0.000000
  70
    32
  0
VERTEX
  8
0
  5
15D4
 10
161.669
 20
156.311
 30
0.000000
  70
    32
  0
VERTEX
  8
0
  5
15D5
 10
161.667
 20
156.295
 30
0.000000
  70
    32
  0
VERTEX
  8
0
  5
15D6
 10
161.665
 20
156.279
 30
0.000000
  70
    32
  0
VERTEX
  8
0
  5
15D7
 10
161.662
 20
156.263
 30
0.000000
  70
    32
  0
VERTEX
  8
0
  5
15D8
 10
161.658
 20
156.247
 30
0.000000
  70
    32
  0
VERTEX
  8
0
  5
15D9
 10
161.653
 20
156.231
 30
0.000000
  70
    32
  0
VERTEX
  8
0
  5
15DA
 10
161.647
 20
156.215
 30
0.000000
  70
    32
  0
VERTEX
  8
0
  5
15DB
 10
161.641
 20
156.199
 30
0.000000
  70
    32
  0
VERTEX
  8
0
  5
15DC
 10
161.634
 20
156.183
 30
0.000000
  70
    32
  0
VERTEX
  8
0
  5
15DD
 10
161.627
 20
156.168
 30
0.000000
  70
    32
  0
VERTEX
  8
0
  5
15DE
 10
161.618
 20
156.152
 30
0.000000
  70
    32
  0
VERTEX
  8
0
  5
15DF
 10
161.609
 20
156.137
 30
0.000000
  70
    32
  0
VERTEX
  8
0
  5
15E0
 10
161.600
 20
156.122
 30
0.000000
  70
    32
  0
VERTEX
  8
0
  5
15E1
 10
161.589
 20
156.106
 30
0.000000
  70
    32
  0
VERTEX
  8
0
  5
15E2
 10
161.578
 20
156.091
 30
0.000000
  70
    32
  0
VERTEX
  8
0
  5
15E3
 10
161.567
 20
156.077
 30
0.000000
  70
    32
  0
VERTEX
  8
0
  5
15E4
 10
161.554
 20
156.062
 30
0.000000
  70
    32
  0
VERTEX
  8
0
  5
15E5
 10
161.541
 20
156.047
 30
0.000000
  70
    32
  0
VERTEX
  8
0
  5
15E6
 10
161.527
 20
156.033
 30
0.000000
  70
    32
  0
VERTEX
  8
0
  5
15E7
 10
161.513
 20
156.019
 30
0.000000
  70
    32
  0
VERTEX
  8
0
  5
15E8
 10
161.498
 20
156.005
 30
0.000000
  70
    32
  0
VERTEX
  8
0
  5
15E9
 10
161.482
 20
155.991
 30
0.000000
  70
    32
  0
VERTEX
  8
0
  5
15EA
 10
161.466
 20
155.978
 30
0.000000
  70
    32
  0
VERTEX
  8
0
  5
15EB
 10
161.449
 20
155.964
 30
0.000000
  70
    32
  0
VERTEX
  8
0
  5
15EC
 10
161.432
 20
155.951
 30
0.000000
  70
    32
  0
VERTEX
  8
0
  5
15ED
 10
161.414
 20
155.938
 30
0.000000
  70
    32
  0
VERTEX
  8
0
  5
15EE
 10
161.395
 20
155.926
 30
0.000000
  70
    32
  0
VERTEX
  8
0
  5
15EF
 10
161.376
 20
155.913
 30
0.000000
  70
    32
  0
VERTEX
  8
0
  5
15F0
 10
161.356
 20
155.901
 30
0.000000
  70
    32
  0
VERTEX
  8
0
  5
15F1
 10
161.336
 20
155.889
 30
0.000000
  70
    32
  0
VERTEX
  8
0
  5
15F2
 10
161.315
 20
155.878
 30
0.000000
  70
    32
  0
VERTEX
  8
0
  5
15F3
 10
161.294
 20
155.867
 30
0.000000
  70
    32
  0
VERTEX
  8
0
  5
15F4
 10
161.272
 20
155.856
 30
0.000000
  70
    32
  0
VERTEX
  8
0
  5
15F5
 10
161.250
 20
155.845
 30
0.000000
  70
    32
  0
VERTEX
  8
0
  5
15F6
 10
161.227
 20
155.834
 30
0.000000
  70
    32
  0
VERTEX
  8
0
  5
15F7
 10
161.204
 20
155.824
 30
0.000000
  70
    32
  0
VERTEX
  8
0
  5
15F8
 10
161.180
 20
155.815
 30
0.000000
  70
    32
  0
VERTEX
  8
0
  5
15F9
 10
161.156
 20
155.805
 30
0.000000
  70
    32
  0
VERTEX
  8
0
  5
15FA
 10
161.132
 20
155.796
 30
0.000000
  70
    32
  0
VERTEX
  8
0
  5
15FB
 10
161.107
 20
155.787
 30
0.000000
  70
    32
  0
VERTEX
  8
0
  5
15FC
 10
161.081
 20
155.779
 30
0.000000
  70
    32
  0
VERTEX
  8
0
  5
15FD
 10
161.056
 20
155.770
 30
0.000000
  70
    32
  0
VERTEX
  8
0
  5
15FE
 10
161.029
 20
155.763
 30
0.000000
  70
    32
  0
VERTEX
  8
0
  5
15FF
 10
161.003
 20
155.755
 30
0.000000
  70
    32
  0
VERTEX
  8
0
  5
1600
 10
160.976
 20
155.748
 30
0.000000
  70
    32
  0
VERTEX
  8
0
  5
1601
 10
160.949
 20
155.741
 30
0.000000
  70
    32
  0
VERTEX
  8
0
  5
1602
 10
160.922
 20
155.735
 30
0.000000
  70
    32
  0
VERTEX
  8
0
  5
1603
 10
160.894
 20
155.729
 30
0.000000
  70
    32
  0
VERTEX
  8
0
  5
1604
 10
160.866
 20
155.723
 30
0.000000
  70
    32
  0
VERTEX
  8
0
  5
1605
 10
160.838
 20
155.718
 30
0.000000
  70
    32
  0
VERTEX
  8
0
  5
1606
 10
160.810
 20
155.713
 30
0.000000
  70
    32
  0
VERTEX
  8
0
  5
1607
 10
160.781
 20
155.709
 30
0.000000
  70
    32
  0
VERTEX
  8
0
  5
1608
 10
160.752
 20
155.705
 30
0.000000
  70
    32
  0
VERTEX
  8
0
  5
1609
 10
160.723
 20
155.701
 30
0.000000
  70
    32
  0
VERTEX
  8
0
  5
160A
 10
160.694
 20
155.698
 30
0.000000
  70
    32
  0
VERTEX
  8
0
  5
160B
 10
160.665
 20
155.695
 30
0.000000
  70
    32
  0
VERTEX
  8
0
  5
160C
 10
160.636
 20
155.692
 30
0.000000
  70
    32
  0
VERTEX
  8
0
  5
160D
 10
160.606
 20
155.690
 30
0.000000
  70
    32
  0
VERTEX
  8
0
  5
160E
 10
160.576
 20
155.688
 30
0.000000
  70
    32
  0
VERTEX
  8
0
  5
160F
 10
160.547
 20
155.687
 30
0.000000
  70
    32
  0
VERTEX
  8
0
  5
1610
 10
160.517
 20
155.686
 30
0.000000
  70
    32
  0
VERTEX
  8
0
  5
1611
 10
160.487
 20
155.685
 30
0.000000
  70
    32
  0
VERTEX
  8
0
  5
1612
 10
160.458
 20
155.685
 30
0.000000
  70
    32
  0
SEQEND
  8
0
  5
1613
  0
LINE
  5
B64
  8
0
 10
161.67069192615901
 20
156.34319520435599
 30
0.0
 11
161.67069192615901
 21
156.34366417302991
 31
0.0
  0
POLYLINE
  5
B65
  8
0
 10
160.45844572447299
 20
153.49193310400969
 30
0.0
 66
     1
 70
     8
  0
VERTEX
  8
0
  5
1614
 10
160.458
 20
153.492
 30
0.000000
  70
    32
  0
VERTEX
  8
0
  5
1615
 10
160.488
 20
153.492
 30
0.000000
  70
    32
  0
VERTEX
  8
0
  5
1616
 10
160.518
 20
153.491
 30
0.000000
  70
    32
  0
VERTEX
  8
0
  5
1617
 10
160.548
 20
153.489
 30
0.000000
  70
    32
  0
VERTEX
  8
0
  5
1618
 10
160.577
 20
153.488
 30
0.000000
  70
    32
  0
VERTEX
  8
0
  5
1619
 10
160.607
 20
153.485
 30
0.000000
  70
    32
  0
VERTEX
  8
0
  5
161A
 10
160.636
 20
153.482
 30
0.000000
  70
    32
  0
VERTEX
  8
0
  5
161B
 10
160.666
 20
153.478
 30
0.000000
  70
    32
  0
VERTEX
  8
0
  5
161C
 10
160.695
 20
153.474
 30
0.000000
  70
    32
  0
VERTEX
  8
0
  5
161D
 10
160.724
 20
153.470
 30
0.000000
  70
    32
  0
VERTEX
  8
0
  5
161E
 10
160.753
 20
153.464
 30
0.000000
  70
    32
  0
VERTEX
  8
0
  5
161F
 10
160.782
 20
153.459
 30
0.000000
  70
    32
  0
VERTEX
  8
0
  5
1620
 10
160.811
 20
153.452
 30
0.000000
  70
    32
  0
VERTEX
  8
0
  5
1621
 10
160.839
 20
153.445
 30
0.000000
  70
    32
  0
VERTEX
  8
0
  5
1622
 10
160.867
 20
153.438
 30
0.000000
  70
    32
  0
VERTEX
  8
0
  5
1623
 10
160.895
 20
153.430
 30
0.000000
  70
    32
  0
VERTEX
  8
0
  5
1624
 10
160.923
 20
153.422
 30
0.000000
  70
    32
  0
VERTEX
  8
0
  5
1625
 10
160.950
 20
153.413
 30
0.000000
  70
    32
  0
VERTEX
  8
0
  5
1626
 10
160.977
 20
153.404
 30
0.000000
  70
    32
  0
VERTEX
  8
0
  5
1627
 10
161.004
 20
153.394
 30
0.000000
  70
    32
  0
VERTEX
  8
0
  5
1628
 10
161.030
 20
153.383
 30
0.000000
  70
    32
  0
VERTEX
  8
0
  5
1629
 10
161.056
 20
153.372
 30
0.000000
  70
    32
  0
VERTEX
  8
0
  5
162A
 10
161.082
 20
153.361
 30
0.000000
  70
    32
  0
VERTEX
  8
0
  5
162B
 10
161.107
 20
153.349
 30
0.000000
  70
    32
  0
VERTEX
  8
0
  5
162C
 10
161.132
 20
153.337
 30
0.000000
  70
    32
  0
VERTEX
  8
0
  5
162D
 10
161.157
 20
153.324
 30
0.000000
  70
    32
  0
VERTEX
  8
0
  5
162E
 10
161.181
 20
153.311
 30
0.000000
  70
    32
  0
VERTEX
  8
0
  5
162F
 10
161.205
 20
153.297
 30
0.000000
  70
    32
  0
VERTEX
  8
0
  5
1630
 10
161.228
 20
153.283
 30
0.000000
  70
    32
  0
VERTEX
  8
0
  5
1631
 10
161.251
 20
153.268
 30
0.000000
  70
    32
  0
VERTEX
  8
0
  5
1632
 10
161.273
 20
153.253
 30
0.000000
  70
    32
  0
VERTEX
  8
0
  5
1633
 10
161.295
 20
153.238
 30
0.000000
  70
    32
  0
VERTEX
  8
0
  5
1634
 10
161.316
 20
153.222
 30
0.000000
  70
    32
  0
VERTEX
  8
0
  5
1635
 10
161.337
 20
153.206
 30
0.000000
  70
    32
  0
VERTEX
  8
0
  5
1636
 10
161.357
 20
153.190
 30
0.000000
  70
    32
  0
VERTEX
  8
0
  5
1637
 10
161.377
 20
153.173
 30
0.000000
  70
    32
  0
VERTEX
  8
0
  5
1638
 10
161.396
 20
153.155
 30
0.000000
  70
    32
  0
VERTEX
  8
0
  5
1639
 10
161.415
 20
153.138
 30
0.000000
  70
    32
  0
VERTEX
  8
0
  5
163A
 10
161.433
 20
153.120
 30
0.000000
  70
    32
  0
VERTEX
  8
0
  5
163B
 10
161.450
 20
153.101
 30
0.000000
  70
    32
  0
VERTEX
  8
0
  5
163C
 10
161.467
 20
153.083
 30
0.000000
  70
    32
  0
VERTEX
  8
0
  5
163D
 10
161.483
 20
153.064
 30
0.000000
  70
    32
  0
VERTEX
  8
0
  5
163E
 10
161.499
 20
153.045
 30
0.000000
  70
    32
  0
VERTEX
  8
0
  5
163F
 10
161.514
 20
153.025
 30
0.000000
  70
    32
  0
VERTEX
  8
0
  5
1640
 10
161.528
 20
153.005
 30
0.000000
  70
    32
  0
VERTEX
  8
0
  5
1641
 10
161.542
 20
152.985
 30
0.000000
  70
    32
  0
VERTEX
  8
0
  5
1642
 10
161.555
 20
152.965
 30
0.000000
  70
    32
  0
VERTEX
  8
0
  5
1643
 10
161.568
 20
152.944
 30
0.000000
  70
    32
  0
VERTEX
  8
0
  5
1644
 10
161.579
 20
152.924
 30
0.000000
  70
    32
  0
VERTEX
  8
0
  5
1645
 10
161.590
 20
152.903
 30
0.000000
  70
    32
  0
VERTEX
  8
0
  5
1646
 10
161.601
 20
152.882
 30
0.000000
  70
    32
  0
VERTEX
  8
0
  5
1647
 10
161.610
 20
152.860
 30
0.000000
  70
    32
  0
VERTEX
  8
0
  5
1648
 10
161.619
 20
152.839
 30
0.000000
  70
    32
  0
VERTEX
  8
0
  5
1649
 10
161.628
 20
152.817
 30
0.000000
  70
    32
  0
VERTEX
  8
0
  5
164A
 10
161.635
 20
152.795
 30
0.000000
  70
    32
  0
VERTEX
  8
0
  5
164B
 10
161.642
 20
152.773
 30
0.000000
  70
    32
  0
VERTEX
  8
0
  5
164C
 10
161.648
 20
152.751
 30
0.000000
  70
    32
  0
VERTEX
  8
0
  5
164D
 10
161.654
 20
152.729
 30
0.000000
  70
    32
  0
VERTEX
  8
0
  5
164E
 10
161.658
 20
152.706
 30
0.000000
  70
    32
  0
VERTEX
  8
0
  5
164F
 10
161.662
 20
152.684
 30
0.000000
  70
    32
  0
VERTEX
  8
0
  5
1650
 10
161.666
 20
152.662
 30
0.000000
  70
    32
  0
VERTEX
  8
0
  5
1651
 10
161.668
 20
152.639
 30
0.000000
  70
    32
  0
VERTEX
  8
0
  5
1652
 10
161.670
 20
152.617
 30
0.000000
  70
    32
  0
VERTEX
  8
0
  5
1653
 10
161.671
 20
152.594
 30
0.000000
  70
    32
  0
VERTEX
  8
0
  5
1654
 10
161.672
 20
152.571
 30
0.000000
  70
    32
  0
VERTEX
  8
0
  5
1655
 10
161.671
 20
152.549
 30
0.000000
  70
    32
  0
VERTEX
  8
0
  5
1656
 10
161.670
 20
152.526
 30
0.000000
  70
    32
  0
VERTEX
  8
0
  5
1657
 10
161.668
 20
152.504
 30
0.000000
  70
    32
  0
VERTEX
  8
0
  5
1658
 10
161.666
 20
152.481
 30
0.000000
  70
    32
  0
VERTEX
  8
0
  5
1659
 10
161.662
 20
152.459
 30
0.000000
  70
    32
  0
VERTEX
  8
0
  5
165A
 10
161.658
 20
152.436
 30
0.000000
  70
    32
  0
VERTEX
  8
0
  5
165B
 10
161.654
 20
152.414
 30
0.000000
  70
    32
  0
VERTEX
  8
0
  5
165C
 10
161.648
 20
152.392
 30
0.000000
  70
    32
  0
VERTEX
  8
0
  5
165D
 10
161.642
 20
152.370
 30
0.000000
  70
    32
  0
VERTEX
  8
0
  5
165E
 10
161.635
 20
152.348
 30
0.000000
  70
    32
  0
VERTEX
  8
0
  5
165F
 10
161.628
 20
152.326
 30
0.000000
  70
    32
  0
VERTEX
  8
0
  5
1660
 10
161.619
 20
152.304
 30
0.000000
  70
    32
  0
VERTEX
  8
0
  5
1661
 10
161.610
 20
152.283
 30
0.000000
  70
    32
  0
VERTEX
  8
0
  5
1662
 10
161.601
 20
152.261
 30
0.000000
  70
    32
  0
VERTEX
  8
0
  5
1663
 10
161.590
 20
152.240
 30
0.000000
  70
    32
  0
VERTEX
  8
0
  5
1664
 10
161.579
 20
152.219
 30
0.000000
  70
    32
  0
VERTEX
  8
0
  5
1665
 10
161.568
 20
152.198
 30
0.000000
  70
    32
  0
VERTEX
  8
0
  5
1666
 10
161.555
 20
152.178
 30
0.000000
  70
    32
  0
VERTEX
  8
0
  5
1667
 10
161.542
 20
152.158
 30
0.000000
  70
    32
  0
VERTEX
  8
0
  5
1668
 10
161.528
 20
152.138
 30
0.000000
  70
    32
  0
VERTEX
  8
0
  5
1669
 10
161.514
 20
152.118
 30
0.000000
  70
    32
  0
VERTEX
  8
0
  5
166A
 10
161.499
 20
152.098
 30
0.000000
  70
    32
  0
VERTEX
  8
0
  5
166B
 10
161.483
 20
152.079
 30
0.000000
  70
    32
  0
VERTEX
  8
0
  5
166C
 10
161.467
 20
152.060
 30
0.000000
  70
    32
  0
VERTEX
  8
0
  5
166D
 10
161.450
 20
152.041
 30
0.000000
  70
    32
  0
VERTEX
  8
0
  5
166E
 10
161.433
 20
152.023
 30
0.000000
  70
    32
  0
VERTEX
  8
0
  5
166F
 10
161.415
 20
152.005
 30
0.000000
  70
    32
  0
VERTEX
  8
0
  5
1670
 10
161.396
 20
151.987
 30
0.000000
  70
    32
  0
VERTEX
  8
0
  5
1671
 10
161.377
 20
151.970
 30
0.000000
  70
    32
  0
VERTEX
  8
0
  5
1672
 10
161.357
 20
151.953
 30
0.000000
  70
    32
  0
VERTEX
  8
0
  5
1673
 10
161.337
 20
151.937
 30
0.000000
  70
    32
  0
VERTEX
  8
0
  5
1674
 10
161.316
 20
151.921
 30
0.000000
  70
    32
  0
VERTEX
  8
0
  5
1675
 10
161.295
 20
151.905
 30
0.000000
  70
    32
  0
VERTEX
  8
0
  5
1676
 10
161.273
 20
151.889
 30
0.000000
  70
    32
  0
VERTEX
  8
0
  5
1677
 10
161.251
 20
151.874
 30
0.000000
  70
    32
  0
VERTEX
  8
0
  5
1678
 10
161.228
 20
151.860
 30
0.000000
  70
    32
  0
VERTEX
  8
0
  5
1679
 10
161.205
 20
151.846
 30
0.000000
  70
    32
  0
VERTEX
  8
0
  5
167A
 10
161.181
 20
151.832
 30
0.000000
  70
    32
  0
VERTEX
  8
0
  5
167B
 10
161.157
 20
151.819
 30
0.000000
  70
    32
  0
VERTEX
  8
0
  5
167C
 10
161.132
 20
151.806
 30
0.000000
  70
    32
  0
VERTEX
  8
0
  5
167D
 10
161.107
 20
151.794
 30
0.000000
  70
    32
  0
VERTEX
  8
0
  5
167E
 10
161.082
 20
151.782
 30
0.000000
  70
    32
  0
VERTEX
  8
0
  5
167F
 10
161.056
 20
151.771
 30
0.000000
  70
    32
  0
VERTEX
  8
0
  5
1680
 10
161.030
 20
151.760
 30
0.000000
  70
    32
  0
VERTEX
  8
0
  5
1681
 10
161.004
 20
151.749
 30
0.000000
  70
    32
  0
VERTEX
  8
0
  5
1682
 10
160.977
 20
151.739
 30
0.000000
  70
    32
  0
VERTEX
  8
0
  5
1683
 10
160.950
 20
151.730
 30
0.000000
  70
    32
  0
VERTEX
  8
0
  5
1684
 10
160.923
 20
151.721
 30
0.000000
  70
    32
  0
VERTEX
  8
0
  5
1685
 10
160.895
 20
151.713
 30
0.000000
  70
    32
  0
VERTEX
  8
0
  5
1686
 10
160.867
 20
151.705
 30
0.000000
  70
    32
  0
VERTEX
  8
0
  5
1687
 10
160.839
 20
151.697
 30
0.000000
  70
    32
  0
VERTEX
  8
0
  5
1688
 10
160.811
 20
151.691
 30
0.000000
  70
    32
  0
VERTEX
  8
0
  5
1689
 10
160.782
 20
151.684
 30
0.000000
  70
    32
  0
VERTEX
  8
0
  5
168A
 10
160.753
 20
151.679
 30
0.000000
  70
    32
  0
VERTEX
  8
0
  5
168B
 10
160.724
 20
151.673
 30
0.000000
  70
    32
  0
VERTEX
  8
0
  5
168C
 10
160.695
 20
151.669
 30
0.000000
  70
    32
  0
VERTEX
  8
0
  5
168D
 10
160.666
 20
151.664
 30
0.000000
  70
    32
  0
VERTEX
  8
0
  5
168E
 10
160.636
 20
151.661
 30
0.000000
  70
    32
  0
VERTEX
  8
0
  5
168F
 10
160.607
 20
151.658
 30
0.000000
  70
    32
  0
VERTEX
  8
0
  5
1690
 10
160.577
 20
151.655
 30
0.000000
  70
    32
  0
VERTEX
  8
0
  5
1691
 10
160.548
 20
151.653
 30
0.000000
  70
    32
  0
VERTEX
  8
0
  5
1692
 10
160.518
 20
151.652
 30
0.000000
  70
    32
  0
VERTEX
  8
0
  5
1693
 10
160.488
 20
151.651
 30
0.000000
  70
    32
  0
VERTEX
  8
0
  5
1694
 10
160.458
 20
151.651
 30
0.000000
  70
    32
  0
SEQEND
  8
0
  5
1695
  0
LINE
  5
B66
  8
0
 10
161.7203951030215
 20
152.57132824441319
 30
0.0
 11
161.7203951030215
 21
152.57153228128681
 31
0.0
  0
POLYLINE
  5
B67
  8
0
 10
160.4602938895016
 20
148.83626132625693
 30
0.0
 66
     1
 70
     8
  0
VERTEX
  8
0
  5
1696
 10
160.460
 20
148.836
 30
0.000000
  70
    32
  0
VERTEX
  8
0
  5
1697
 10
160.490
 20
148.836
 30
0.000000
  70
    32
  0
VERTEX
  8
0
  5
1698
 10
160.520
 20
148.835
 30
0.000000
  70
    32
  0
VERTEX
  8
0
  5
1699
 10
160.550
 20
148.833
 30
0.000000
  70
    32
  0
VERTEX
  8
0
  5
169A
 10
160.579
 20
148.831
 30
0.000000
  70
    32
  0
VERTEX
  8
0
  5
169B
 10
160.609
 20
148.828
 30
0.000000
  70
    32
  0
VERTEX
  8
0
  5
169C
 10
160.638
 20
148.824
 30
0.000000
  70
    32
  0
VERTEX
  8
0
  5
169D
 10
160.668
 20
148.820
 30
0.000000
  70
    32
  0
VERTEX
  8
0
  5
169E
 10
160.697
 20
148.815
 30
0.000000
  70
    32
  0
VERTEX
  8
0
  5
169F
 10
160.726
 20
148.809
 30
0.000000
  70
    32
  0
VERTEX
  8
0
  5
16A0
 10
160.755
 20
148.803
 30
0.000000
  70
    32
  0
VERTEX
  8
0
  5
16A1
 10
160.784
 20
148.796
 30
0.000000
  70
    32
  0
VERTEX
  8
0
  5
16A2
 10
160.812
 20
148.788
 30
0.000000
  70
    32
  0
VERTEX
  8
0
  5
16A3
 10
160.841
 20
148.780
 30
0.000000
  70
    32
  0
VERTEX
  8
0
  5
16A4
 10
160.869
 20
148.771
 30
0.000000
  70
    32
  0
VERTEX
  8
0
  5
16A5
 10
160.897
 20
148.762
 30
0.000000
  70
    32
  0
VERTEX
  8
0
  5
16A6
 10
160.925
 20
148.752
 30
0.000000
  70
    32
  0
VERTEX
  8
0
  5
16A7
 10
160.952
 20
148.741
 30
0.000000
  70
    32
  0
VERTEX
  8
0
  5
16A8
 10
160.979
 20
148.730
 30
0.000000
  70
    32
  0
VERTEX
  8
0
  5
16A9
 10
161.006
 20
148.718
 30
0.000000
  70
    32
  0
VERTEX
  8
0
  5
16AA
 10
161.032
 20
148.705
 30
0.000000
  70
    32
  0
VERTEX
  8
0
  5
16AB
 10
161.058
 20
148.692
 30
0.000000
  70
    32
  0
VERTEX
  8
0
  5
16AC
 10
161.084
 20
148.678
 30
0.000000
  70
    32
  0
VERTEX
  8
0
  5
16AD
 10
161.109
 20
148.664
 30
0.000000
  70
    32
  0
VERTEX
  8
0
  5
16AE
 10
161.134
 20
148.649
 30
0.000000
  70
    32
  0
VERTEX
  8
0
  5
16AF
 10
161.159
 20
148.634
 30
0.000000
  70
    32
  0
VERTEX
  8
0
  5
16B0
 10
161.183
 20
148.618
 30
0.000000
  70
    32
  0
VERTEX
  8
0
  5
16B1
 10
161.207
 20
148.601
 30
0.000000
  70
    32
  0
VERTEX
  8
0
  5
16B2
 10
161.230
 20
148.584
 30
0.000000
  70
    32
  0
VERTEX
  8
0
  5
16B3
 10
161.253
 20
148.567
 30
0.000000
  70
    32
  0
VERTEX
  8
0
  5
16B4
 10
161.275
 20
148.549
 30
0.000000
  70
    32
  0
VERTEX
  8
0
  5
16B5
 10
161.297
 20
148.530
 30
0.000000
  70
    32
  0
VERTEX
  8
0
  5
16B6
 10
161.318
 20
148.511
 30
0.000000
  70
    32
  0
VERTEX
  8
0
  5
16B7
 10
161.339
 20
148.492
 30
0.000000
  70
    32
  0
VERTEX
  8
0
  5
16B8
 10
161.359
 20
148.472
 30
0.000000
  70
    32
  0
VERTEX
  8
0
  5
16B9
 10
161.379
 20
148.452
 30
0.000000
  70
    32
  0
VERTEX
  8
0
  5
16BA
 10
161.398
 20
148.431
 30
0.000000
  70
    32
  0
VERTEX
  8
0
  5
16BB
 10
161.417
 20
148.409
 30
0.000000
  70
    32
  0
VERTEX
  8
0
  5
16BC
 10
161.435
 20
148.388
 30
0.000000
  70
    32
  0
VERTEX
  8
0
  5
16BD
 10
161.452
 20
148.366
 30
0.000000
  70
    32
  0
VERTEX
  8
0
  5
16BE
 10
161.469
 20
148.343
 30
0.000000
  70
    32
  0
VERTEX
  8
0
  5
16BF
 10
161.485
 20
148.320
 30
0.000000
  70
    32
  0
VERTEX
  8
0
  5
16C0
 10
161.501
 20
148.297
 30
0.000000
  70
    32
  0
VERTEX
  8
0
  5
16C1
 10
161.516
 20
148.274
 30
0.000000
  70
    32
  0
VERTEX
  8
0
  5
16C2
 10
161.530
 20
148.250
 30
0.000000
  70
    32
  0
VERTEX
  8
0
  5
16C3
 10
161.544
 20
148.226
 30
0.000000
  70
    32
  0
VERTEX
  8
0
  5
16C4
 10
161.557
 20
148.201
 30
0.000000
  70
    32
  0
VERTEX
  8
0
  5
16C5
 10
161.569
 20
148.177
 30
0.000000
  70
    32
  0
VERTEX
  8
0
  5
16C6
 10
161.581
 20
148.152
 30
0.000000
  70
    32
  0
VERTEX
  8
0
  5
16C7
 10
161.592
 20
148.126
 30
0.000000
  70
    32
  0
VERTEX
  8
0
  5
16C8
 10
161.603
 20
148.101
 30
0.000000
  70
    32
  0
VERTEX
  8
0
  5
16C9
 10
161.612
 20
148.075
 30
0.000000
  70
    32
  0
VERTEX
  8
0
  5
16CA
 10
161.621
 20
148.049
 30
0.000000
  70
    32
  0
VERTEX
  8
0
  5
16CB
 10
161.629
 20
148.023
 30
0.000000
  70
    32
  0
VERTEX
  8
0
  5
16CC
 10
161.637
 20
147.997
 30
0.000000
  70
    32
  0
VERTEX
  8
0
  5
16CD
 10
161.644
 20
147.970
 30
0.000000
  70
    32
  0
VERTEX
  8
0
  5
16CE
 10
161.650
 20
147.943
 30
0.000000
  70
    32
  0
VERTEX
  8
0
  5
16CF
 10
161.656
 20
147.917
 30
0.000000
  70
    32
  0
VERTEX
  8
0
  5
16D0
 10
161.660
 20
147.890
 30
0.000000
  70
    32
  0
VERTEX
  8
0
  5
16D1
 10
161.664
 20
147.863
 30
0.000000
  70
    32
  0
VERTEX
  8
0
  5
16D2
 10
161.668
 20
147.836
 30
0.000000
  70
    32
  0
VERTEX
  8
0
  5
16D3
 10
161.670
 20
147.809
 30
0.000000
  70
    32
  0
VERTEX
  8
0
  5
16D4
 10
161.672
 20
147.781
 30
0.000000
  70
    32
  0
VERTEX
  8
0
  5
16D5
 10
161.673
 20
147.754
 30
0.000000
  70
    32
  0
VERTEX
  8
0
  5
16D6
 10
161.673
 20
147.727
 30
0.000000
  70
    32
  0
VERTEX
  8
0
  5
16D7
 10
161.673
 20
147.700
 30
0.000000
  70
    32
  0
VERTEX
  8
0
  5
16D8
 10
161.672
 20
147.673
 30
0.000000
  70
    32
  0
VERTEX
  8
0
  5
16D9
 10
161.670
 20
147.645
 30
0.000000
  70
    32
  0
VERTEX
  8
0
  5
16DA
 10
161.668
 20
147.618
 30
0.000000
  70
    32
  0
VERTEX
  8
0
  5
16DB
 10
161.664
 20
147.591
 30
0.000000
  70
    32
  0
VERTEX
  8
0
  5
16DC
 10
161.660
 20
147.564
 30
0.000000
  70
    32
  0
VERTEX
  8
0
  5
16DD
 10
161.656
 20
147.537
 30
0.000000
  70
    32
  0
VERTEX
  8
0
  5
16DE
 10
161.650
 20
147.511
 30
0.000000
  70
    32
  0
VERTEX
  8
0
  5
16DF
 10
161.644
 20
147.484
 30
0.000000
  70
    32
  0
VERTEX
  8
0
  5
16E0
 10
161.637
 20
147.458
 30
0.000000
  70
    32
  0
VERTEX
  8
0
  5
16E1
 10
161.629
 20
147.431
 30
0.000000
  70
    32
  0
VERTEX
  8
0
  5
16E2
 10
161.621
 20
147.405
 30
0.000000
  70
    32
  0
VERTEX
  8
0
  5
16E3
 10
161.612
 20
147.379
 30
0.000000
  70
    32
  0
VERTEX
  8
0
  5
16E4
 10
161.603
 20
147.353
 30
0.000000
  70
    32
  0
VERTEX
  8
0
  5
16E5
 10
161.592
 20
147.328
 30
0.000000
  70
    32
  0
VERTEX
  8
0
  5
16E6
 10
161.581
 20
147.303
 30
0.000000
  70
    32
  0
VERTEX
  8
0
  5
16E7
 10
161.569
 20
147.278
 30
0.000000
  70
    32
  0
VERTEX
  8
0
  5
16E8
 10
161.557
 20
147.253
 30
0.000000
  70
    32
  0
VERTEX
  8
0
  5
16E9
 10
161.544
 20
147.228
 30
0.000000
  70
    32
  0
VERTEX
  8
0
  5
16EA
 10
161.530
 20
147.204
 30
0.000000
  70
    32
  0
VERTEX
  8
0
  5
16EB
 10
161.516
 20
147.180
 30
0.000000
  70
    32
  0
VERTEX
  8
0
  5
16EC
 10
161.501
 20
147.157
 30
0.000000
  70
    32
  0
VERTEX
  8
0
  5
16ED
 10
161.485
 20
147.134
 30
0.000000
  70
    32
  0
VERTEX
  8
0
  5
16EE
 10
161.469
 20
147.111
 30
0.000000
  70
    32
  0
VERTEX
  8
0
  5
16EF
 10
161.452
 20
147.088
 30
0.000000
  70
    32
  0
VERTEX
  8
0
  5
16F0
 10
161.435
 20
147.066
 30
0.000000
  70
    32
  0
VERTEX
  8
0
  5
16F1
 10
161.417
 20
147.045
 30
0.000000
  70
    32
  0
VERTEX
  8
0
  5
16F2
 10
161.398
 20
147.023
 30
0.000000
  70
    32
  0
VERTEX
  8
0
  5
16F3
 10
161.379
 20
147.003
 30
0.000000
  70
    32
  0
VERTEX
  8
0
  5
16F4
 10
161.359
 20
146.982
 30
0.000000
  70
    32
  0
VERTEX
  8
0
  5
16F5
 10
161.339
 20
146.962
 30
0.000000
  70
    32
  0
VERTEX
  8
0
  5
16F6
 10
161.318
 20
146.943
 30
0.000000
  70
    32
  0
VERTEX
  8
0
  5
16F7
 10
161.297
 20
146.924
 30
0.000000
  70
    32
  0
VERTEX
  8
0
  5
16F8
 10
161.275
 20
146.905
 30
0.000000
  70
    32
  0
VERTEX
  8
0
  5
16F9
 10
161.253
 20
146.887
 30
0.000000
  70
    32
  0
VERTEX
  8
0
  5
16FA
 10
161.230
 20
146.870
 30
0.000000
  70
    32
  0
VERTEX
  8
0
  5
16FB
 10
161.207
 20
146.853
 30
0.000000
  70
    32
  0
VERTEX
  8
0
  5
16FC
 10
161.183
 20
146.836
 30
0.000000
  70
    32
  0
VERTEX
  8
0
  5
16FD
 10
161.159
 20
146.820
 30
0.000000
  70
    32
  0
VERTEX
  8
0
  5
16FE
 10
161.134
 20
146.805
 30
0.000000
  70
    32
  0
VERTEX
  8
0
  5
16FF
 10
161.109
 20
146.790
 30
0.000000
  70
    32
  0
VERTEX
  8
0
  5
1700
 10
161.084
 20
146.776
 30
0.000000
  70
    32
  0
VERTEX
  8
0
  5
1701
 10
161.058
 20
146.762
 30
0.000000
  70
    32
  0
VERTEX
  8
0
  5
1702
 10
161.032
 20
146.749
 30
0.000000
  70
    32
  0
VERTEX
  8
0
  5
1703
 10
161.006
 20
146.736
 30
0.000000
  70
    32
  0
VERTEX
  8
0
  5
1704
 10
160.979
 20
146.724
 30
0.000000
  70
    32
  0
VERTEX
  8
0
  5
1705
 10
160.952
 20
146.713
 30
0.000000
  70
    32
  0
VERTEX
  8
0
  5
1706
 10
160.925
 20
146.702
 30
0.000000
  70
    32
  0
VERTEX
  8
0
  5
1707
 10
160.897
 20
146.692
 30
0.000000
  70
    32
  0
VERTEX
  8
0
  5
1708
 10
160.869
 20
146.683
 30
0.000000
  70
    32
  0
VERTEX
  8
0
  5
1709
 10
160.841
 20
146.674
 30
0.000000
  70
    32
  0
VERTEX
  8
0
  5
170A
 10
160.812
 20
146.666
 30
0.000000
  70
    32
  0
VERTEX
  8
0
  5
170B
 10
160.784
 20
146.658
 30
0.000000
  70
    32
  0
VERTEX
  8
0
  5
170C
 10
160.755
 20
146.651
 30
0.000000
  70
    32
  0
VERTEX
  8
0
  5
170D
 10
160.726
 20
146.645
 30
0.000000
  70
    32
  0
VERTEX
  8
0
  5
170E
 10
160.697
 20
146.639
 30
0.000000
  70
    32
  0
VERTEX
  8
0
  5
170F
 10
160.668
 20
146.634
 30
0.000000
  70
    32
  0
VERTEX
  8
0
  5
1710
 10
160.638
 20
146.630
 30
0.000000
  70
    32
  0
VERTEX
  8
0
  5
1711
 10
160.609
 20
146.626
 30
0.000000
  70
    32
  0
VERTEX
  8
0
  5
1712
 10
160.579
 20
146.623
 30
0.000000
  70
    32
  0
VERTEX
  8
0
  5
1713
 10
160.550
 20
146.621
 30
0.000000
  70
    32
  0
VERTEX
  8
0
  5
1714
 10
160.520
 20
146.619
 30
0.000000
  70
    32
  0
VERTEX
  8
0
  5
1715
 10
160.490
 20
146.618
 30
0.000000
  70
    32
  0
VERTEX
  8
0
  5
1716
 10
160.460
 20
146.618
 30
0.000000
  70
    32
  0
SEQEND
  8
0
  5
1717
  0
LINE
  5
B68
  8
0
 10
160.50726485992351
 20
157.00193037282881
 30
0.0
 11
150.77685902760859
 21
157.00193037282881
 31
0.0
  0
LINE
  5
B69
  8
0
 10
160.50726485992351
 20
153.4919332443211
 30
0.0
 11
150.77685902761991
 21
153.49193324432159
 31
0.0
  0
LINE
  5
B6A
  8
0
 10
160.50726485992351
 20
155.68492934163871
 30
0.0
 11
150.77685902761809
 21
155.68492934163871
 31
0.0
  0
LINE
  5
B6B
  8
0
 10
160.50726485992351
 20
151.6509272813793
 30
0.0
 11
150.77685902761991
 21
151.6509272813793
 31
0.0
  0
LINE
  5
B6C
  8
0
 10
160.53536934021849
 20
159.2308191550766
 30
0.0
 11
150.8501198220041
 21
159.04263624473941
 31
0.0
  0
LINE
  5
B6D
  8
0
 10
160.69058139075059
 20
158.54879307804751
 30
0.0
 11
150.77685902762039
 21
158.3564683454735
 31
0.0
  0
LINE
  5
B6E
  8
0
 10
160.50726485992391
 20
148.83626142047669
 30
0.0
 11
150.77685902761951
 21
148.83711648709749
 31
0.0
  0
LINE
  5
B6F
  8
0
 10
160.50726485992351
 20
146.61787587374931
 30
0.0
 11
150.776859027619
 21
146.61787587374931
 31
0.0
  0
LINE
  5
B70
  8
0
 10
150.77685902761851
 20
137.64472534520081
 30
0.0
 11
150.77685902761809
 21
139.31912417814519
 31
0.0
  0
ARC
  5
B71
  8
0
 10
151.2658574432688
 20
142.1991255271802
 30
0.0
 40
1.3009984155683989
 50
112.07772086716891
 51
247.922279132829
  0
LINE
  5
B72
  8
0
 10
150.77685902761851
 20
140.99352301108971
 30
0.0
 11
150.77685902761809
 21
139.31912417814519
 31
0.0
  0
ARC
  5
B73
  8
0
 10
151.1290223429331
 20
130.9107521758676
 30
0.0
 40
1.1641633157064071
 50
107.6080229805692
 51
252.3919770194444
  0
LINE
  5
B74
  8
0
 10
150.776859027619
 20
132.02037248254109
 30
0.0
 11
150.77685902761851
 21
135.2335203130198
 31
0.0
  0
ARC
  5
B75
  8
0
 10
151.2658574432688
 20
136.43912282911029
 30
0.0
 40
1.3009984155683989
 50
112.077720867171
 51
247.92227913283111
  0
ARC
  5
B76
  8
0
 10
160.45088999097661
 20
142.21152298233289
 30
0.0
 40
1.217999987819999
 50
270.0
 51
0.0
1001
GENIUS_GENODEF_13
1002
{
1000
HIER
1070
     0
1002
}
1002
{
1000
MANEDIT
1070
     0
1002
}
1002
{
1000
NOSEL
1070
     0
1002
}
1002
{
1000
BEHIND
1070
     0
1002
}
1002
{
1000
REACTOR
1002
}
1001
GENIUS_GENOBJ-N-FIL_13
1002
{
1000
OWNER
1000
GEN
1002
}
  0
ARC
  5
B77
  8
0
 10
160.45088999097609
 20
142.18672801500259
 30
0.0
 40
1.217999987819999
 50
0.0
 51
90.0
1001
GENIUS_GENODEF_13
1002
{
1000
HIER
1070
     0
1002
}
1002
{
1000
MANEDIT
1070
     0
1002
}
1002
{
1000
NOSEL
1070
     0
1002
}
1002
{
1000
BEHIND
1070
     0
1002
}
1002
{
1000
REACTOR
1002
}
1001
GENIUS_GENOBJ-N-FIL_13
1002
{
1000
OWNER
1000
GEN
1002
}
  0
POLYLINE
  5
B78
  8
0
 10
160.4602938895016
 20
129.80198703003356
 30
0.0
 66
     1
 70
     8
  0
VERTEX
  8
0
  5
1718
 10
160.460
 20
129.802
 30
0.000000
  70
    32
  0
VERTEX
  8
0
  5
1719
 10
160.490
 20
129.802
 30
0.000000
  70
    32
  0
VERTEX
  8
0
  5
171A
 10
160.520
 20
129.803
 30
0.000000
  70
    32
  0
VERTEX
  8
0
  5
171B
 10
160.550
 20
129.805
 30
0.000000
  70
    32
  0
VERTEX
  8
0
  5
171C
 10
160.579
 20
129.807
 30
0.000000
  70
    32
  0
VERTEX
  8
0
  5
171D
 10
160.609
 20
129.810
 30
0.000000
  70
    32
  0
VERTEX
  8
0
  5
171E
 10
160.638
 20
129.814
 30
0.000000
  70
    32
  0
VERTEX
  8
0
  5
171F
 10
160.668
 20
129.818
 30
0.000000
  70
    32
  0
VERTEX
  8
0
  5
1720
 10
160.697
 20
129.823
 30
0.000000
  70
    32
  0
VERTEX
  8
0
  5
1721
 10
160.726
 20
129.829
 30
0.000000
  70
    32
  0
VERTEX
  8
0
  5
1722
 10
160.755
 20
129.835
 30
0.000000
  70
    32
  0
VERTEX
  8
0
  5
1723
 10
160.784
 20
129.842
 30
0.000000
  70
    32
  0
VERTEX
  8
0
  5
1724
 10
160.812
 20
129.850
 30
0.000000
  70
    32
  0
VERTEX
  8
0
  5
1725
 10
160.841
 20
129.858
 30
0.000000
  70
    32
  0
VERTEX
  8
0
  5
1726
 10
160.869
 20
129.867
 30
0.000000
  70
    32
  0
VERTEX
  8
0
  5
1727
 10
160.897
 20
129.876
 30
0.000000
  70
    32
  0
VERTEX
  8
0
  5
1728
 10
160.925
 20
129.886
 30
0.000000
  70
    32
  0
VERTEX
  8
0
  5
1729
 10
160.952
 20
129.897
 30
0.000000
  70
    32
  0
VERTEX
  8
0
  5
172A
 10
160.979
 20
129.908
 30
0.000000
  70
    32
  0
VERTEX
  8
0
  5
172B
 10
161.006
 20
129.920
 30
0.000000
  70
    32
  0
VERTEX
  8
0
  5
172C
 10
161.032
 20
129.933
 30
0.000000
  70
    32
  0
VERTEX
  8
0
  5
172D
 10
161.058
 20
129.946
 30
0.000000
  70
    32
  0
VERTEX
  8
0
  5
172E
 10
161.084
 20
129.960
 30
0.000000
  70
    32
  0
VERTEX
  8
0
  5
172F
 10
161.109
 20
129.974
 30
0.000000
  70
    32
  0
VERTEX
  8
0
  5
1730
 10
161.134
 20
129.989
 30
0.000000
  70
    32
  0
VERTEX
  8
0
  5
1731
 10
161.159
 20
130.004
 30
0.000000
  70
    32
  0
VERTEX
  8
0
  5
1732
 10
161.183
 20
130.020
 30
0.000000
  70
    32
  0
VERTEX
  8
0
  5
1733
 10
161.207
 20
130.037
 30
0.000000
  70
    32
  0
VERTEX
  8
0
  5
1734
 10
161.230
 20
130.054
 30
0.000000
  70
    32
  0
VERTEX
  8
0
  5
1735
 10
161.253
 20
130.071
 30
0.000000
  70
    32
  0
VERTEX
  8
0
  5
1736
 10
161.275
 20
130.089
 30
0.000000
  70
    32
  0
VERTEX
  8
0
  5
1737
 10
161.297
 20
130.108
 30
0.000000
  70
    32
  0
VERTEX
  8
0
  5
1738
 10
161.318
 20
130.127
 30
0.000000
  70
    32
  0
VERTEX
  8
0
  5
1739
 10
161.339
 20
130.146
 30
0.000000
  70
    32
  0
VERTEX
  8
0
  5
173A
 10
161.359
 20
130.166
 30
0.000000
  70
    32
  0
VERTEX
  8
0
  5
173B
 10
161.379
 20
130.187
 30
0.000000
  70
    32
  0
VERTEX
  8
0
  5
173C
 10
161.398
 20
130.208
 30
0.000000
  70
    32
  0
VERTEX
  8
0
  5
173D
 10
161.417
 20
130.229
 30
0.000000
  70
    32
  0
VERTEX
  8
0
  5
173E
 10
161.435
 20
130.250
 30
0.000000
  70
    32
  0
VERTEX
  8
0
  5
173F
 10
161.452
 20
130.272
 30
0.000000
  70
    32
  0
VERTEX
  8
0
  5
1740
 10
161.469
 20
130.295
 30
0.000000
  70
    32
  0
VERTEX
  8
0
  5
1741
 10
161.485
 20
130.318
 30
0.000000
  70
    32
  0
VERTEX
  8
0
  5
1742
 10
161.501
 20
130.341
 30
0.000000
  70
    32
  0
VERTEX
  8
0
  5
1743
 10
161.516
 20
130.364
 30
0.000000
  70
    32
  0
VERTEX
  8
0
  5
1744
 10
161.530
 20
130.388
 30
0.000000
  70
    32
  0
VERTEX
  8
0
  5
1745
 10
161.544
 20
130.412
 30
0.000000
  70
    32
  0
VERTEX
  8
0
  5
1746
 10
161.557
 20
130.437
 30
0.000000
  70
    32
  0
VERTEX
  8
0
  5
1747
 10
161.569
 20
130.462
 30
0.000000
  70
    32
  0
VERTEX
  8
0
  5
1748
 10
161.581
 20
130.487
 30
0.000000
  70
    32
  0
VERTEX
  8
0
  5
1749
 10
161.592
 20
130.512
 30
0.000000
  70
    32
  0
VERTEX
  8
0
  5
174A
 10
161.603
 20
130.538
 30
0.000000
  70
    32
  0
VERTEX
  8
0
  5
174B
 10
161.612
 20
130.563
 30
0.000000
  70
    32
  0
VERTEX
  8
0
  5
174C
 10
161.621
 20
130.589
 30
0.000000
  70
    32
  0
VERTEX
  8
0
  5
174D
 10
161.629
 20
130.615
 30
0.000000
  70
    32
  0
VERTEX
  8
0
  5
174E
 10
161.637
 20
130.642
 30
0.000000
  70
    32
  0
VERTEX
  8
0
  5
174F
 10
161.644
 20
130.668
 30
0.000000
  70
    32
  0
VERTEX
  8
0
  5
1750
 10
161.650
 20
130.695
 30
0.000000
  70
    32
  0
VERTEX
  8
0
  5
1751
 10
161.656
 20
130.722
 30
0.000000
  70
    32
  0
VERTEX
  8
0
  5
1752
 10
161.660
 20
130.748
 30
0.000000
  70
    32
  0
VERTEX
  8
0
  5
1753
 10
161.664
 20
130.775
 30
0.000000
  70
    32
  0
VERTEX
  8
0
  5
1754
 10
161.668
 20
130.802
 30
0.000000
  70
    32
  0
VERTEX
  8
0
  5
1755
 10
161.670
 20
130.830
 30
0.000000
  70
    32
  0
VERTEX
  8
0
  5
1756
 10
161.672
 20
130.857
 30
0.000000
  70
    32
  0
VERTEX
  8
0
  5
1757
 10
161.673
 20
130.884
 30
0.000000
  70
    32
  0
VERTEX
  8
0
  5
1758
 10
161.673
 20
130.911
 30
0.000000
  70
    32
  0
VERTEX
  8
0
  5
1759
 10
161.673
 20
130.938
 30
0.000000
  70
    32
  0
VERTEX
  8
0
  5
175A
 10
161.672
 20
130.966
 30
0.000000
  70
    32
  0
VERTEX
  8
0
  5
175B
 10
161.670
 20
130.993
 30
0.000000
  70
    32
  0
VERTEX
  8
0
  5
175C
 10
161.668
 20
131.020
 30
0.000000
  70
    32
  0
VERTEX
  8
0
  5
175D
 10
161.664
 20
131.047
 30
0.000000
  70
    32
  0
VERTEX
  8
0
  5
175E
 10
161.660
 20
131.074
 30
0.000000
  70
    32
  0
VERTEX
  8
0
  5
175F
 10
161.656
 20
131.101
 30
0.000000
  70
    32
  0
VERTEX
  8
0
  5
1760
 10
161.650
 20
131.128
 30
0.000000
  70
    32
  0
VERTEX
  8
0
  5
1761
 10
161.644
 20
131.154
 30
0.000000
  70
    32
  0
VERTEX
  8
0
  5
1762
 10
161.637
 20
131.181
 30
0.000000
  70
    32
  0
VERTEX
  8
0
  5
1763
 10
161.629
 20
131.207
 30
0.000000
  70
    32
  0
VERTEX
  8
0
  5
1764
 10
161.621
 20
131.233
 30
0.000000
  70
    32
  0
VERTEX
  8
0
  5
1765
 10
161.612
 20
131.259
 30
0.000000
  70
    32
  0
VERTEX
  8
0
  5
1766
 10
161.603
 20
131.285
 30
0.000000
  70
    32
  0
VERTEX
  8
0
  5
1767
 10
161.592
 20
131.310
 30
0.000000
  70
    32
  0
VERTEX
  8
0
  5
1768
 10
161.581
 20
131.336
 30
0.000000
  70
    32
  0
VERTEX
  8
0
  5
1769
 10
161.569
 20
131.361
 30
0.000000
  70
    32
  0
VERTEX
  8
0
  5
176A
 10
161.557
 20
131.385
 30
0.000000
  70
    32
  0
VERTEX
  8
0
  5
176B
 10
161.544
 20
131.410
 30
0.000000
  70
    32
  0
VERTEX
  8
0
  5
176C
 10
161.530
 20
131.434
 30
0.000000
  70
    32
  0
VERTEX
  8
0
  5
176D
 10
161.516
 20
131.458
 30
0.000000
  70
    32
  0
VERTEX
  8
0
  5
176E
 10
161.501
 20
131.481
 30
0.000000
  70
    32
  0
VERTEX
  8
0
  5
176F
 10
161.485
 20
131.505
 30
0.000000
  70
    32
  0
VERTEX
  8
0
  5
1770
 10
161.469
 20
131.527
 30
0.000000
  70
    32
  0
VERTEX
  8
0
  5
1771
 10
161.452
 20
131.550
 30
0.000000
  70
    32
  0
VERTEX
  8
0
  5
1772
 10
161.435
 20
131.572
 30
0.000000
  70
    32
  0
VERTEX
  8
0
  5
1773
 10
161.417
 20
131.594
 30
0.000000
  70
    32
  0
VERTEX
  8
0
  5
1774
 10
161.398
 20
131.615
 30
0.000000
  70
    32
  0
VERTEX
  8
0
  5
1775
 10
161.379
 20
131.636
 30
0.000000
  70
    32
  0
VERTEX
  8
0
  5
1776
 10
161.359
 20
131.656
 30
0.000000
  70
    32
  0
VERTEX
  8
0
  5
1777
 10
161.339
 20
131.676
 30
0.000000
  70
    32
  0
VERTEX
  8
0
  5
1778
 10
161.318
 20
131.695
 30
0.000000
  70
    32
  0
VERTEX
  8
0
  5
1779
 10
161.297
 20
131.715
 30
0.000000
  70
    32
  0
VERTEX
  8
0
  5
177A
 10
161.275
 20
131.733
 30
0.000000
  70
    32
  0
VERTEX
  8
0
  5
177B
 10
161.253
 20
131.751
 30
0.000000
  70
    32
  0
VERTEX
  8
0
  5
177C
 10
161.230
 20
131.769
 30
0.000000
  70
    32
  0
VERTEX
  8
0
  5
177D
 10
161.207
 20
131.786
 30
0.000000
  70
    32
  0
VERTEX
  8
0
  5
177E
 10
161.183
 20
131.802
 30
0.000000
  70
    32
  0
VERTEX
  8
0
  5
177F
 10
161.159
 20
131.818
 30
0.000000
  70
    32
  0
VERTEX
  8
0
  5
1780
 10
161.134
 20
131.833
 30
0.000000
  70
    32
  0
VERTEX
  8
0
  5
1781
 10
161.109
 20
131.848
 30
0.000000
  70
    32
  0
VERTEX
  8
0
  5
1782
 10
161.084
 20
131.863
 30
0.000000
  70
    32
  0
VERTEX
  8
0
  5
1783
 10
161.058
 20
131.876
 30
0.000000
  70
    32
  0
VERTEX
  8
0
  5
1784
 10
161.032
 20
131.889
 30
0.000000
  70
    32
  0
VERTEX
  8
0
  5
1785
 10
161.006
 20
131.902
 30
0.000000
  70
    32
  0
VERTEX
  8
0
  5
1786
 10
160.979
 20
131.914
 30
0.000000
  70
    32
  0
VERTEX
  8
0
  5
1787
 10
160.952
 20
131.925
 30
0.000000
  70
    32
  0
VERTEX
  8
0
  5
1788
 10
160.925
 20
131.936
 30
0.000000
  70
    32
  0
VERTEX
  8
0
  5
1789
 10
160.897
 20
131.946
 30
0.000000
  70
    32
  0
VERTEX
  8
0
  5
178A
 10
160.869
 20
131.956
 30
0.000000
  70
    32
  0
VERTEX
  8
0
  5
178B
 10
160.841
 20
131.964
 30
0.000000
  70
    32
  0
VERTEX
  8
0
  5
178C
 10
160.812
 20
131.973
 30
0.000000
  70
    32
  0
VERTEX
  8
0
  5
178D
 10
160.784
 20
131.980
 30
0.000000
  70
    32
  0
VERTEX
  8
0
  5
178E
 10
160.755
 20
131.987
 30
0.000000
  70
    32
  0
VERTEX
  8
0
  5
178F
 10
160.726
 20
131.993
 30
0.000000
  70
    32
  0
VERTEX
  8
0
  5
1790
 10
160.697
 20
131.999
 30
0.000000
  70
    32
  0
VERTEX
  8
0
  5
1791
 10
160.668
 20
132.004
 30
0.000000
  70
    32
  0
VERTEX
  8
0
  5
1792
 10
160.638
 20
132.008
 30
0.000000
  70
    32
  0
VERTEX
  8
0
  5
1793
 10
160.609
 20
132.012
 30
0.000000
  70
    32
  0
VERTEX
  8
0
  5
1794
 10
160.579
 20
132.015
 30
0.000000
  70
    32
  0
VERTEX
  8
0
  5
1795
 10
160.550
 20
132.017
 30
0.000000
  70
    32
  0
VERTEX
  8
0
  5
1796
 10
160.520
 20
132.019
 30
0.000000
  70
    32
  0
VERTEX
  8
0
  5
1797
 10
160.490
 20
132.020
 30
0.000000
  70
    32
  0
VERTEX
  8
0
  5
1798
 10
160.460
 20
132.020
 30
0.000000
  70
    32
  0
SEQEND
  8
0
  5
1799
  0
ARC
  5
B79
  8
0
 10
160.45088999097609
 20
136.4515203412879
 30
0.0
 40
1.217999987819999
 50
270.0
 51
0.0
1001
GENIUS_GENODEF_13
1002
{
1000
HIER
1070
     0
1002
}
1002
{
1000
MANEDIT
1070
     0
1002
}
1002
{
1000
NOSEL
1070
     0
1002
}
1002
{
1000
BEHIND
1070
     0
1002
}
1002
{
1000
REACTOR
1002
}
1001
GENIUS_GENOBJ-N-FIL_13
1002
{
1000
OWNER
1000
GEN
1002
}
  0
ARC
  5
B7A
  8
0
 10
160.45088999097661
 20
136.42672537395759
 30
0.0
 40
1.217999987819999
 50
0.0
 51
90.0
1001
GENIUS_GENODEF_13
1002
{
1000
HIER
1070
     0
1002
}
1002
{
1000
MANEDIT
1070
     0
1002
}
1002
{
1000
NOSEL
1070
     0
1002
}
1002
{
1000
BEHIND
1070
     0
1002
}
1002
{
1000
REACTOR
1002
}
1001
GENIUS_GENOBJ-N-FIL_13
1002
{
1000
OWNER
1000
GEN
1002
}
  0
LINE
  5
B7B
  8
0
 10
160.50726485992391
 20
129.80198693581369
 30
0.0
 11
150.77685902761951
 21
129.801131869193
 31
0.0
  0
LINE
  5
B7C
  8
0
 10
160.50726485992351
 20
135.2335203130198
 30
0.0
 11
150.77685902761851
 21
135.2335203130198
 31
0.0
  0
LINE
  5
B7D
  8
0
 10
160.50726485992351
 20
132.02037248254109
 30
0.0
 11
150.776859027619
 21
132.02037248254109
 31
0.0
  0
LINE
  5
B7E
  8
0
 10
160.50726485992391
 20
137.64472534520081
 30
0.0
 11
150.77685902761851
 21
137.64472534520081
 31
0.0
  0
LINE
  5
B7F
  8
0
 10
160.50726485992351
 20
143.40472804327069
 30
0.0
 11
150.77685902761851
 21
143.40472804327069
 31
0.0
  0
LINE
  5
B80
  8
0
 10
160.50726485992391
 20
140.99352301108971
 30
0.0
 11
150.77685902761851
 21
140.99352301108971
 31
0.0
  0
LINE
  5
B81
  8
2
 10
154.47187019668439
 20
139.31912417814519
 30
0.0
 11
154.47187019668439
 21
151.81912417814519
 31
0.0
  0
LINE
  5
B82
  8
0
 10
150.776859027619
 20
146.61787587374931
 30
0.0
 11
150.77685902761851
 21
143.40472804327069
 31
0.0
  0
LINE
  5
B83
  8
2
 10
156.1938701868591
 20
146.31912417814539
 30
0.0
 11
156.1938701868591
 21
132.31912417814539
 31
0.0
  0
LINE
  5
B84
  8
0
 10
174.393870186859
 20
148.81912417814519
 30
0.0
 11
175.893870186859
 21
147.31912417814519
 31
0.0
1001
GENIUS_GENFIL_13
1070
     0
1040
1.5
1040
1.5
1040
20.0
1040
0.0
1002
{
1002
}
1001
GENIUS_GENODEF_13
1002
{
1000
HIER
1070
     0
1002
}
1002
{
1000
MANEDIT
1070
     0
1002
}
1002
{
1000
NOSEL
1070
     0
1002
}
1002
{
1000
BEHIND
1070
     0
1002
}
1002
{
1000
REACTOR
1002
}
1001
GENIUS_GENOBJ-N-CHA_13
1002
{
1000
OWNER
1000
GEN
1002
}
  0
LINE
  5
B85
  8
0
 10
176.1938701868591
 20
146.31912417814519
 30
0.0
 11
175.893870186859
 21
146.31912417814519
 31
0.0
  0
LINE
  5
B86
  8
0
 10
174.393870186859
 20
129.81912417814519
 30
0.0
 11
174.393870186859
 21
139.31912417814519
 31
0.0
  0
LINE
  5
B87
  8
0
 10
176.1938701868591
 20
132.3191241781453
 30
0.0
 11
175.893870186859
 21
132.3191241781453
 31
0.0
  0
LINE
  5
B88
  8
0
 10
174.393870186859
 20
148.81912417814519
 30
0.0
 11
174.393870186859
 21
139.31912417814519
 31
0.0
  0
LINE
  5
B89
  8
0
 10
175.8938701868592
 20
131.31912417814539
 30
0.0
 11
175.893870186859
 21
147.31912417814519
 31
0.0
  0
LINE
  5
B8A
  8
0
 10
176.1938701868591
 20
132.3191241781453
 30
0.0
 11
176.1938701868591
 21
146.31912417814519
 31
0.0
  0
LINE
  5
B8B
  8
2
 10
175.893870186859
 20
146.31912417814519
 30
0.0
 11
154.47187019668431
 21
146.3191241781451
 31
0.0
  0
LINE
  5
B8C
  8
2
 10
175.89387018685909
 20
132.3191241781453
 30
0.0
 11
154.47187019668431
 21
132.3191241781453
 31
0.0
  0
LINE
  5
B8D
  8
1
 10
144.19387020248999
 20
139.31912417814519
 30
0.0
 11
181.1938701868591
 21
139.31912417814519
 31
0.0
  0
ARC
  5
B8E
  8
0
 10
152.67652838394821
 20
124.25100545716001
 30
0.0
 40
3.231924233102454
 50
223.8682339423851
 51
234.00017627790081
  0
ARC
  5
B8F
  8
0
 10
150.8888949499545
 20
126.06681809344001
 30
0.0
 40
0.9272959542617094
 50
96.939431023455086
 51
263.06056897647272
  0
ARC
  5
B90
  8
0
 10
151.3861334574448
 20
124.6498412243228
 30
0.0
 40
1.8026100351283409
 50
235.30608191942451
 51
250.24519212232849
  0
ARC
  5
B91
  8
0
 10
150.26745681229511
 20
122.8776631477259
 30
0.0
 40
0.3044999999695499
 50
72.286782645002987
 51
174.42288787826371
1001
GENIUS_GENODEF_13
1002
{
1000
HIER
1070
     0
1002
}
1002
{
1000
MANEDIT
1070
     0
1002
}
1002
{
1000
NOSEL
1070
     0
1002
}
1002
{
1000
BEHIND
1070
     0
1002
}
1002
{
1000
REACTOR
1002
}
1001
GENIUS_GENOBJ-N-FIL_13
1002
{
1000
OWNER
1000
GEN
1002
}
  0
LINE
  5
B92
  8
0
 10
150.77685902761991
 20
122.9533190146518
 30
0.0
 11
150.77685902761991
 21
125.1463151119689
 31
0.0
  0
ARC
  5
B93
  8
0
 10
150.97459351972509
 20
122.8086129710133
 30
0.0
 40
1.0149999998984991
 50
180.0
 51
231.77202870974961
1001
GENIUS_GENODEF_13
1002
{
1000
HIER
1070
     0
1002
}
1002
{
1000
MANEDIT
1070
     0
1002
}
1002
{
1000
NOSEL
1070
     0
1002
}
1002
{
1000
BEHIND
1070
     0
1002
}
1002
{
1000
REACTOR
1002
}
1001
GENIUS_GENOBJ-N-FIL_13
1002
{
1000
OWNER
1000
GEN
1002
}
  0
LINE
  5
B94
  8
0
 10
149.96439822339639
 20
122.9072560806032
 30
0.0
 11
149.9595935198264
 21
122.8086129710133
 31
0.0
  0
ARC
  5
B95
  8
0
 10
151.14557880215111
 20
121.9376756228241
 30
0.0
 40
1.6964505739908811
 50
235.75782459007621
 51
257.44669676044327
  0
ARC
  5
B96
  8
0
 10
150.86851701471809
 20
120.6104453703157
 30
0.0
 40
1.0149999998984991
 50
264.81893624862897
 51
268.96143919042072
1001
GENIUS_GENODEF_13
1002
{
1000
HIER
1070
     0
1002
}
1002
{
1000
MANEDIT
1070
     0
1002
}
1002
{
1000
NOSEL
1070
     0
1002
}
1002
{
1000
BEHIND
1070
     0
1002
}
1002
{
1000
REACTOR
1002
}
1001
GENIUS_GENOBJ-N-FIL_13
1002
{
1000
OWNER
1000
GEN
1002
}
  0
ARC
  5
B97
  8
0
 10
151.93326396611391
 20
121.82414156118431
 30
0.0
 40
2.5071680320029488
 50
219.72374532992279
 51
242.53288063473511
  0
ARC
  5
B98
  8
0
 10
150.15216386215781
 20
120.3463773865171
 30
0.0
 40
0.192849999980715
 50
78.382459963516823
 51
220.22212637348451
1001
GENIUS_GENODEF_13
1002
{
1000
HIER
1070
     0
1002
}
1002
{
1000
MANEDIT
1070
     0
1002
}
1002
{
1000
NOSEL
1070
     0
1002
}
1002
{
1000
BEHIND
1070
     0
1002
}
1002
{
1000
REACTOR
1002
}
1001
GENIUS_GENOBJ-N-FIL_13
1002
{
1000
OWNER
1000
GEN
1002
}
  0
LINE
  5
B99
  8
0
 10
150.77685902762039
 20
120.281780010817
 30
0.0
 11
150.77685902762039
 21
121.63631798346169
 31
0.0
  0
POLYLINE
  5
B9A
  8
0
 10
160.45756169507081
 20
121.63631815852229
 30
0.0
 66
     1
 70
     8
  0
VERTEX
  8
0
  5
179A
 10
160.458
 20
121.636
 30
0.000000
  70
    32
  0
VERTEX
  8
0
  5
179B
 10
160.487
 20
121.637
 30
0.000000
  70
    32
  0
VERTEX
  8
0
  5
179C
 10
160.517
 20
121.637
 30
0.000000
  70
    32
  0
VERTEX
  8
0
  5
179D
 10
160.547
 20
121.638
 30
0.000000
  70
    32
  0
VERTEX
  8
0
  5
179E
 10
160.576
 20
121.639
 30
0.000000
  70
    32
  0
VERTEX
  8
0
  5
179F
 10
160.606
 20
121.641
 30
0.000000
  70
    32
  0
VERTEX
  8
0
  5
17A0
 10
160.636
 20
121.643
 30
0.000000
  70
    32
  0
VERTEX
  8
0
  5
17A1
 10
160.665
 20
121.646
 30
0.000000
  70
    32
  0
VERTEX
  8
0
  5
17A2
 10
160.694
 20
121.649
 30
0.000000
  70
    32
  0
VERTEX
  8
0
  5
17A3
 10
160.723
 20
121.652
 30
0.000000
  70
    32
  0
VERTEX
  8
0
  5
17A4
 10
160.752
 20
121.656
 30
0.000000
  70
    32
  0
VERTEX
  8
0
  5
17A5
 10
160.781
 20
121.660
 30
0.000000
  70
    32
  0
VERTEX
  8
0
  5
17A6
 10
160.810
 20
121.665
 30
0.000000
  70
    32
  0
VERTEX
  8
0
  5
17A7
 10
160.838
 20
121.670
 30
0.000000
  70
    32
  0
VERTEX
  8
0
  5
17A8
 10
160.866
 20
121.675
 30
0.000000
  70
    32
  0
VERTEX
  8
0
  5
17A9
 10
160.894
 20
121.680
 30
0.000000
  70
    32
  0
VERTEX
  8
0
  5
17AA
 10
160.922
 20
121.686
 30
0.000000
  70
    32
  0
VERTEX
  8
0
  5
17AB
 10
160.949
 20
121.693
 30
0.000000
  70
    32
  0
VERTEX
  8
0
  5
17AC
 10
160.976
 20
121.700
 30
0.000000
  70
    32
  0
VERTEX
  8
0
  5
17AD
 10
161.003
 20
121.707
 30
0.000000
  70
    32
  0
VERTEX
  8
0
  5
17AE
 10
161.029
 20
121.714
 30
0.000000
  70
    32
  0
VERTEX
  8
0
  5
17AF
 10
161.056
 20
121.722
 30
0.000000
  70
    32
  0
VERTEX
  8
0
  5
17B0
 10
161.081
 20
121.730
 30
0.000000
  70
    32
  0
VERTEX
  8
0
  5
17B1
 10
161.107
 20
121.738
 30
0.000000
  70
    32
  0
VERTEX
  8
0
  5
17B2
 10
161.132
 20
121.747
 30
0.000000
  70
    32
  0
VERTEX
  8
0
  5
17B3
 10
161.156
 20
121.756
 30
0.000000
  70
    32
  0
VERTEX
  8
0
  5
17B4
 10
161.180
 20
121.766
 30
0.000000
  70
    32
  0
VERTEX
  8
0
  5
17B5
 10
161.204
 20
121.776
 30
0.000000
  70
    32
  0
VERTEX
  8
0
  5
17B6
 10
161.227
 20
121.786
 30
0.000000
  70
    32
  0
VERTEX
  8
0
  5
17B7
 10
161.250
 20
121.796
 30
0.000000
  70
    32
  0
VERTEX
  8
0
  5
17B8
 10
161.272
 20
121.807
 30
0.000000
  70
    32
  0
VERTEX
  8
0
  5
17B9
 10
161.294
 20
121.818
 30
0.000000
  70
    32
  0
VERTEX
  8
0
  5
17BA
 10
161.315
 20
121.829
 30
0.000000
  70
    32
  0
VERTEX
  8
0
  5
17BB
 10
161.336
 20
121.841
 30
0.000000
  70
    32
  0
VERTEX
  8
0
  5
17BC
 10
161.356
 20
121.853
 30
0.000000
  70
    32
  0
VERTEX
  8
0
  5
17BD
 10
161.376
 20
121.865
 30
0.000000
  70
    32
  0
VERTEX
  8
0
  5
17BE
 10
161.395
 20
121.877
 30
0.000000
  70
    32
  0
VERTEX
  8
0
  5
17BF
 10
161.414
 20
121.890
 30
0.000000
  70
    32
  0
VERTEX
  8
0
  5
17C0
 10
161.432
 20
121.903
 30
0.000000
  70
    32
  0
VERTEX
  8
0
  5
17C1
 10
161.449
 20
121.916
 30
0.000000
  70
    32
  0
VERTEX
  8
0
  5
17C2
 10
161.466
 20
121.929
 30
0.000000
  70
    32
  0
VERTEX
  8
0
  5
17C3
 10
161.482
 20
121.943
 30
0.000000
  70
    32
  0
VERTEX
  8
0
  5
17C4
 10
161.498
 20
121.956
 30
0.000000
  70
    32
  0
VERTEX
  8
0
  5
17C5
 10
161.513
 20
121.970
 30
0.000000
  70
    32
  0
VERTEX
  8
0
  5
17C6
 10
161.527
 20
121.984
 30
0.000000
  70
    32
  0
VERTEX
  8
0
  5
17C7
 10
161.541
 20
121.999
 30
0.000000
  70
    32
  0
VERTEX
  8
0
  5
17C8
 10
161.554
 20
122.013
 30
0.000000
  70
    32
  0
VERTEX
  8
0
  5
17C9
 10
161.567
 20
122.028
 30
0.000000
  70
    32
  0
VERTEX
  8
0
  5
17CA
 10
161.578
 20
122.043
 30
0.000000
  70
    32
  0
VERTEX
  8
0
  5
17CB
 10
161.589
 20
122.058
 30
0.000000
  70
    32
  0
VERTEX
  8
0
  5
17CC
 10
161.600
 20
122.073
 30
0.000000
  70
    32
  0
VERTEX
  8
0
  5
17CD
 10
161.609
 20
122.088
 30
0.000000
  70
    32
  0
VERTEX
  8
0
  5
17CE
 10
161.618
 20
122.104
 30
0.000000
  70
    32
  0
VERTEX
  8
0
  5
17CF
 10
161.627
 20
122.119
 30
0.000000
  70
    32
  0
VERTEX
  8
0
  5
17D0
 10
161.634
 20
122.135
 30
0.000000
  70
    32
  0
VERTEX
  8
0
  5
17D1
 10
161.641
 20
122.151
 30
0.000000
  70
    32
  0
VERTEX
  8
0
  5
17D2
 10
161.647
 20
122.166
 30
0.000000
  70
    32
  0
VERTEX
  8
0
  5
17D3
 10
161.653
 20
122.182
 30
0.000000
  70
    32
  0
VERTEX
  8
0
  5
17D4
 10
161.658
 20
122.198
 30
0.000000
  70
    32
  0
VERTEX
  8
0
  5
17D5
 10
161.662
 20
122.214
 30
0.000000
  70
    32
  0
VERTEX
  8
0
  5
17D6
 10
161.665
 20
122.230
 30
0.000000
  70
    32
  0
VERTEX
  8
0
  5
17D7
 10
161.667
 20
122.246
 30
0.000000
  70
    32
  0
VERTEX
  8
0
  5
17D8
 10
161.669
 20
122.263
 30
0.000000
  70
    32
  0
VERTEX
  8
0
  5
17D9
 10
161.670
 20
122.279
 30
0.000000
  70
    32
  0
VERTEX
  8
0
  5
17DA
 10
161.671
 20
122.295
 30
0.000000
  70
    32
  0
VERTEX
  8
0
  5
17DB
 10
161.670
 20
122.311
 30
0.000000
  70
    32
  0
VERTEX
  8
0
  5
17DC
 10
161.669
 20
122.327
 30
0.000000
  70
    32
  0
VERTEX
  8
0
  5
17DD
 10
161.667
 20
122.343
 30
0.000000
  70
    32
  0
VERTEX
  8
0
  5
17DE
 10
161.665
 20
122.359
 30
0.000000
  70
    32
  0
VERTEX
  8
0
  5
17DF
 10
161.662
 20
122.375
 30
0.000000
  70
    32
  0
VERTEX
  8
0
  5
17E0
 10
161.658
 20
122.391
 30
0.000000
  70
    32
  0
VERTEX
  8
0
  5
17E1
 10
161.653
 20
122.407
 30
0.000000
  70
    32
  0
VERTEX
  8
0
  5
17E2
 10
161.647
 20
122.423
 30
0.000000
  70
    32
  0
VERTEX
  8
0
  5
17E3
 10
161.641
 20
122.439
 30
0.000000
  70
    32
  0
VERTEX
  8
0
  5
17E4
 10
161.634
 20
122.455
 30
0.000000
  70
    32
  0
VERTEX
  8
0
  5
17E5
 10
161.627
 20
122.470
 30
0.000000
  70
    32
  0
VERTEX
  8
0
  5
17E6
 10
161.618
 20
122.486
 30
0.000000
  70
    32
  0
VERTEX
  8
0
  5
17E7
 10
161.609
 20
122.501
 30
0.000000
  70
    32
  0
VERTEX
  8
0
  5
17E8
 10
161.600
 20
122.517
 30
0.000000
  70
    32
  0
VERTEX
  8
0
  5
17E9
 10
161.589
 20
122.532
 30
0.000000
  70
    32
  0
VERTEX
  8
0
  5
17EA
 10
161.578
 20
122.547
 30
0.000000
  70
    32
  0
VERTEX
  8
0
  5
17EB
 10
161.567
 20
122.562
 30
0.000000
  70
    32
  0
VERTEX
  8
0
  5
17EC
 10
161.554
 20
122.576
 30
0.000000
  70
    32
  0
VERTEX
  8
0
  5
17ED
 10
161.541
 20
122.591
 30
0.000000
  70
    32
  0
VERTEX
  8
0
  5
17EE
 10
161.527
 20
122.605
 30
0.000000
  70
    32
  0
VERTEX
  8
0
  5
17EF
 10
161.513
 20
122.619
 30
0.000000
  70
    32
  0
VERTEX
  8
0
  5
17F0
 10
161.498
 20
122.633
 30
0.000000
  70
    32
  0
VERTEX
  8
0
  5
17F1
 10
161.482
 20
122.647
 30
0.000000
  70
    32
  0
VERTEX
  8
0
  5
17F2
 10
161.466
 20
122.661
 30
0.000000
  70
    32
  0
VERTEX
  8
0
  5
17F3
 10
161.449
 20
122.674
 30
0.000000
  70
    32
  0
VERTEX
  8
0
  5
17F4
 10
161.432
 20
122.687
 30
0.000000
  70
    32
  0
VERTEX
  8
0
  5
17F5
 10
161.414
 20
122.700
 30
0.000000
  70
    32
  0
VERTEX
  8
0
  5
17F6
 10
161.395
 20
122.713
 30
0.000000
  70
    32
  0
VERTEX
  8
0
  5
17F7
 10
161.376
 20
122.725
 30
0.000000
  70
    32
  0
VERTEX
  8
0
  5
17F8
 10
161.356
 20
122.737
 30
0.000000
  70
    32
  0
VERTEX
  8
0
  5
17F9
 10
161.336
 20
122.749
 30
0.000000
  70
    32
  0
VERTEX
  8
0
  5
17FA
 10
161.315
 20
122.760
 30
0.000000
  70
    32
  0
VERTEX
  8
0
  5
17FB
 10
161.294
 20
122.772
 30
0.000000
  70
    32
  0
VERTEX
  8
0
  5
17FC
 10
161.272
 20
122.783
 30
0.000000
  70
    32
  0
VERTEX
  8
0
  5
17FD
 10
161.250
 20
122.793
 30
0.000000
  70
    32
  0
VERTEX
  8
0
  5
17FE
 10
161.227
 20
122.804
 30
0.000000
  70
    32
  0
VERTEX
  8
0
  5
17FF
 10
161.204
 20
122.814
 30
0.000000
  70
    32
  0
VERTEX
  8
0
  5
1800
 10
161.180
 20
122.824
 30
0.000000
  70
    32
  0
VERTEX
  8
0
  5
1801
 10
161.156
 20
122.833
 30
0.000000
  70
    32
  0
VERTEX
  8
0
  5
1802
 10
161.132
 20
122.842
 30
0.000000
  70
    32
  0
VERTEX
  8
0
  5
1803
 10
161.107
 20
122.851
 30
0.000000
  70
    32
  0
VERTEX
  8
0
  5
1804
 10
161.081
 20
122.860
 30
0.000000
  70
    32
  0
VERTEX
  8
0
  5
1805
 10
161.056
 20
122.868
 30
0.000000
  70
    32
  0
VERTEX
  8
0
  5
1806
 10
161.029
 20
122.876
 30
0.000000
  70
    32
  0
VERTEX
  8
0
  5
1807
 10
161.003
 20
122.883
 30
0.000000
  70
    32
  0
VERTEX
  8
0
  5
1808
 10
160.976
 20
122.890
 30
0.000000
  70
    32
  0
VERTEX
  8
0
  5
1809
 10
160.949
 20
122.897
 30
0.000000
  70
    32
  0
VERTEX
  8
0
  5
180A
 10
160.922
 20
122.903
 30
0.000000
  70
    32
  0
VERTEX
  8
0
  5
180B
 10
160.894
 20
122.909
 30
0.000000
  70
    32
  0
VERTEX
  8
0
  5
180C
 10
160.866
 20
122.915
 30
0.000000
  70
    32
  0
VERTEX
  8
0
  5
180D
 10
160.838
 20
122.920
 30
0.000000
  70
    32
  0
VERTEX
  8
0
  5
180E
 10
160.810
 20
122.925
 30
0.000000
  70
    32
  0
VERTEX
  8
0
  5
180F
 10
160.781
 20
122.929
 30
0.000000
  70
    32
  0
VERTEX
  8
0
  5
1810
 10
160.752
 20
122.934
 30
0.000000
  70
    32
  0
VERTEX
  8
0
  5
1811
 10
160.723
 20
122.937
 30
0.000000
  70
    32
  0
VERTEX
  8
0
  5
1812
 10
160.694
 20
122.941
 30
0.000000
  70
    32
  0
VERTEX
  8
0
  5
1813
 10
160.665
 20
122.944
 30
0.000000
  70
    32
  0
VERTEX
  8
0
  5
1814
 10
160.636
 20
122.946
 30
0.000000
  70
    32
  0
VERTEX
  8
0
  5
1815
 10
160.606
 20
122.948
 30
0.000000
  70
    32
  0
VERTEX
  8
0
  5
1816
 10
160.576
 20
122.950
 30
0.000000
  70
    32
  0
VERTEX
  8
0
  5
1817
 10
160.547
 20
122.952
 30
0.000000
  70
    32
  0
VERTEX
  8
0
  5
1818
 10
160.517
 20
122.953
 30
0.000000
  70
    32
  0
VERTEX
  8
0
  5
1819
 10
160.487
 20
122.953
 30
0.000000
  70
    32
  0
VERTEX
  8
0
  5
181A
 10
160.458
 20
122.953
 30
0.000000
  70
    32
  0
SEQEND
  8
0
  5
181B
  0
LINE
  5
B9B
  8
0
 10
161.7203951030215
 20
126.06692011187729
 30
0.0
 11
161.7203951030215
 21
126.0667160750037
 31
0.0
  0
POLYLINE
  5
B9C
  8
0
 10
160.45844572447299
 20
125.1463152522809
 30
0.0
 66
     1
 70
     8
  0
VERTEX
  8
0
  5
181C
 10
160.458
 20
125.146
 30
0.000000
  70
    32
  0
VERTEX
  8
0
  5
181D
 10
160.488
 20
125.147
 30
0.000000
  70
    32
  0
VERTEX
  8
0
  5
181E
 10
160.518
 20
125.147
 30
0.000000
  70
    32
  0
VERTEX
  8
0
  5
181F
 10
160.548
 20
125.149
 30
0.000000
  70
    32
  0
VERTEX
  8
0
  5
1820
 10
160.577
 20
125.151
 30
0.000000
  70
    32
  0
VERTEX
  8
0
  5
1821
 10
160.607
 20
125.153
 30
0.000000
  70
    32
  0
VERTEX
  8
0
  5
1822
 10
160.636
 20
125.156
 30
0.000000
  70
    32
  0
VERTEX
  8
0
  5
1823
 10
160.666
 20
125.160
 30
0.000000
  70
    32
  0
VERTEX
  8
0
  5
1824
 10
160.695
 20
125.164
 30
0.000000
  70
    32
  0
VERTEX
  8
0
  5
1825
 10
160.724
 20
125.169
 30
0.000000
  70
    32
  0
VERTEX
  8
0
  5
1826
 10
160.753
 20
125.174
 30
0.000000
  70
    32
  0
VERTEX
  8
0
  5
1827
 10
160.782
 20
125.180
 30
0.000000
  70
    32
  0
VERTEX
  8
0
  5
1828
 10
160.811
 20
125.186
 30
0.000000
  70
    32
  0
VERTEX
  8
0
  5
1829
 10
160.839
 20
125.193
 30
0.000000
  70
    32
  0
VERTEX
  8
0
  5
182A
 10
160.867
 20
125.200
 30
0.000000
  70
    32
  0
VERTEX
  8
0
  5
182B
 10
160.895
 20
125.208
 30
0.000000
  70
    32
  0
VERTEX
  8
0
  5
182C
 10
160.923
 20
125.216
 30
0.000000
  70
    32
  0
VERTEX
  8
0
  5
182D
 10
160.950
 20
125.225
 30
0.000000
  70
    32
  0
VERTEX
  8
0
  5
182E
 10
160.977
 20
125.235
 30
0.000000
  70
    32
  0
VERTEX
  8
0
  5
182F
 10
161.004
 20
125.245
 30
0.000000
  70
    32
  0
VERTEX
  8
0
  5
1830
 10
161.030
 20
125.255
 30
0.000000
  70
    32
  0
VERTEX
  8
0
  5
1831
 10
161.056
 20
125.266
 30
0.000000
  70
    32
  0
VERTEX
  8
0
  5
1832
 10
161.082
 20
125.277
 30
0.000000
  70
    32
  0
VERTEX
  8
0
  5
1833
 10
161.107
 20
125.289
 30
0.000000
  70
    32
  0
VERTEX
  8
0
  5
1834
 10
161.132
 20
125.301
 30
0.000000
  70
    32
  0
VERTEX
  8
0
  5
1835
 10
161.157
 20
125.314
 30
0.000000
  70
    32
  0
VERTEX
  8
0
  5
1836
 10
161.181
 20
125.327
 30
0.000000
  70
    32
  0
VERTEX
  8
0
  5
1837
 10
161.205
 20
125.341
 30
0.000000
  70
    32
  0
VERTEX
  8
0
  5
1838
 10
161.228
 20
125.355
 30
0.000000
  70
    32
  0
VERTEX
  8
0
  5
1839
 10
161.251
 20
125.370
 30
0.000000
  70
    32
  0
VERTEX
  8
0
  5
183A
 10
161.273
 20
125.385
 30
0.000000
  70
    32
  0
VERTEX
  8
0
  5
183B
 10
161.295
 20
125.400
 30
0.000000
  70
    32
  0
VERTEX
  8
0
  5
183C
 10
161.316
 20
125.416
 30
0.000000
  70
    32
  0
VERTEX
  8
0
  5
183D
 10
161.337
 20
125.432
 30
0.000000
  70
    32
  0
VERTEX
  8
0
  5
183E
 10
161.357
 20
125.449
 30
0.000000
  70
    32
  0
VERTEX
  8
0
  5
183F
 10
161.377
 20
125.466
 30
0.000000
  70
    32
  0
VERTEX
  8
0
  5
1840
 10
161.396
 20
125.483
 30
0.000000
  70
    32
  0
VERTEX
  8
0
  5
1841
 10
161.415
 20
125.500
 30
0.000000
  70
    32
  0
VERTEX
  8
0
  5
1842
 10
161.433
 20
125.518
 30
0.000000
  70
    32
  0
VERTEX
  8
0
  5
1843
 10
161.450
 20
125.537
 30
0.000000
  70
    32
  0
VERTEX
  8
0
  5
1844
 10
161.467
 20
125.555
 30
0.000000
  70
    32
  0
VERTEX
  8
0
  5
1845
 10
161.483
 20
125.574
 30
0.000000
  70
    32
  0
VERTEX
  8
0
  5
1846
 10
161.499
 20
125.594
 30
0.000000
  70
    32
  0
VERTEX
  8
0
  5
1847
 10
161.514
 20
125.613
 30
0.000000
  70
    32
  0
VERTEX
  8
0
  5
1848
 10
161.528
 20
125.633
 30
0.000000
  70
    32
  0
VERTEX
  8
0
  5
1849
 10
161.542
 20
125.653
 30
0.000000
  70
    32
  0
VERTEX
  8
0
  5
184A
 10
161.555
 20
125.673
 30
0.000000
  70
    32
  0
VERTEX
  8
0
  5
184B
 10
161.568
 20
125.694
 30
0.000000
  70
    32
  0
VERTEX
  8
0
  5
184C
 10
161.579
 20
125.715
 30
0.000000
  70
    32
  0
VERTEX
  8
0
  5
184D
 10
161.590
 20
125.736
 30
0.000000
  70
    32
  0
VERTEX
  8
0
  5
184E
 10
161.601
 20
125.757
 30
0.000000
  70
    32
  0
VERTEX
  8
0
  5
184F
 10
161.610
 20
125.778
 30
0.000000
  70
    32
  0
VERTEX
  8
0
  5
1850
 10
161.619
 20
125.800
 30
0.000000
  70
    32
  0
VERTEX
  8
0
  5
1851
 10
161.628
 20
125.821
 30
0.000000
  70
    32
  0
VERTEX
  8
0
  5
1852
 10
161.635
 20
125.843
 30
0.000000
  70
    32
  0
VERTEX
  8
0
  5
1853
 10
161.642
 20
125.865
 30
0.000000
  70
    32
  0
VERTEX
  8
0
  5
1854
 10
161.648
 20
125.887
 30
0.000000
  70
    32
  0
VERTEX
  8
0
  5
1855
 10
161.654
 20
125.909
 30
0.000000
  70
    32
  0
VERTEX
  8
0
  5
1856
 10
161.658
 20
125.932
 30
0.000000
  70
    32
  0
VERTEX
  8
0
  5
1857
 10
161.662
 20
125.954
 30
0.000000
  70
    32
  0
VERTEX
  8
0
  5
1858
 10
161.666
 20
125.977
 30
0.000000
  70
    32
  0
VERTEX
  8
0
  5
1859
 10
161.668
 20
125.999
 30
0.000000
  70
    32
  0
VERTEX
  8
0
  5
185A
 10
161.670
 20
126.022
 30
0.000000
  70
    32
  0
VERTEX
  8
0
  5
185B
 10
161.671
 20
126.044
 30
0.000000
  70
    32
  0
VERTEX
  8
0
  5
185C
 10
161.672
 20
126.067
 30
0.000000
  70
    32
  0
VERTEX
  8
0
  5
185D
 10
161.671
 20
126.089
 30
0.000000
  70
    32
  0
VERTEX
  8
0
  5
185E
 10
161.670
 20
126.112
 30
0.000000
  70
    32
  0
VERTEX
  8
0
  5
185F
 10
161.668
 20
126.135
 30
0.000000
  70
    32
  0
VERTEX
  8
0
  5
1860
 10
161.666
 20
126.157
 30
0.000000
  70
    32
  0
VERTEX
  8
0
  5
1861
 10
161.662
 20
126.179
 30
0.000000
  70
    32
  0
VERTEX
  8
0
  5
1862
 10
161.658
 20
126.202
 30
0.000000
  70
    32
  0
VERTEX
  8
0
  5
1863
 10
161.654
 20
126.224
 30
0.000000
  70
    32
  0
VERTEX
  8
0
  5
1864
 10
161.648
 20
126.246
 30
0.000000
  70
    32
  0
VERTEX
  8
0
  5
1865
 10
161.642
 20
126.269
 30
0.000000
  70
    32
  0
VERTEX
  8
0
  5
1866
 10
161.635
 20
126.290
 30
0.000000
  70
    32
  0
VERTEX
  8
0
  5
1867
 10
161.628
 20
126.312
 30
0.000000
  70
    32
  0
VERTEX
  8
0
  5
1868
 10
161.619
 20
126.334
 30
0.000000
  70
    32
  0
VERTEX
  8
0
  5
1869
 10
161.610
 20
126.356
 30
0.000000
  70
    32
  0
VERTEX
  8
0
  5
186A
 10
161.601
 20
126.377
 30
0.000000
  70
    32
  0
VERTEX
  8
0
  5
186B
 10
161.590
 20
126.398
 30
0.000000
  70
    32
  0
VERTEX
  8
0
  5
186C
 10
161.579
 20
126.419
 30
0.000000
  70
    32
  0
VERTEX
  8
0
  5
186D
 10
161.568
 20
126.440
 30
0.000000
  70
    32
  0
VERTEX
  8
0
  5
186E
 10
161.555
 20
126.460
 30
0.000000
  70
    32
  0
VERTEX
  8
0
  5
186F
 10
161.542
 20
126.481
 30
0.000000
  70
    32
  0
VERTEX
  8
0
  5
1870
 10
161.528
 20
126.501
 30
0.000000
  70
    32
  0
VERTEX
  8
0
  5
1871
 10
161.514
 20
126.521
 30
0.000000
  70
    32
  0
VERTEX
  8
0
  5
1872
 10
161.499
 20
126.540
 30
0.000000
  70
    32
  0
VERTEX
  8
0
  5
1873
 10
161.483
 20
126.559
 30
0.000000
  70
    32
  0
VERTEX
  8
0
  5
1874
 10
161.467
 20
126.578
 30
0.000000
  70
    32
  0
VERTEX
  8
0
  5
1875
 10
161.450
 20
126.597
 30
0.000000
  70
    32
  0
VERTEX
  8
0
  5
1876
 10
161.433
 20
126.615
 30
0.000000
  70
    32
  0
VERTEX
  8
0
  5
1877
 10
161.415
 20
126.633
 30
0.000000
  70
    32
  0
VERTEX
  8
0
  5
1878
 10
161.396
 20
126.651
 30
0.000000
  70
    32
  0
VERTEX
  8
0
  5
1879
 10
161.377
 20
126.668
 30
0.000000
  70
    32
  0
VERTEX
  8
0
  5
187A
 10
161.357
 20
126.685
 30
0.000000
  70
    32
  0
VERTEX
  8
0
  5
187B
 10
161.337
 20
126.702
 30
0.000000
  70
    32
  0
VERTEX
  8
0
  5
187C
 10
161.316
 20
126.718
 30
0.000000
  70
    32
  0
VERTEX
  8
0
  5
187D
 10
161.295
 20
126.733
 30
0.000000
  70
    32
  0
VERTEX
  8
0
  5
187E
 10
161.273
 20
126.749
 30
0.000000
  70
    32
  0
VERTEX
  8
0
  5
187F
 10
161.251
 20
126.764
 30
0.000000
  70
    32
  0
VERTEX
  8
0
  5
1880
 10
161.228
 20
126.778
 30
0.000000
  70
    32
  0
VERTEX
  8
0
  5
1881
 10
161.205
 20
126.792
 30
0.000000
  70
    32
  0
VERTEX
  8
0
  5
1882
 10
161.181
 20
126.806
 30
0.000000
  70
    32
  0
VERTEX
  8
0
  5
1883
 10
161.157
 20
126.819
 30
0.000000
  70
    32
  0
VERTEX
  8
0
  5
1884
 10
161.132
 20
126.832
 30
0.000000
  70
    32
  0
VERTEX
  8
0
  5
1885
 10
161.107
 20
126.845
 30
0.000000
  70
    32
  0
VERTEX
  8
0
  5
1886
 10
161.082
 20
126.856
 30
0.000000
  70
    32
  0
VERTEX
  8
0
  5
1887
 10
161.056
 20
126.868
 30
0.000000
  70
    32
  0
VERTEX
  8
0
  5
1888
 10
161.030
 20
126.879
 30
0.000000
  70
    32
  0
VERTEX
  8
0
  5
1889
 10
161.004
 20
126.889
 30
0.000000
  70
    32
  0
VERTEX
  8
0
  5
188A
 10
160.977
 20
126.899
 30
0.000000
  70
    32
  0
VERTEX
  8
0
  5
188B
 10
160.950
 20
126.908
 30
0.000000
  70
    32
  0
VERTEX
  8
0
  5
188C
 10
160.923
 20
126.917
 30
0.000000
  70
    32
  0
VERTEX
  8
0
  5
188D
 10
160.895
 20
126.926
 30
0.000000
  70
    32
  0
VERTEX
  8
0
  5
188E
 10
160.867
 20
126.934
 30
0.000000
  70
    32
  0
VERTEX
  8
0
  5
188F
 10
160.839
 20
126.941
 30
0.000000
  70
    32
  0
VERTEX
  8
0
  5
1890
 10
160.811
 20
126.948
 30
0.000000
  70
    32
  0
VERTEX
  8
0
  5
1891
 10
160.782
 20
126.954
 30
0.000000
  70
    32
  0
VERTEX
  8
0
  5
1892
 10
160.753
 20
126.960
 30
0.000000
  70
    32
  0
VERTEX
  8
0
  5
1893
 10
160.724
 20
126.965
 30
0.000000
  70
    32
  0
VERTEX
  8
0
  5
1894
 10
160.695
 20
126.970
 30
0.000000
  70
    32
  0
VERTEX
  8
0
  5
1895
 10
160.666
 20
126.974
 30
0.000000
  70
    32
  0
VERTEX
  8
0
  5
1896
 10
160.636
 20
126.977
 30
0.000000
  70
    32
  0
VERTEX
  8
0
  5
1897
 10
160.607
 20
126.980
 30
0.000000
  70
    32
  0
VERTEX
  8
0
  5
1898
 10
160.577
 20
126.983
 30
0.000000
  70
    32
  0
VERTEX
  8
0
  5
1899
 10
160.548
 20
126.985
 30
0.000000
  70
    32
  0
VERTEX
  8
0
  5
189A
 10
160.518
 20
126.986
 30
0.000000
  70
    32
  0
VERTEX
  8
0
  5
189B
 10
160.488
 20
126.987
 30
0.000000
  70
    32
  0
VERTEX
  8
0
  5
189C
 10
160.458
 20
126.987
 30
0.000000
  70
    32
  0
SEQEND
  8
0
  5
189D
  0
LINE
  5
B9D
  8
0
 10
161.67069192615901
 20
122.2950531519345
 30
0.0
 11
161.67069192615901
 21
122.2945841832606
 31
0.0
  0
POLYLINE
  5
B9E
  8
0
 10
160.52521638029856
 20
119.40761345209141
 30
0.0
 66
     1
 70
     8
  0
VERTEX
  8
0
  5
189E
 10
160.525
 20
119.408
 30
0.000000
  70
    32
  0
VERTEX
  8
0
  5
189F
 10
160.555
 20
119.408
 30
0.000000
  70
    32
  0
VERTEX
  8
0
  5
18A0
 10
160.584
 20
119.409
 30
0.000000
  70
    32
  0
VERTEX
  8
0
  5
18A1
 10
160.613
 20
119.409
 30
0.000000
  70
    32
  0
VERTEX
  8
0
  5
18A2
 10
160.643
 20
119.410
 30
0.000000
  70
    32
  0
VERTEX
  8
0
  5
18A3
 10
160.672
 20
119.411
 30
0.000000
  70
    32
  0
VERTEX
  8
0
  5
18A4
 10
160.701
 20
119.413
 30
0.000000
  70
    32
  0
VERTEX
  8
0
  5
18A5
 10
160.730
 20
119.414
 30
0.000000
  70
    32
  0
VERTEX
  8
0
  5
18A6
 10
160.759
 20
119.416
 30
0.000000
  70
    32
  0
VERTEX
  8
0
  5
18A7
 10
160.787
 20
119.418
 30
0.000000
  70
    32
  0
VERTEX
  8
0
  5
18A8
 10
160.816
 20
119.420
 30
0.000000
  70
    32
  0
VERTEX
  8
0
  5
18A9
 10
160.844
 20
119.423
 30
0.000000
  70
    32
  0
VERTEX
  8
0
  5
18AA
 10
160.872
 20
119.425
 30
0.000000
  70
    32
  0
VERTEX
  8
0
  5
18AB
 10
160.900
 20
119.428
 30
0.000000
  70
    32
  0
VERTEX
  8
0
  5
18AC
 10
160.927
 20
119.431
 30
0.000000
  70
    32
  0
VERTEX
  8
0
  5
18AD
 10
160.955
 20
119.434
 30
0.000000
  70
    32
  0
VERTEX
  8
0
  5
18AE
 10
160.982
 20
119.437
 30
0.000000
  70
    32
  0
VERTEX
  8
0
  5
18AF
 10
161.008
 20
119.441
 30
0.000000
  70
    32
  0
VERTEX
  8
0
  5
18B0
 10
161.035
 20
119.445
 30
0.000000
  70
    32
  0
VERTEX
  8
0
  5
18B1
 10
161.061
 20
119.448
 30
0.000000
  70
    32
  0
VERTEX
  8
0
  5
18B2
 10
161.087
 20
119.452
 30
0.000000
  70
    32
  0
VERTEX
  8
0
  5
18B3
 10
161.112
 20
119.457
 30
0.000000
  70
    32
  0
VERTEX
  8
0
  5
18B4
 10
161.137
 20
119.461
 30
0.000000
  70
    32
  0
VERTEX
  8
0
  5
18B5
 10
161.162
 20
119.466
 30
0.000000
  70
    32
  0
VERTEX
  8
0
  5
18B6
 10
161.186
 20
119.470
 30
0.000000
  70
    32
  0
VERTEX
  8
0
  5
18B7
 10
161.210
 20
119.475
 30
0.000000
  70
    32
  0
VERTEX
  8
0
  5
18B8
 10
161.233
 20
119.480
 30
0.000000
  70
    32
  0
VERTEX
  8
0
  5
18B9
 10
161.256
 20
119.485
 30
0.000000
  70
    32
  0
VERTEX
  8
0
  5
18BA
 10
161.279
 20
119.491
 30
0.000000
  70
    32
  0
VERTEX
  8
0
  5
18BB
 10
161.301
 20
119.496
 30
0.000000
  70
    32
  0
VERTEX
  8
0
  5
18BC
 10
161.323
 20
119.502
 30
0.000000
  70
    32
  0
VERTEX
  8
0
  5
18BD
 10
161.344
 20
119.508
 30
0.000000
  70
    32
  0
VERTEX
  8
0
  5
18BE
 10
161.364
 20
119.514
 30
0.000000
  70
    32
  0
VERTEX
  8
0
  5
18BF
 10
161.384
 20
119.520
 30
0.000000
  70
    32
  0
VERTEX
  8
0
  5
18C0
 10
161.404
 20
119.526
 30
0.000000
  70
    32
  0
VERTEX
  8
0
  5
18C1
 10
161.423
 20
119.532
 30
0.000000
  70
    32
  0
VERTEX
  8
0
  5
18C2
 10
161.441
 20
119.539
 30
0.000000
  70
    32
  0
VERTEX
  8
0
  5
18C3
 10
161.459
 20
119.546
 30
0.000000
  70
    32
  0
VERTEX
  8
0
  5
18C4
 10
161.476
 20
119.552
 30
0.000000
  70
    32
  0
VERTEX
  8
0
  5
18C5
 10
161.493
 20
119.559
 30
0.000000
  70
    32
  0
VERTEX
  8
0
  5
18C6
 10
161.509
 20
119.566
 30
0.000000
  70
    32
  0
VERTEX
  8
0
  5
18C7
 10
161.525
 20
119.573
 30
0.000000
  70
    32
  0
VERTEX
  8
0
  5
18C8
 10
161.540
 20
119.580
 30
0.000000
  70
    32
  0
VERTEX
  8
0
  5
18C9
 10
161.554
 20
119.588
 30
0.000000
  70
    32
  0
VERTEX
  8
0
  5
18CA
 10
161.567
 20
119.595
 30
0.000000
  70
    32
  0
VERTEX
  8
0
  5
18CB
 10
161.580
 20
119.602
 30
0.000000
  70
    32
  0
VERTEX
  8
0
  5
18CC
 10
161.593
 20
119.610
 30
0.000000
  70
    32
  0
VERTEX
  8
0
  5
18CD
 10
161.605
 20
119.618
 30
0.000000
  70
    32
  0
VERTEX
  8
0
  5
18CE
 10
161.616
 20
119.625
 30
0.000000
  70
    32
  0
VERTEX
  8
0
  5
18CF
 10
161.626
 20
119.633
 30
0.000000
  70
    32
  0
VERTEX
  8
0
  5
18D0
 10
161.636
 20
119.641
 30
0.000000
  70
    32
  0
VERTEX
  8
0
  5
18D1
 10
161.645
 20
119.649
 30
0.000000
  70
    32
  0
VERTEX
  8
0
  5
18D2
 10
161.653
 20
119.657
 30
0.000000
  70
    32
  0
VERTEX
  8
0
  5
18D3
 10
161.661
 20
119.665
 30
0.000000
  70
    32
  0
VERTEX
  8
0
  5
18D4
 10
161.668
 20
119.673
 30
0.000000
  70
    32
  0
VERTEX
  8
0
  5
18D5
 10
161.674
 20
119.681
 30
0.000000
  70
    32
  0
VERTEX
  8
0
  5
18D6
 10
161.680
 20
119.689
 30
0.000000
  70
    32
  0
VERTEX
  8
0
  5
18D7
 10
161.684
 20
119.697
 30
0.000000
  70
    32
  0
VERTEX
  8
0
  5
18D8
 10
161.689
 20
119.706
 30
0.000000
  70
    32
  0
VERTEX
  8
0
  5
18D9
 10
161.692
 20
119.714
 30
0.000000
  70
    32
  0
VERTEX
  8
0
  5
18DA
 10
161.695
 20
119.722
 30
0.000000
  70
    32
  0
VERTEX
  8
0
  5
18DB
 10
161.697
 20
119.731
 30
0.000000
  70
    32
  0
VERTEX
  8
0
  5
18DC
 10
161.698
 20
119.739
 30
0.000000
  70
    32
  0
VERTEX
  8
0
  5
18DD
 10
161.699
 20
119.747
 30
0.000000
  70
    32
  0
VERTEX
  8
0
  5
18DE
 10
161.699
 20
119.755
 30
0.000000
  70
    32
  0
VERTEX
  8
0
  5
18DF
 10
161.698
 20
119.764
 30
0.000000
  70
    32
  0
VERTEX
  8
0
  5
18E0
 10
161.696
 20
119.772
 30
0.000000
  70
    32
  0
VERTEX
  8
0
  5
18E1
 10
161.694
 20
119.780
 30
0.000000
  70
    32
  0
VERTEX
  8
0
  5
18E2
 10
161.691
 20
119.789
 30
0.000000
  70
    32
  0
VERTEX
  8
0
  5
18E3
 10
161.687
 20
119.797
 30
0.000000
  70
    32
  0
VERTEX
  8
0
  5
18E4
 10
161.683
 20
119.805
 30
0.000000
  70
    32
  0
VERTEX
  8
0
  5
18E5
 10
161.678
 20
119.813
 30
0.000000
  70
    32
  0
VERTEX
  8
0
  5
18E6
 10
161.672
 20
119.821
 30
0.000000
  70
    32
  0
VERTEX
  8
0
  5
18E7
 10
161.665
 20
119.830
 30
0.000000
  70
    32
  0
VERTEX
  8
0
  5
18E8
 10
161.658
 20
119.838
 30
0.000000
  70
    32
  0
VERTEX
  8
0
  5
18E9
 10
161.650
 20
119.846
 30
0.000000
  70
    32
  0
VERTEX
  8
0
  5
18EA
 10
161.642
 20
119.854
 30
0.000000
  70
    32
  0
VERTEX
  8
0
  5
18EB
 10
161.632
 20
119.861
 30
0.000000
  70
    32
  0
VERTEX
  8
0
  5
18EC
 10
161.622
 20
119.869
 30
0.000000
  70
    32
  0
VERTEX
  8
0
  5
18ED
 10
161.612
 20
119.877
 30
0.000000
  70
    32
  0
VERTEX
  8
0
  5
18EE
 10
161.601
 20
119.885
 30
0.000000
  70
    32
  0
VERTEX
  8
0
  5
18EF
 10
161.589
 20
119.892
 30
0.000000
  70
    32
  0
VERTEX
  8
0
  5
18F0
 10
161.576
 20
119.900
 30
0.000000
  70
    32
  0
VERTEX
  8
0
  5
18F1
 10
161.563
 20
119.907
 30
0.000000
  70
    32
  0
VERTEX
  8
0
  5
18F2
 10
161.549
 20
119.915
 30
0.000000
  70
    32
  0
VERTEX
  8
0
  5
18F3
 10
161.534
 20
119.922
 30
0.000000
  70
    32
  0
VERTEX
  8
0
  5
18F4
 10
161.519
 20
119.929
 30
0.000000
  70
    32
  0
VERTEX
  8
0
  5
18F5
 10
161.504
 20
119.936
 30
0.000000
  70
    32
  0
VERTEX
  8
0
  5
18F6
 10
161.487
 20
119.943
 30
0.000000
  70
    32
  0
VERTEX
  8
0
  5
18F7
 10
161.470
 20
119.950
 30
0.000000
  70
    32
  0
VERTEX
  8
0
  5
18F8
 10
161.453
 20
119.956
 30
0.000000
  70
    32
  0
VERTEX
  8
0
  5
18F9
 10
161.435
 20
119.963
 30
0.000000
  70
    32
  0
VERTEX
  8
0
  5
18FA
 10
161.416
 20
119.970
 30
0.000000
  70
    32
  0
VERTEX
  8
0
  5
18FB
 10
161.397
 20
119.976
 30
0.000000
  70
    32
  0
VERTEX
  8
0
  5
18FC
 10
161.377
 20
119.982
 30
0.000000
  70
    32
  0
VERTEX
  8
0
  5
18FD
 10
161.357
 20
119.988
 30
0.000000
  70
    32
  0
VERTEX
  8
0
  5
18FE
 10
161.336
 20
119.994
 30
0.000000
  70
    32
  0
VERTEX
  8
0
  5
18FF
 10
161.315
 20
120.000
 30
0.000000
  70
    32
  0
VERTEX
  8
0
  5
1900
 10
161.293
 20
120.005
 30
0.000000
  70
    32
  0
VERTEX
  8
0
  5
1901
 10
161.271
 20
120.011
 30
0.000000
  70
    32
  0
VERTEX
  8
0
  5
1902
 10
161.248
 20
120.016
 30
0.000000
  70
    32
  0
VERTEX
  8
0
  5
1903
 10
161.225
 20
120.021
 30
0.000000
  70
    32
  0
VERTEX
  8
0
  5
1904
 10
161.202
 20
120.026
 30
0.000000
  70
    32
  0
VERTEX
  8
0
  5
1905
 10
161.178
 20
120.031
 30
0.000000
  70
    32
  0
VERTEX
  8
0
  5
1906
 10
161.153
 20
120.036
 30
0.000000
  70
    32
  0
VERTEX
  8
0
  5
1907
 10
161.128
 20
120.040
 30
0.000000
  70
    32
  0
VERTEX
  8
0
  5
1908
 10
161.103
 20
120.045
 30
0.000000
  70
    32
  0
VERTEX
  8
0
  5
1909
 10
161.078
 20
120.049
 30
0.000000
  70
    32
  0
VERTEX
  8
0
  5
190A
 10
161.052
 20
120.053
 30
0.000000
  70
    32
  0
VERTEX
  8
0
  5
190B
 10
161.026
 20
120.056
 30
0.000000
  70
    32
  0
VERTEX
  8
0
  5
190C
 10
160.999
 20
120.060
 30
0.000000
  70
    32
  0
VERTEX
  8
0
  5
190D
 10
160.972
 20
120.063
 30
0.000000
  70
    32
  0
VERTEX
  8
0
  5
190E
 10
160.945
 20
120.067
 30
0.000000
  70
    32
  0
VERTEX
  8
0
  5
190F
 10
160.918
 20
120.070
 30
0.000000
  70
    32
  0
VERTEX
  8
0
  5
1910
 10
160.890
 20
120.073
 30
0.000000
  70
    32
  0
VERTEX
  8
0
  5
1911
 10
160.862
 20
120.075
 30
0.000000
  70
    32
  0
VERTEX
  8
0
  5
1912
 10
160.834
 20
120.078
 30
0.000000
  70
    32
  0
VERTEX
  8
0
  5
1913
 10
160.806
 20
120.080
 30
0.000000
  70
    32
  0
VERTEX
  8
0
  5
1914
 10
160.777
 20
120.082
 30
0.000000
  70
    32
  0
VERTEX
  8
0
  5
1915
 10
160.749
 20
120.084
 30
0.000000
  70
    32
  0
VERTEX
  8
0
  5
1916
 10
160.720
 20
120.086
 30
0.000000
  70
    32
  0
VERTEX
  8
0
  5
1917
 10
160.691
 20
120.087
 30
0.000000
  70
    32
  0
VERTEX
  8
0
  5
1918
 10
160.662
 20
120.089
 30
0.000000
  70
    32
  0
VERTEX
  8
0
  5
1919
 10
160.632
 20
120.090
 30
0.000000
  70
    32
  0
VERTEX
  8
0
  5
191A
 10
160.603
 20
120.091
 30
0.000000
  70
    32
  0
VERTEX
  8
0
  5
191B
 10
160.574
 20
120.091
 30
0.000000
  70
    32
  0
VERTEX
  8
0
  5
191C
 10
160.544
 20
120.092
 30
0.000000
  70
    32
  0
VERTEX
  8
0
  5
191D
 10
160.515
 20
120.092
 30
0.000000
  70
    32
  0
VERTEX
  8
0
  5
191E
 10
160.485
 20
120.092
 30
0.000000
  70
    32
  0
SEQEND
  8
0
  5
191F
  0
LINE
  5
B9F
  8
0
 10
161.69857325339771
 20
119.7343668948423
 30
0.0
 11
161.69857325339771
 21
119.7337494905093
 31
0.0
  0
LINE
  5
BA0
  8
0
 10
160.69058139075059
 20
120.08945527824299
 30
0.0
 11
150.77685902762039
 21
120.281780010817
 31
0.0
  0
LINE
  5
BA1
  8
0
 10
160.50726485992351
 20
121.63631798346169
 30
0.0
 11
150.77685902760859
 21
121.63631798346169
 31
0.0
  0
LINE
  5
BA2
  8
0
 10
160.50726485992351
 20
125.1463151119694
 30
0.0
 11
150.77685902761991
 21
125.1463151119689
 31
0.0
  0
LINE
  5
BA3
  8
0
 10
160.50726485992351
 20
122.9533190146518
 30
0.0
 11
150.77685902761809
 21
122.9533190146518
 31
0.0
  0
LINE
  5
BA4
  8
0
 10
160.50726485992351
 20
126.98732107491119
 30
0.0
 11
150.77685902761991
 21
126.98732107491119
 31
0.0
  0
LINE
  5
BA5
  8
0
 10
160.53536934021849
 20
119.4074292012139
 30
0.0
 11
150.8501198220041
 21
119.59561211155111
 31
0.0
  0
LINE
  5
BA6
  8
0
 10
150.77685902761991
 20
126.98732107491119
 30
0.0
 11
150.77685902761951
 21
129.80113186919351
 31
0.0
  0
LINE
  5
BA7
  8
0
 10
162.19387018685879
 20
119.3191241781452
 30
0.0
 11
162.19387018685879
 21
159.31912417814519
 31
0.0
  0
CIRCLE
  5
BA8
  8
0
 10
236.1938701868591
 20
139.31912417814519
 30
0.0
 40
20.0
  0
LINE
  5
BA9
  8
0
 10
163.1938701868593
 20
158.31912417814479
 30
0.0
 11
163.19387018685879
 21
120.3191241781453
 31
0.0
  0
LINE
  5
BAA
  8
0
 10
149.19387020248999
 20
157.8191241781451
 30
0.0
 11
149.1938702024901
 21
120.8191241781452
 31
0.0
  0
LINE
  5
BAB
  8
2
 10
154.47187019668439
 20
139.31912417814519
 30
0.0
 11
154.47187019668439
 21
126.8191241781452
 31
0.0
  0
TEXT
  5
C5F
  8
0
 62
     3
 10
0.0
 20
0.0
 30
0.0
 40
10.0
  1
FTK40T
  7
STANDARD1
  0
ENDSEC
  0
EOF
