  0
SECTION
  2
HEADER
  9
$ACADVER
  1
AC1009
  9
$INSBASE
 10
0.0
 20
0.0
 30
0.0
  9
$EXTMIN
 10
0.0
 20
-2.960436562073669
 30
0.0
  9
$EXTMAX
 10
240.08780899999999
 20
290.72751799999998
 30
0.0
  9
$LIMMIN
 10
0.0
 20
0.0
  9
$LIMMAX
 10
375.0
 20
270.0
  9
$ORTHOMODE
 70
     1
  9
$REGENMODE
 70
     1
  9
$FILLMODE
 70
     1
  9
$QTEXTMODE
 70
     0
  9
$MIRRTEXT
 70
     0
  9
$DRAGMODE
 70
     2
  9
$LTSCALE
 40
10.0
  9
$OSMODE
 70
    55
  9
$ATTMODE
 70
     1
  9
$TEXTSIZE
 40
0.2
  9
$TRACEWID
 40
0.05
  9
$TEXTSTYLE
  7
STANDARD
  9
$CLAYER
  8
0
  9
$CELTYPE
  6
BYLAYER
  9
$CECOLOR
 62
   256
  9
$DIMSCALE
 40
1.0
  9
$DIMASZ
 40
3.0
  9
$DIMEXO
 40
2.0
  9
$DIMDLI
 40
10.0
  9
$DIMRND
 40
0.0
  9
$DIMDLE
 40
0.0
  9
$DIMEXE
 40
2.0
  9
$DIMTP
 40
0.0
  9
$DIMTM
 40
0.0
  9
$DIMTXT
 40
3.2000000000000002
  9
$DIMCEN
 40
0.09
  9
$DIMTSZ
 40
0.0
  9
$DIMTOL
 70
     0
  9
$DIMLIM
 70
     0
  9
$DIMTIH
 70
     0
  9
$DIMTOH
 70
     0
  9
$DIMSE1
 70
     0
  9
$DIMSE2
 70
     0
  9
$DIMTAD
 70
     1
  9
$DIMZIN
 70
     0
  9
$DIMBLK
  1

  9
$DIMASO
 70
     0
  9
$DIMSHO
 70
     0
  9
$DIMPOST
  1

  9
$DIMAPOST
  1

  9
$DIMALT
 70
     0
  9
$DIMALTD
 70
     2
  9
$DIMALTF
 40
25.399999999999999
  9
$DIMLFAC
 40
1.0
  9
$DIMTOFL
 70
     1
  9
$DIMTVP
 40
1.6000000000000001
  9
$DIMTIX
 70
     0
  9
$DIMSOXD
 70
     0
  9
$DIMSAH
 70
     0
  9
$DIMBLK1
  1

  9
$DIMBLK2
  1

  9
$DIMSTYLE
  2
STANDARD
  9
$DIMCLRD
 70
     0
  9
$DIMCLRE
 70
     0
  9
$DIMCLRT
 70
     0
  9
$DIMTFAC
 40
1.0
  9
$DIMGAP
 40
0.09
  9
$LUNITS
 70
     2
  9
$LUPREC
 70
     4
  9
$SKETCHINC
 40
0.1
  9
$FILLETRAD
 40
0.0
  9
$AUNITS
 70
     0
  9
$AUPREC
 70
     0
  9
$MENU
  1
E:\r13\win\SUPPORT\ACAD
  9
$ELEVATION
 40
0.0
  9
$PELEVATION
 40
0.0
  9
$THICKNESS
 40
0.0
  9
$LIMCHECK
 70
     0
  9
$BLIPMODE
 70
     0
  9
$CHAMFERA
 40
0.0
  9
$CHAMFERB
 40
0.0
  9
$SKPOLY
 70
     0
  9
$TDCREATE
 40
2449840.6171296299
  9
$TDUPDATE
 40
2456598.6791026848
  9
$TDINDWG
 40
0.0128727546
  9
$TDUSRTIMER
 40
0.0128727546
  9
$USRTIMER
 70
     1
  9
$ANGBASE
 50
0.0
  9
$ANGDIR
 70
     0
  9
$PDMODE
 70
     0
  9
$PDSIZE
 40
0.0
  9
$PLINEWID
 40
0.0
  9
$COORDS
 70
     1
  9
$SPLFRAME
 70
     0
  9
$SPLINETYPE
 70
     6
  9
$SPLINESEGS
 70
     8
  9
$ATTDIA
 70
     0
  9
$ATTREQ
 70
     1
  9
$HANDLING
 70
     1
  9
$HANDSEED
  5
341
  9
$SURFTAB1
 70
     6
  9
$SURFTAB2
 70
     6
  9
$SURFTYPE
 70
     6
  9
$SURFU
 70
     6
  9
$SURFV
 70
     6
  9
$UCSNAME
  2

  9
$UCSORG
 10
0.0
 20
0.0
 30
0.0
  9
$UCSXDIR
 10
1.0
 20
0.0
 30
0.0
  9
$UCSYDIR
 10
0.0
 20
1.0
 30
0.0
  9
$PUCSNAME
  2

  9
$PUCSORG
 10
0.0
 20
0.0
 30
0.0
  9
$PUCSXDIR
 10
1.0
 20
0.0
 30
0.0
  9
$PUCSYDIR
 10
0.0
 20
1.0
 30
0.0
  9
$USERI1
 70
     0
  9
$USERI2
 70
     1
  9
$USERI3
 70
     0
  9
$USERI4
 70
     0
  9
$USERI5
 70
     0
  9
$USERR1
 40
0.0
  9
$USERR2
 40
0.0
  9
$USERR3
 40
0.0
  9
$USERR4
 40
0.0
  9
$USERR5
 40
0.0
  9
$WORLDVIEW
 70
     1
  9
$SHADEDGE
 70
     3
  9
$SHADEDIF
 70
    70
  9
$TILEMODE
 70
     1
  9
$MAXACTVP
 70
    16
  9
$PLIMCHECK
 70
     0
  9
$PEXTMIN
 10
1.0000000000000000E+020
 20
1.0000000000000000E+020
 30
1.0000000000000000E+020
  9
$PEXTMAX
 10
-1.0000000000000000E+020
 20
-1.0000000000000000E+020
 30
-1.0000000000000000E+020
  9
$PLIMMIN
 10
0.0
 20
0.0
  9
$PLIMMAX
 10
12.0
 20
9.0
  9
$UNITMODE
 70
     0
  9
$VISRETAIN
 70
     0
  9
$PLINEGEN
 70
     0
  9
$PSLTSCALE
 70
     0
  0
ENDSEC
  0
SECTION
  2
TABLES
  0
TABLE
  2
VPORT
 70
     1
  0
VPORT
  2
*ACTIVE
 70
     0
 10
0.0
 20
0.0
 11
1.0
 21
1.0
 12
187.4942783906524
 22
188.42792859625061
 13
0.0
 23
0.0
 14
10.0
 24
10.0
 15
10.0
 25
10.0
 16
0.0
 26
0.0
 36
1.0
 17
0.0
 27
0.0
 37
0.0
 40
386.19410429655591
 41
1.7807262569832401
 42
50.0
 43
0.0
 44
0.0
 50
0.0
 51
0.0
 71
     0
 72
   100
 73
     1
 74
     0
 75
     0
 76
     0
 77
     0
 78
     0
  0
ENDTAB
  0
TABLE
  2
LTYPE
 70
     4
  0
LTYPE
  2
CONTINUOUS
 70
     0
  3
Solid Line
 72
    65
 73
     0
 40
0.0
  0
LTYPE
  2
CENTER
 70
     0
  3
____ _ ____ _ ____ _ ____ _ ____ _ ____ _ ____
 72
    65
 73
     4
 40
2.0
 49
1.25
 49
-0.25
 49
0.25
 49
-0.25
  0
LTYPE
  2
HIDDEN
 70
     0
  3
Hidden __ __ __ __ __ __ __ __ __ __ __ __ __ _
 72
    65
 73
     2
 40
0.375
 49
0.25
 49
-0.125
  0
LTYPE
  2
PHANTOM2
 70
     0
  3
___ _ _ ___ _ _ ___ _ _ ___ _ _
 72
    65
 73
     6
 40
1.25
 49
0.625
 49
-0.125
 49
0.125
 49
-0.125
 49
0.125
 49
-0.125
  0
ENDTAB
  0
TABLE
  2
LAYER
 70
     4
  0
LAYER
  2
0
 70
     0
 62
     7
  6
CONTINUOUS
  0
LAYER
  2
1
 70
     0
 62
     1
  6
CENTER
  0
LAYER
  2
3
 70
     0
 62
     3
  6
CONTINUOUS
  0
LAYER
  2
2
 70
     0
 62
     2
  6
HIDDEN
  0
ENDTAB
  0
TABLE
  2
STYLE
 70
     3
  0
STYLE
  2
STANDARD
 70
     0
 40
0.0
 41
1.0
 50
0.0
 71
     0
 42
0.2
  3
TXT
  4
BIGFONT
  0
STYLE
  2
COMPLEX
 70
     0
 40
3.5
 41
0.4
 50
0.0
 71
     0
 42
3.0
  3
COMPLEX
  4

  0
STYLE
  2
STANDARD1
 70
     0
 40
0.0
 41
1.0
 50
0.0
 71
     0
 42
3.0
  3
txt
  4

  0
ENDTAB
  0
TABLE
  2
VIEW
 70
     1
  0
VIEW
  2
ALL
 70
     0
 40
270.0
 10
220.99159700000001
 20
135.0
 41
0.0
 11
0.0
 21
0.0
 31
1.0
 12
0.0
 22
0.0
 32
0.0
 42
0.0
 43
0.0
 44
0.0
 50
0.0
 71
     0
  0
ENDTAB
  0
TABLE
  2
UCS
 70
     0
  0
ENDTAB
  0
TABLE
  2
APPID
 70
     3
  0
APPID
  2
ACAD
 70
     0
  0
APPID
  2
ACAD_MLEADERVER
 70
     0
  0
APPID
  2
ACAD_NAV_VCDISPLAY
 70
     0
  0
ENDTAB
  0
TABLE
  2
DIMSTYLE
 70
     1
  0
DIMSTYLE
  2
STANDARD
 70
     0
  3

  4

  5

  6

  7

 40
1.0
 41
0.18
 42
0.0625
 43
0.38
 44
0.18
 45
0.0
 46
0.0
 47
0.0
 48
0.0
140
0.18
141
0.09
142
0.0
143
25.399999999999999
144
1.0
145
0.0
146
1.0
147
0.09
 71
     0
 72
     0
 73
     1
 74
     1
 75
     0
 76
     0
 77
     0
 78
     0
170
     0
171
     2
172
     0
173
     0
174
     0
175
     0
176
     0
177
     0
178
     0
  0
ENDTAB
  0
ENDSEC
  0
SECTION
  2
BLOCKS
  0
BLOCK
  8
0
  2
$MODEL_SPACE
 70
     0
 10
0.0
 20
0.0
 30
0.0
  3
$MODEL_SPACE
  1

  0
ENDBLK
  5
E8
  8
0
  0
BLOCK
 67
     1
  8
0
  2
$PAPER_SPACE
 70
     0
 10
0.0
 20
0.0
 30
0.0
  3
$PAPER_SPACE
  1

  0
ENDBLK
  5
E6
 67
     1
  8
0
  0
ENDSEC
  0
SECTION
  2
ENTITIES
  0
CIRCLE
  5
37
  8
0
 10
133.58780899999999
 20
265.22751799999998
 30
0.0
 40
20.5
  0
LINE
  5
38
  8
1
 10
108.08780899999999
 20
265.22751799999998
 30
0.0
 11
159.08780899999999
 21
265.22751799999998
 31
0.0
  0
LINE
  5
3A
  8
1
 10
133.58780899999999
 20
290.72751799999998
 30
0.0
 11
133.58780899999999
 21
239.727518
 31
0.0
  0
CIRCLE
  5
3D
  8
0
 10
133.58780899999999
 20
265.22751799999998
 30
0.0
 40
18.5
  0
CIRCLE
  5
3E
  8
0
 10
133.58780899999999
 20
265.22751799999998
 30
0.0
 40
11.0
  0
CIRCLE
  5
3F
  8
0
 10
133.58780899999999
 20
265.22751799999998
 30
0.0
 40
7.5
  0
CIRCLE
  5
40
  8
0
 10
133.58780899999999
 20
274.22751799999998
 30
0.0
 40
0.75
  0
LINE
  5
41
  8
1
 10
130.33780899999999
 20
274.22751799999998
 30
0.0
 11
136.83780899999999
 21
274.22751799999998
 31
0.0
  0
LINE
  5
42
  8
1
 10
130.33780899999999
 20
256.22751799999998
 30
0.0
 11
136.83780899999999
 21
256.22751799999998
 31
0.0
  0
CIRCLE
  5
43
  8
0
 10
133.58780899999999
 20
256.22751799999998
 30
0.0
 40
0.75
  0
TEXT
  5
44
  8
0
 10
131.25447566666659
 20
263.72751799999998
 30
0.0
 40
3.5
  1
Kipp
 41
0.4
  7
COMPLEX
 72
     1
 11
133.58780899999999
 21
263.72751799999998
 31
0.0
  0
ARC
  5
45
  8
0
 10
138.78396100000001
 20
262.22751799999998
 30
0.0
 40
0.5
 50
270.0
 51
30.0
  0
ARC
  5
46
  8
0
 10
128.39165700000001
 20
262.22751799999998
 30
0.0
 40
0.5
 50
150.0
 51
270.0
  0
ARC
  5
47
  8
0
 10
133.58780899999999
 20
271.22751799999998
 30
0.0
 40
0.5
 50
30.0
 51
150.0
  0
LINE
  5
48
  8
0
 10
139.21697399999999
 20
262.47751799999998
 30
0.0
 11
134.02082200000001
 21
271.47751799999998
 31
0.0
  0
LINE
  5
49
  8
0
 10
128.39165700000001
 20
261.72751799999998
 30
0.0
 11
138.78396100000001
 21
261.72751799999998
 31
0.0
  0
LINE
  5
4A
  8
0
 10
133.15479599999989
 20
271.47751799999998
 30
0.0
 11
127.95864400000001
 21
262.47751799999998
 31
0.0
  0
LINE
  5
52
  8
1
 10
108.08780899999999
 20
196.227518
 30
0.0
 11
159.08780899999999
 21
196.227518
 31
0.0
  0
LINE
  5
53
  8
0
 10
115.08780899999999
 20
204.727518
 30
0.0
 11
113.08780899999999
 21
202.727518
 31
0.0
  0
LINE
  5
54
  8
0
 10
113.08780899999999
 20
202.727518
 30
0.0
 11
113.08780899999999
 21
185.727518
 31
0.0
  0
LINE
  5
55
  8
0
 10
113.08780899999999
 20
185.727518
 30
0.0
 11
114.08780899999999
 21
184.727518
 31
0.0
  0
LINE
  5
56
  8
0
 10
124.08780899999999
 20
184.727518
 30
0.0
 11
124.08780899999999
 21
183.327518
 31
0.0
  0
LINE
  5
57
  8
0
 10
124.08780899999999
 20
183.327518
 30
0.0
 11
124.687809
 21
182.72751799999989
 31
0.0
  0
LINE
  5
58
  8
0
 10
143.08780899999999
 20
183.327518
 30
0.0
 11
142.487809
 21
182.72751799999989
 31
0.0
  0
LINE
  5
59
  8
0
 10
143.08780899999999
 20
184.727518
 30
0.0
 11
143.08780899999999
 21
183.327518
 31
0.0
  0
LINE
  5
5A
  8
0
 10
154.08780899999999
 20
185.727518
 30
0.0
 11
153.08780899999999
 21
184.727518
 31
0.0
  0
LINE
  5
5B
  8
2
 10
154.08780899999999
 20
202.727518
 30
0.0
 11
154.08780899999999
 21
202.227518
 31
0.0
  0
LINE
  5
5C
  8
0
 10
152.08780899999999
 20
204.727518
 30
0.0
 11
154.08780899999999
 21
202.727518
 31
0.0
  0
LINE
  5
5D
  8
0
 10
115.08780899999999
 20
204.727518
 30
0.0
 11
152.08780899999999
 21
204.727518
 31
0.0
  0
LINE
  5
5E
  8
0
 10
154.08780899999999
 20
202.727518
 30
0.0
 11
113.08780899999999
 21
202.727518
 31
0.0
  0
LINE
  5
5F
  8
0
 10
113.08780899999999
 20
185.727518
 30
0.0
 11
154.08780899999999
 21
185.727518
 31
0.0
  0
LINE
  5
60
  8
0
 10
114.08780899999999
 20
184.727518
 30
0.0
 11
153.08780899999999
 21
184.727518
 31
0.0
  0
LINE
  5
61
  8
0
 10
124.687809
 20
182.72751799999989
 30
0.0
 11
142.487809
 21
182.72751799999989
 31
0.0
  0
ARC
  5
62
  8
0
 10
173.69010499999999
 20
196.227518
 30
0.0
 40
20.5
 50
162.98135300000001
 51
197.01864699999999
  0
LINE
  5
63
  8
0
 10
154.08780899999999
 20
190.227518
 30
0.0
 11
154.08780899999999
 21
185.727518
 31
0.0
  0
LINE
  5
64
  8
1
 10
133.58780899999999
 20
209.727518
 30
0.0
 11
133.58780899999999
 21
127.727518
 31
0.0
  0
LINE
  5
65
  8
0
 10
124.08780899999999
 20
183.327518
 30
0.0
 11
143.08780899999999
 21
183.327518
 31
0.0
  0
LINE
  5
6A
  8
1
 10
133.58780899999999
 20
97.727517999999975
 30
0.0
 11
133.58780899999999
 21
46.727517999999968
 31
0.0
  0
LINE
  5
6C
  8
1
 10
108.08780899999999
 20
72.227517999999975
 30
0.0
 11
159.08780899999999
 21
72.227517999999975
 31
0.0
  0
CIRCLE
  5
6D
  8
0
 10
133.58780899999999
 20
72.227517999999975
 30
0.0
 40
20.5
  0
CIRCLE
  5
6E
  8
0
 10
133.58780899999999
 20
72.227517999999975
 30
0.0
 40
19.5
  0
CIRCLE
  5
6F
  8
0
 10
133.58780899999999
 20
72.227517999999975
 30
0.0
 40
9.5
  0
CIRCLE
  5
70
  8
0
 10
133.58780899999999
 20
72.227517999999975
 30
0.0
 40
8.9000000000000004
  0
CIRCLE
  5
71
  8
3
 10
133.58780899999999
 20
72.227517999999975
 30
0.0
 40
5.0
  0
CIRCLE
  5
72
  8
0
 10
133.58780899999999
 20
72.227517999999975
 30
0.0
 40
4.1879999999999988
  0
LINE
  5
74
  8
1
 10
214.58780899999999
 20
209.727518
 30
0.0
 11
214.58780899999999
 21
127.727518
 31
0.0
  0
LINE
  5
75
  8
0
 10
235.08780899999999
 20
202.727518
 30
0.0
 11
235.08780899999999
 21
185.727518
 31
0.0
  0
LINE
  5
79
  8
0
 10
235.08780899999999
 20
202.727518
 30
0.0
 11
194.08780899999999
 21
202.727518
 31
0.0
  0
LINE
  5
7B
  8
0
 10
233.08780899999999
 20
204.727518
 30
0.0
 11
235.08780899999999
 21
202.727518
 31
0.0
  0
LINE
  5
7C
  8
0
 10
235.08780899999999
 20
185.727518
 30
0.0
 11
234.08780899999999
 21
184.727518
 31
0.0
  0
LINE
  5
7D
  8
0
 10
224.08780899999999
 20
184.727518
 30
0.0
 11
224.08780899999999
 21
183.327518
 31
0.0
  0
LINE
  5
7E
  8
0
 10
224.08780899999999
 20
183.327518
 30
0.0
 11
223.487809
 21
182.72751799999989
 31
0.0
  0
LINE
  5
7F
  8
0
 10
205.08780899999999
 20
183.327518
 30
0.0
 11
205.68780899999999
 21
182.72751799999989
 31
0.0
  0
LINE
  5
80
  8
0
 10
205.08780899999999
 20
184.727518
 30
0.0
 11
205.08780899999999
 21
183.327518
 31
0.0
  0
LINE
  5
81
  8
0
 10
194.08780899999999
 20
185.727518
 30
0.0
 11
195.08780899999999
 21
184.727518
 31
0.0
  0
LINE
  5
82
  8
0
 10
194.08780899999999
 20
202.727518
 30
0.0
 11
194.08780899999999
 21
185.727518
 31
0.0
  0
LINE
  5
83
  8
0
 10
196.08780899999999
 20
204.727518
 30
0.0
 11
194.08780899999999
 21
202.727518
 31
0.0
  0
LINE
  5
84
  8
1
 10
189.08780899999999
 20
196.227518
 30
0.0
 11
240.08780899999999
 21
196.227518
 31
0.0
  0
LINE
  5
86
  8
0
 10
196.08780899999999
 20
204.727518
 30
0.0
 11
233.08780899999999
 21
204.727518
 31
0.0
  0
LINE
  5
88
  8
0
 10
194.08780899999999
 20
185.727518
 30
0.0
 11
235.08780899999999
 21
185.727518
 31
0.0
  0
LINE
  5
89
  8
0
 10
195.08780900000011
 20
184.727518
 30
0.0
 11
234.08780899999999
 21
184.727518
 31
0.0
  0
LINE
  5
8A
  8
0
 10
205.08780899999999
 20
183.327518
 30
0.0
 11
224.08780899999999
 21
183.327518
 31
0.0
  0
LINE
  5
8B
  8
0
 10
205.68780899999999
 20
182.72751799999989
 30
0.0
 11
223.487809
 21
182.72751799999989
 31
0.0
  0
LINE
  5
8C
  8
0
 10
73.087808999999993
 20
202.727518
 30
0.0
 11
32.087809
 21
202.727518
 31
0.0
  0
LINE
  5
8E
  8
1
 10
27.087808999999989
 20
196.227518
 30
0.0
 11
78.087808999999993
 21
196.227518
 31
0.0
  0
LINE
  5
8F
  8
0
 10
34.087809
 20
204.727518
 30
0.0
 11
32.087809
 21
202.727518
 31
0.0
  0
LINE
  5
90
  8
0
 10
32.087809
 20
202.727518
 30
0.0
 11
32.087809
 21
185.727518
 31
0.0
  0
LINE
  5
91
  8
0
 10
32.087809
 20
185.727518
 30
0.0
 11
33.087809
 21
184.727518
 31
0.0
  0
LINE
  5
92
  8
0
 10
43.087809
 20
184.727518
 30
0.0
 11
43.087809
 21
183.327518
 31
0.0
  0
LINE
  5
93
  8
0
 10
43.087809
 20
183.327518
 30
0.0
 11
43.687808999999987
 21
182.72751799999989
 31
0.0
  0
LINE
  5
94
  8
0
 10
62.087808999999993
 20
183.327518
 30
0.0
 11
61.487808999999999
 21
182.72751799999989
 31
0.0
  0
LINE
  5
95
  8
0
 10
62.087808999999993
 20
184.727518
 30
0.0
 11
62.087808999999993
 21
183.327518
 31
0.0
  0
LINE
  5
96
  8
0
 10
73.087808999999993
 20
185.727518
 30
0.0
 11
72.087808999999993
 21
184.727518
 31
0.0
  0
LINE
  5
97
  8
0
 10
71.087808999999993
 20
204.727518
 30
0.0
 11
73.087808999999993
 21
202.727518
 31
0.0
  0
LINE
  5
98
  8
0
 10
34.087809
 20
204.727518
 30
0.0
 11
71.087808999999993
 21
204.727518
 31
0.0
  0
LINE
  5
99
  8
0
 10
32.087809
 20
185.727518
 30
0.0
 11
73.087808999999993
 21
185.727518
 31
0.0
  0
LINE
  5
9A
  8
0
 10
33.087809
 20
184.727518
 30
0.0
 11
72.087808999999993
 21
184.727518
 31
0.0
  0
LINE
  5
9B
  8
0
 10
43.687808999999987
 20
182.72751799999989
 30
0.0
 11
61.487808999999999
 21
182.72751799999989
 31
0.0
  0
LINE
  5
9C
  8
0
 10
73.087808999999993
 20
202.727518
 30
0.0
 11
73.087808999999993
 21
185.727518
 31
0.0
  0
LINE
  5
9D
  8
1
 10
52.587809
 20
209.727518
 30
0.0
 11
52.587808999999979
 21
127.727518
 31
0.0
  0
LINE
  5
9E
  8
0
 10
43.087809
 20
183.327518
 30
0.0
 11
62.087808999999993
 21
183.327518
 31
0.0
  0
LINE
  5
113
  8
2
 10
152.58780899999999
 20
202.227518
 30
0.0
 11
154.08780899999999
 21
202.227518
 31
0.0
  0
LINE
  5
114
  8
2
 10
152.58780899999999
 20
190.227518
 30
0.0
 11
154.08780899999999
 21
190.227518
 31
0.0
  0
LINE
  5
115
  8
2
 10
152.58780899999999
 20
202.227518
 30
0.0
 11
152.58780899999999
 21
190.227518
 31
0.0
  0
LINE
  5
116
  8
2
 10
145.08780899999999
 20
201.227518
 30
0.0
 11
152.58780899999999
 21
201.227518
 31
0.0
  0
LINE
  5
117
  8
2
 10
145.08780899999999
 20
200.41551799999999
 30
0.0
 11
152.58780899999999
 21
200.41551799999999
 31
0.0
  0
LINE
  5
118
  8
2
 10
145.08780899999999
 20
192.03951799999999
 30
0.0
 11
152.58780899999999
 21
192.03951799999999
 31
0.0
  0
LINE
  5
119
  8
2
 10
145.08780899999999
 20
191.227518
 30
0.0
 11
152.58780899999999
 21
191.227518
 31
0.0
  0
LINE
  5
11C
  8
2
 10
145.08780899999999
 20
201.227518
 30
0.0
 11
145.08780899999999
 21
191.227518
 31
0.0
  0
CIRCLE
  5
128
  8
0
 10
214.58780899999999
 20
196.22751799999989
 30
0.0
 40
5.999999861933901
  0
CIRCLE
  5
129
  8
3
 10
214.58780899999999
 20
196.22751799999989
 30
0.0
 40
5.000000000000056
  0
CIRCLE
  5
12A
  8
0
 10
214.58780899999999
 20
196.22751799999989
 30
0.0
 40
4.188000000000045
  0
LINE
  5
1CD
  8
0
 10
56.087808999999993
 20
132.72751799999989
 30
0.0
 11
57.587808999999993
 21
134.22751799999989
 31
0.0
  0
LINE
  5
1CE
  8
0
 10
57.587808999999993
 20
134.22751799999989
 30
0.0
 11
57.587808999999993
 21
182.327518
 31
0.0
  0
ARC
  5
1CF
  8
0
 10
57.98780899999997
 20
182.327518
 30
0.0
 40
0.4
 50
90.0
 51
180.0
  0
LINE
  5
1D0
  8
3
 10
57.587808999999993
 20
182.327518
 30
0.0
 11
56.775808999999981
 21
180.92109300000001
 31
0.0
  0
LINE
  5
1D1
  8
3
 10
56.775808999999981
 20
180.92109300000001
 30
0.0
 11
56.775808999999981
 21
133.41551799999999
 31
0.0
  0
LINE
  5
1D2
  8
3
 10
48.399808999999998
 20
180.92109300000001
 30
0.0
 11
48.399808999999998
 21
133.41551799999999
 31
0.0
  0
LINE
  5
1D3
  8
3
 10
47.587808999999993
 20
182.327518
 30
0.0
 11
48.399808999999998
 21
180.92109300000001
 31
0.0
  0
ARC
  5
1D4
  8
0
 10
47.187809000000009
 20
182.327518
 30
0.0
 40
0.4
 50
0.0
 51
90.0
  0
LINE
  5
1D5
  8
0
 10
47.587808999999993
 20
134.22751799999989
 30
0.0
 11
47.587808999999993
 21
182.327518
 31
0.0
  0
LINE
  5
1D6
  8
0
 10
49.087809
 20
132.72751799999989
 30
0.0
 11
47.587808999999993
 21
134.22751799999989
 31
0.0
  0
LINE
  5
1D7
  8
0
 10
47.587808999999993
 20
180.92109300000001
 30
0.0
 11
57.587808999999993
 21
180.92109300000001
 31
0.0
  0
LINE
  5
1D8
  8
0
 10
47.587808999999993
 20
134.22751799999989
 30
0.0
 11
57.587808999999993
 21
134.22751799999989
 31
0.0
  0
LINE
  5
1D9
  8
0
 10
49.087809
 20
132.72751799999989
 30
0.0
 11
56.087808999999993
 21
132.72751799999989
 31
0.0
  0
LINE
  5
1DC
  8
0
 10
130.08780899999999
 20
132.72751799999989
 30
0.0
 11
137.08780899999999
 21
132.72751799999989
 31
0.0
  0
LINE
  5
1DD
  8
0
 10
128.58780899999999
 20
134.22751799999989
 30
0.0
 11
138.58780899999999
 21
134.22751799999989
 31
0.0
  0
LINE
  5
1DE
  8
0
 10
128.58780899999999
 20
180.92109300000001
 30
0.0
 11
138.58780899999999
 21
180.92109300000001
 31
0.0
  0
LINE
  5
1DF
  8
0
 10
130.08780899999999
 20
132.72751799999989
 30
0.0
 11
128.58780899999999
 21
134.22751799999989
 31
0.0
  0
LINE
  5
1E0
  8
0
 10
128.58780899999999
 20
134.22751799999989
 30
0.0
 11
128.58780899999999
 21
182.327518
 31
0.0
  0
ARC
  5
1E1
  8
0
 10
128.18780899999999
 20
182.327518
 30
0.0
 40
0.4
 50
0.0
 51
90.0
  0
LINE
  5
1E2
  8
3
 10
128.58780899999999
 20
182.327518
 30
0.0
 11
129.399809
 21
180.92109300000001
 31
0.0
  0
LINE
  5
1E3
  8
3
 10
129.399809
 20
180.92109300000001
 30
0.0
 11
129.399809
 21
133.41551799999999
 31
0.0
  0
LINE
  5
1E4
  8
3
 10
137.77580900000001
 20
180.92109300000001
 30
0.0
 11
137.77580900000001
 21
133.41551799999999
 31
0.0
  0
LINE
  5
1E5
  8
3
 10
138.58780899999999
 20
182.327518
 30
0.0
 11
137.77580900000001
 21
180.92109300000001
 31
0.0
  0
ARC
  5
1E6
  8
0
 10
138.98780899999991
 20
182.327518
 30
0.0
 40
0.4
 50
90.0
 51
180.0
  0
LINE
  5
1E7
  8
0
 10
138.58780899999999
 20
134.22751799999989
 30
0.0
 11
138.58780899999999
 21
182.327518
 31
0.0
  0
LINE
  5
1E8
  8
0
 10
137.08780899999999
 20
132.72751799999989
 30
0.0
 11
138.58780899999999
 21
134.22751799999989
 31
0.0
  0
LINE
  5
1E9
  8
0
 10
218.08780899999999
 20
132.72751799999989
 30
0.0
 11
219.58780899999999
 21
134.22751799999989
 31
0.0
  0
LINE
  5
1EA
  8
0
 10
219.58780899999999
 20
134.22751799999989
 30
0.0
 11
219.58780899999999
 21
182.327518
 31
0.0
  0
ARC
  5
1EB
  8
0
 10
219.987809
 20
182.327518
 30
0.0
 40
0.4
 50
90.0
 51
180.0
  0
LINE
  5
1EC
  8
3
 10
219.58780899999999
 20
182.327518
 30
0.0
 11
218.77580900000001
 21
180.92109300000001
 31
0.0
  0
LINE
  5
1ED
  8
3
 10
218.77580900000001
 20
180.92109300000001
 30
0.0
 11
218.77580900000001
 21
133.41551799999999
 31
0.0
  0
LINE
  5
1EE
  8
3
 10
210.399809
 20
180.92109300000001
 30
0.0
 11
210.399809
 21
133.41551799999999
 31
0.0
  0
LINE
  5
1EF
  8
3
 10
209.58780899999999
 20
182.327518
 30
0.0
 11
210.399809
 21
180.92109300000001
 31
0.0
  0
ARC
  5
1F0
  8
0
 10
209.1878090000001
 20
182.327518
 30
0.0
 40
0.4
 50
0.0
 51
90.0
  0
LINE
  5
1F1
  8
0
 10
209.58780899999999
 20
134.22751799999989
 30
0.0
 11
209.58780899999999
 21
182.327518
 31
0.0
  0
LINE
  5
1F2
  8
0
 10
211.08780899999999
 20
132.72751799999989
 30
0.0
 11
209.58780899999999
 21
134.22751799999989
 31
0.0
  0
LINE
  5
1F3
  8
0
 10
209.58780899999999
 20
180.92109300000001
 30
0.0
 11
219.58780899999999
 21
180.92109300000001
 31
0.0
  0
LINE
  5
1F4
  8
0
 10
209.58780899999999
 20
134.22751799999989
 30
0.0
 11
219.58780899999999
 21
134.22751799999989
 31
0.0
  0
LINE
  5
1F5
  8
0
 10
211.08780899999999
 20
132.72751799999989
 30
0.0
 11
218.08780899999999
 21
132.72751799999989
 31
0.0
  0
TEXT
  5
2AF
  8
0
 62
     3
 10
0.0
 20
0.0
 30
0.0
 40
10.0
  1
FTN10X50
  7
STANDARD1
  0
ENDSEC
  0
EOF
